  0
SECTION
  2
HEADER
  9
$ACADVER
  1
AC1024
  9
$ACADMAINTVER
 70
   205
  9
$DWGCODEPAGE
  3
ANSI_936
  9
$LASTSAVEDBY
  1
Arysting
  9
$INSBASE
 10
0.0
 20
0.0
 30
0.0
  9
$EXTMIN
 10
-73.94477861198175
 20
-63.24451372532258
 30
0.0
  9
$EXTMAX
 10
2322.055221388018
 20
1080.755486274677
 30
0.0
  9
$LIMMIN
 10
0.0
 20
0.0
  9
$LIMMAX
 10
420.0
 20
297.0
  9
$ORTHOMODE
 70
     0
  9
$REGENMODE
 70
     1
  9
$FILLMODE
 70
     1
  9
$QTEXTMODE
 70
     0
  9
$MIRRTEXT
 70
     0
  9
$LTSCALE
 40
1.0
  9
$ATTMODE
 70
     1
  9
$TEXTSIZE
 40
2.5
  9
$TRACEWID
 40
1.0
  9
$TEXTSTYLE
  7
Standard
  9
$CLAYER
  8
0
  9
$CELTYPE
  6
ByLayer
  9
$CECOLOR
 62
   256
  9
$CELTSCALE
 40
1.0
  9
$DISPSILH
 70
     0
  9
$DIMSCALE
 40
1.0
  9
$DIMASZ
 40
2.5
  9
$DIMEXO
 40
0.625
  9
$DIMDLI
 40
3.75
  9
$DIMRND
 40
0.0
  9
$DIMDLE
 40
0.0
  9
$DIMEXE
 40
1.25
  9
$DIMTP
 40
0.0
  9
$DIMTM
 40
0.0
  9
$DIMTXT
 40
2.5
  9
$DIMCEN
 40
2.5
  9
$DIMTSZ
 40
0.0
  9
$DIMTOL
 70
     0
  9
$DIMLIM
 70
     0
  9
$DIMTIH
 70
     0
  9
$DIMTOH
 70
     0
  9
$DIMSE1
 70
     0
  9
$DIMSE2
 70
     0
  9
$DIMTAD
 70
     1
  9
$DIMZIN
 70
     8
  9
$DIMBLK
  1

  9
$DIMASO
 70
     1
  9
$DIMSHO
 70
     1
  9
$DIMPOST
  1

  9
$DIMAPOST
  1

  9
$DIMALT
 70
     0
  9
$DIMALTD
 70
     3
  9
$DIMALTF
 40
0.03937007874016
  9
$DIMLFAC
 40
1.0
  9
$DIMTOFL
 70
     1
  9
$DIMTVP
 40
0.0
  9
$DIMTIX
 70
     0
  9
$DIMSOXD
 70
     0
  9
$DIMSAH
 70
     0
  9
$DIMBLK1
  1

  9
$DIMBLK2
  1

  9
$DIMSTYLE
  2
ISO-25
  9
$DIMCLRD
 70
     0
  9
$DIMCLRE
 70
     0
  9
$DIMCLRT
 70
     0
  9
$DIMTFAC
 40
1.0
  9
$DIMGAP
 40
0.625
  9
$DIMJUST
 70
     0
  9
$DIMSD1
 70
     0
  9
$DIMSD2
 70
     0
  9
$DIMTOLJ
 70
     0
  9
$DIMTZIN
 70
     8
  9
$DIMALTZ
 70
     0
  9
$DIMALTTZ
 70
     0
  9
$DIMUPT
 70
     0
  9
$DIMDEC
 70
     2
  9
$DIMTDEC
 70
     2
  9
$DIMALTU
 70
     2
  9
$DIMALTTD
 70
     3
  9
$DIMTXSTY
  7
Standard
  9
$DIMAUNIT
 70
     0
  9
$DIMADEC
 70
     0
  9
$DIMALTRND
 40
0.0
  9
$DIMAZIN
 70
     0
  9
$DIMDSEP
 70
    44
  9
$DIMATFIT
 70
     3
  9
$DIMFRAC
 70
     0
  9
$DIMLDRBLK
  1

  9
$DIMLUNIT
 70
     2
  9
$DIMLWD
 70
    -2
  9
$DIMLWE
 70
    -2
  9
$DIMTMOVE
 70
     0
  9
$DIMFXL
 40
1.0
  9
$DIMFXLON
 70
     0
  9
$DIMJOGANG
 40
0.7853981633974483
  9
$DIMTFILL
 70
     0
  9
$DIMTFILLCLR
 70
     0
  9
$DIMARCSYM
 70
     0
  9
$DIMLTYPE
  6

  9
$DIMLTEX1
  6

  9
$DIMLTEX2
  6

  9
$DIMTXTDIRECTION
 70
     0
  9
$LUNITS
 70
     2
  9
$LUPREC
 70
     4
  9
$SKETCHINC
 40
1.0
  9
$FILLETRAD
 40
0.0
  9
$AUNITS
 70
     0
  9
$AUPREC
 70
     0
  9
$MENU
  1
.
  9
$ELEVATION
 40
0.0
  9
$PELEVATION
 40
0.0
  9
$THICKNESS
 40
0.0
  9
$LIMCHECK
 70
     0
  9
$CHAMFERA
 40
0.0
  9
$CHAMFERB
 40
0.0
  9
$CHAMFERC
 40
0.0
  9
$CHAMFERD
 40
0.0
  9
$SKPOLY
 70
     0
  9
$TDCREATE
 40
2457868.484973727
  9
$TDUCREATE
 40
2457868.151640393
  9
$TDUPDATE
 40
2457868.485699815
  9
$TDUUPDATE
 40
2457868.152366481
  9
$TDINDWG
 40
0.0007271644
  9
$TDUSRTIMER
 40
0.0007270718
  9
$USRTIMER
 70
     1
  9
$ANGBASE
 50
0.0
  9
$ANGDIR
 70
     0
  9
$PDMODE
 70
     0
  9
$PDSIZE
 40
0.0
  9
$PLINEWID
 40
0.0
  9
$SPLFRAME
 70
     0
  9
$SPLINETYPE
 70
     6
  9
$SPLINESEGS
 70
     8
  9
$HANDSEED
  5
87B
  9
$SURFTAB1
 70
     6
  9
$SURFTAB2
 70
     6
  9
$SURFTYPE
 70
     6
  9
$SURFU
 70
     6
  9
$SURFV
 70
     6
  9
$UCSBASE
  2

  9
$UCSNAME
  2

  9
$UCSORG
 10
0.0
 20
0.0
 30
0.0
  9
$UCSXDIR
 10
1.0
 20
0.0
 30
0.0
  9
$UCSYDIR
 10
0.0
 20
1.0
 30
0.0
  9
$UCSORTHOREF
  2

  9
$UCSORTHOVIEW
 70
     0
  9
$UCSORGTOP
 10
0.0
 20
0.0
 30
0.0
  9
$UCSORGBOTTOM
 10
0.0
 20
0.0
 30
0.0
  9
$UCSORGLEFT
 10
0.0
 20
0.0
 30
0.0
  9
$UCSORGRIGHT
 10
0.0
 20
0.0
 30
0.0
  9
$UCSORGFRONT
 10
0.0
 20
0.0
 30
0.0
  9
$UCSORGBACK
 10
0.0
 20
0.0
 30
0.0
  9
$PUCSBASE
  2

  9
$PUCSNAME
  2

  9
$PUCSORG
 10
0.0
 20
0.0
 30
0.0
  9
$PUCSXDIR
 10
1.0
 20
0.0
 30
0.0
  9
$PUCSYDIR
 10
0.0
 20
1.0
 30
0.0
  9
$PUCSORTHOREF
  2

  9
$PUCSORTHOVIEW
 70
     0
  9
$PUCSORGTOP
 10
0.0
 20
0.0
 30
0.0
  9
$PUCSORGBOTTOM
 10
0.0
 20
0.0
 30
0.0
  9
$PUCSORGLEFT
 10
0.0
 20
0.0
 30
0.0
  9
$PUCSORGRIGHT
 10
0.0
 20
0.0
 30
0.0
  9
$PUCSORGFRONT
 10
0.0
 20
0.0
 30
0.0
  9
$PUCSORGBACK
 10
0.0
 20
0.0
 30
0.0
  9
$USERI1
 70
     0
  9
$USERI2
 70
     0
  9
$USERI3
 70
     0
  9
$USERI4
 70
     0
  9
$USERI5
 70
     0
  9
$USERR1
 40
0.0
  9
$USERR2
 40
0.0
  9
$USERR3
 40
0.0
  9
$USERR4
 40
0.0
  9
$USERR5
 40
0.0
  9
$WORLDVIEW
 70
     1
  9
$SHADEDGE
 70
     3
  9
$SHADEDIF
 70
    70
  9
$TILEMODE
 70
     1
  9
$MAXACTVP
 70
    64
  9
$PINSBASE
 10
0.0
 20
0.0
 30
0.0
  9
$PLIMCHECK
 70
     0
  9
$PEXTMIN
 10
0.0
 20
0.0
 30
0.0
  9
$PEXTMAX
 10
0.0
 20
0.0
 30
0.0
  9
$PLIMMIN
 10
0.0
 20
0.0
  9
$PLIMMAX
 10
12.0
 20
9.0
  9
$UNITMODE
 70
     0
  9
$VISRETAIN
 70
     1
  9
$PLINEGEN
 70
     0
  9
$PSLTSCALE
 70
     1
  9
$TREEDEPTH
 70
  3020
  9
$CMLSTYLE
  2
Standard
  9
$CMLJUST
 70
     0
  9
$CMLSCALE
 40
20.0
  9
$PROXYGRAPHICS
 70
     1
  9
$MEASUREMENT
 70
     1
  9
$CELWEIGHT
370
    -1
  9
$ENDCAPS
280
     0
  9
$JOINSTYLE
280
     0
  9
$LWDISPLAY
290
     0
  9
$INSUNITS
 70
     4
  9
$HYPERLINKBASE
  1

  9
$STYLESHEET
  1

  9
$XEDIT
290
     1
  9
$CEPSNTYPE
380
     0
  9
$PSTYLEMODE
290
     1
  9
$FINGERPRINTGUID
  2
{3D0EC69A-7B85-4B51-B880-93328506E135}
  9
$VERSIONGUID
  2
{989A7BBE-A596-4720-A5B5-1B791D485F29}
  9
$EXTNAMES
290
     1
  9
$PSVPSCALE
 40
0.0
  9
$OLESTARTUP
290
     0
  9
$SORTENTS
280
   127
  9
$INDEXCTL
280
     0
  9
$HIDETEXT
280
     1
  9
$XCLIPFRAME
280
     2
  9
$HALOGAP
280
     0
  9
$OBSCOLOR
 70
   257
  9
$OBSLTYPE
280
     0
  9
$INTERSECTIONDISPLAY
280
     0
  9
$INTERSECTIONCOLOR
 70
   257
  9
$DIMASSOC
280
     2
  9
$PROJECTNAME
  1

  9
$CAMERADISPLAY
290
     0
  9
$LENSLENGTH
 40
50.0
  9
$CAMERAHEIGHT
 40
0.0
  9
$STEPSPERSEC
 40
2.0
  9
$STEPSIZE
 40
6.0
  9
$3DDWFPREC
 40
2.0
  9
$PSOLWIDTH
 40
5.0
  9
$PSOLHEIGHT
 40
80.0
  9
$LOFTANG1
 40
1.570796326794896
  9
$LOFTANG2
 40
1.570796326794896
  9
$LOFTMAG1
 40
0.0
  9
$LOFTMAG2
 40
0.0
  9
$LOFTPARAM
 70
     7
  9
$LOFTNORMALS
280
     1
  9
$LATITUDE
 40
37.795
  9
$LONGITUDE
 40
-122.394
  9
$NORTHDIRECTION
 40
0.0
  9
$TIMEZONE
 70
 -8000
  9
$LIGHTGLYPHDISPLAY
280
     1
  9
$TILEMODELIGHTSYNCH
280
     1
  9
$CMATERIAL
347
EC
  9
$SOLIDHIST
280
     0
  9
$SHOWHIST
280
     1
  9
$DWFFRAME
280
     2
  9
$DGNFRAME
280
     0
  9
$REALWORLDSCALE
290
     1
  9
$INTERFERECOLOR
 62
     1
  9
$INTERFEREOBJVS
345
F9
  9
$INTERFEREVPVS
346
F6
  9
$CSHADOW
280
     0
  9
$SHADOWPLANELOCATION
 40
0.0
  0
ENDSEC
  0
SECTION
  2
CLASSES
  0
CLASS
  1
ACDBDICTIONARYWDFLT
  2
AcDbDictionaryWithDefault
  3
ObjectDBX Classes
 90
        0
 91
        1
280
     0
281
     0
  0
CLASS
  1
DICTIONARYVAR
  2
AcDbDictionaryVar
  3
ObjectDBX Classes
 90
        0
 91
        9
280
     0
281
     0
  0
CLASS
  1
TABLESTYLE
  2
AcDbTableStyle
  3
ObjectDBX Classes
 90
     4095
 91
        1
280
     0
281
     0
  0
CLASS
  1
MATERIAL
  2
AcDbMaterial
  3
ObjectDBX Classes
 90
     1153
 91
        3
280
     0
281
     0
  0
CLASS
  1
VISUALSTYLE
  2
AcDbVisualStyle
  3
ObjectDBX Classes
 90
     4095
 91
       24
280
     0
281
     0
  0
CLASS
  1
SCALE
  2
AcDbScale
  3
ObjectDBX Classes
 90
     1153
 91
       17
280
     0
281
     0
  0
CLASS
  1
MLEADERSTYLE
  2
AcDbMLeaderStyle
  3
ACDB_MLEADERSTYLE_CLASS
 90
     4095
 91
        2
280
     0
281
     0
  0
CLASS
  1
CELLSTYLEMAP
  2
AcDbCellStyleMap
  3
ObjectDBX Classes
 90
     1152
 91
        1
280
     0
281
     0
  0
CLASS
  1
EXACXREFPANELOBJECT
  2
ExAcXREFPanelObject
  3
EXAC_ESW
 90
     1025
 91
        0
280
     0
281
     0
  0
CLASS
  1
NPOCOLLECTION
  2
AcDbImpNonPersistentObjectsCollection
  3
ObjectDBX Classes
 90
     1153
 91
        0
280
     0
281
     0
  0
CLASS
  1
LAYER_INDEX
  2
AcDbLayerIndex
  3
ObjectDBX Classes
 90
        0
 91
        0
280
     0
281
     0
  0
CLASS
  1
SPATIAL_INDEX
  2
AcDbSpatialIndex
  3
ObjectDBX Classes
 90
        0
 91
        0
280
     0
281
     0
  0
CLASS
  1
IDBUFFER
  2
AcDbIdBuffer
  3
ObjectDBX Classes
 90
        0
 91
        0
280
     0
281
     0
  0
CLASS
  1
ACDBSECTIONVIEWSTYLE
  2
AcDbSectionViewStyle
  3
ObjectDBX Classes
 90
     1025
 91
        1
280
     0
281
     0
  0
CLASS
  1
ACDBDETAILVIEWSTYLE
  2
AcDbDetailViewStyle
  3
ObjectDBX Classes
 90
     1025
 91
        1
280
     0
281
     0
  0
CLASS
  1
ACAD_EVALUATION_GRAPH
  2
AcDbEvalGraph
  3
ObjectDBX Classes
 90
     1153
 91
       10
280
     0
281
     0
  0
CLASS
  1
BLOCKBASEPOINTPARAMETER
  2
AcDbBlockBasepointParameter
  3
ObjectDBX Classes
 90
     1153
 91
       10
280
     0
281
     0
  0
CLASS
  1
ACDB_DYNAMICBLOCKPURGEPREVENTER_VERSION
  2
AcDbDynamicBlockPurgePreventer
  3
ObjectDBX Classes
 90
     1153
 91
       10
280
     0
281
     0
  0
CLASS
  1
SORTENTSTABLE
  2
AcDbSortentsTable
  3
ObjectDBX Classes
 90
        0
 91
        3
280
     0
281
     0
  0
CLASS
  1
ACDB_BLOCKREPRESENTATION_DATA
  2
AcDbBlockRepresentationData
  3
ObjectDBX Classes
 90
     1153
 91
      100
280
     0
281
     0
  0
ENDSEC
  0
SECTION
  2
TABLES
  0
TABLE
  2
VPORT
  5
8
330
0
100
AcDbSymbolTable
 70
     1
  0
VPORT
  5
EA
330
8
100
AcDbSymbolTableRecord
100
AcDbViewportTableRecord
  2
*Active
 70
     0
 10
0.0
 20
0.0
 11
1.0
 21
1.0
 12
1112.225446625606
 22
330.5540561907765
 13
0.0
 23
0.0
 14
10.0
 24
10.0
 15
10.0
 25
10.0
 16
0.0
 26
0.0
 36
1.0
 17
0.0
 27
0.0
 37
0.0
 40
1672.181295617824
 41
2.444302176696542
 42
50.0
 43
0.0
 44
0.0
 50
0.0
 51
0.0
 71
     0
 72
  1000
 73
     1
 74
     3
 75
     0
 76
     1
 77
     0
 78
     0
281
     0
 65
     1
110
0.0
120
0.0
130
0.0
111
1.0
121
0.0
131
0.0
112
0.0
122
1.0
132
0.0
 79
     0
146
0.0
348
F5
 60
     3
 61
     5
292
     1
282
     1
141
0.0
142
0.0
 63
   250
421
  3355443
1001
ACAD_NAV_VCDISPLAY
1070
     3
  0
ENDTAB
  0
TABLE
  2
LTYPE
  5
5
330
0
100
AcDbSymbolTable
 70
     4
  0
LTYPE
  5
14
330
5
100
AcDbSymbolTableRecord
100
AcDbLinetypeTableRecord
  2
ByBlock
 70
     0
  3

 72
    65
 73
     0
 40
0.0
  0
LTYPE
  5
15
330
5
100
AcDbSymbolTableRecord
100
AcDbLinetypeTableRecord
  2
ByLayer
 70
     0
  3

 72
    65
 73
     0
 40
0.0
  0
LTYPE
  5
16
330
5
100
AcDbSymbolTableRecord
100
AcDbLinetypeTableRecord
  2
Continuous
 70
     0
  3
Solid line
 72
    65
 73
     0
 40
0.0
  0
LTYPE
  5
46D
330
5
100
AcDbSymbolTableRecord
100
AcDbLinetypeTableRecord
  2
ACAD_ISO03W100
 70
     0
  3
ISO dash space __    __    __    __    __    __
 72
    65
 73
     2
 40
30.0
 49
12.0
 74
     0
 49
-18.0
 74
     0
  0
LTYPE
  5
46E
330
5
100
AcDbSymbolTableRecord
100
AcDbLinetypeTableRecord
  2
DASHED2
 70
     0
  3
Dashed (.5x) _ _ _ _ _ _ _ _ _ _ _ _ _ _ _ _ _
 72
    65
 73
     2
 40
9.524999999999998
 49
6.349999999999999
 74
     0
 49
-3.174999999999999
 74
     0
  0
LTYPE
  5
46F
330
5
100
AcDbSymbolTableRecord
100
AcDbLinetypeTableRecord
  2
DASHED
 70
     0
  3
__ __ __ __ __ __ __ __ __ __ __ __ __ __ __ __
 72
    65
 73
     2
 40
0.75
 49
0.5
 74
     0
 49
-0.25
 74
     0
  0
ENDTAB
  0
TABLE
  2
LAYER
  5
2
102
{ACAD_XDICTIONARY
360
1FF
102
}
330
0
100
AcDbSymbolTable
 70
    25
  0
LAYER
  5
10
102
{ACAD_XDICTIONARY
360
13C
102
}
330
2
100
AcDbSymbolTableRecord
100
AcDbLayerTableRecord
  2
0
 70
     0
 62
     7
  6
Continuous
370
    -3
390
F
347
EE
  0
LAYER
  5
470
330
2
100
AcDbSymbolTableRecord
100
AcDbLayerTableRecord
  2
DM-ZCT
 70
     0
 62
     7
  6
Continuous
370
    -3
390
F
347
EE
1001
AcAecLayerStandard
1000

1000

  0
LAYER
  5
471
330
2
100
AcDbSymbolTableRecord
100
AcDbLayerTableRecord
  2
DM-GND
 70
     0
 62
     7
  6
Continuous
370
    -3
390
F
347
EE
1001
AcAecLayerStandard
1000

1000

  0
LAYER
  5
472
330
2
100
AcDbSymbolTableRecord
100
AcDbLayerTableRecord
  2
DM-Outgoing Line
 70
     0
 62
     7
  6
Continuous
370
    -3
390
F
347
EE
1001
AcAecLayerStandard
1000

1000

  0
LAYER
  5
473
330
2
100
AcDbSymbolTableRecord
100
AcDbLayerTableRecord
  2
DM-Arrester
 70
     0
 62
     7
  6
Continuous
370
    -3
390
F
347
EE
1001
AcAecLayerStandard
1000

1000

  0
LAYER
  5
474
330
2
100
AcDbSymbolTableRecord
100
AcDbLayerTableRecord
  2
DM-VCB
 70
     0
 62
     7
  6
Continuous
370
    -3
390
F
347
EE
1001
AcAecLayerStandard
1000

1000

  0
LAYER
  5
475
330
2
100
AcDbSymbolTableRecord
100
AcDbLayerTableRecord
  2
DM-CT
 70
     0
 62
     7
  6
Continuous
370
    -3
390
F
347
EE
1001
AcAecLayerStandard
1000

1000

  0
LAYER
  5
476
330
2
100
AcDbSymbolTableRecord
100
AcDbLayerTableRecord
  2
DM-10kV-Wire
 70
     0
 62
     1
  6
Continuous
370
    -3
390
F
347
EE
1001
AcAecLayerStandard
1000

1000

  0
LAYER
  5
477
330
2
100
AcDbSymbolTableRecord
100
AcDbLayerTableRecord
  2
DM-Outgoing Line-180
 70
     0
 62
     7
  6
Continuous
370
    -3
390
F
347
EE
1001
AcAecLayerStandard
1000

1000

  0
LAYER
  5
478
330
2
100
AcDbSymbolTableRecord
100
AcDbLayerTableRecord
  2
DM-Wireframe
 70
     0
 62
     7
  6
Continuous
370
    -3
390
F
347
EE
1001
AcAecLayerStandard
1000

1000

  0
LAYER
  5
479
330
2
100
AcDbSymbolTableRecord
100
AcDbLayerTableRecord
  2
DM-Text
 70
     0
 62
     7
  6
Continuous
370
    -3
390
F
347
EE
1001
AcAecLayerStandard
1000

1000

  0
LAYER
  5
47A
330
2
100
AcDbSymbolTableRecord
100
AcDbLayerTableRecord
  2
DM-0.4kV-Wire
 70
     0
 62
     3
  6
Continuous
370
    -3
390
F
347
EE
1001
AcAecLayerStandard
1000

1000

  0
LAYER
  5
47B
330
2
100
AcDbSymbolTableRecord
100
AcDbLayerTableRecord
  2
DM-DblClmnTrans
 70
     0
 62
     7
  6
Continuous
370
    -3
390
F
347
EE
1001
AcAecLayerStandard
1000

1000

  0
LAYER
  5
47C
330
2
100
AcDbSymbolTableRecord
100
AcDbLayerTableRecord
  2
DM-GND-270
 70
     0
 62
     7
  6
Continuous
370
    -3
390
F
347
EE
1001
AcAecLayerStandard
1000

1000

  0
LAYER
  5
47D
330
2
100
AcDbSymbolTableRecord
100
AcDbLayerTableRecord
  2
DM-Arrester-270
 70
     0
 62
     7
  6
Continuous
370
    -3
390
F
347
EE
1001
AcAecLayerStandard
1000

1000

  0
LAYER
  5
47E
330
2
100
AcDbSymbolTableRecord
100
AcDbLayerTableRecord
  2
DM-DXN-T-270
 70
     0
 62
     7
  6
Continuous
370
    -3
390
F
347
EE
1001
AcAecLayerStandard
1000

1000

1001
AcCmTransparency
1071
        0
  0
LAYER
  5
47F
330
2
100
AcDbSymbolTableRecord
100
AcDbLayerTableRecord
  2
DM-Earthing Switch-90
 70
     0
 62
     7
  6
Continuous
370
    -3
390
F
347
EE
1001
AcAecLayerStandard
1000

1000

1001
AcCmTransparency
1071
        0
  0
LAYER
  5
480
330
2
100
AcDbSymbolTableRecord
100
AcDbLayerTableRecord
  2
DM-10kV-Cable
 70
     0
 62
     1
  6
Continuous
370
    30
390
F
347
EE
1001
AcAecLayerStandard
1000

1000

  0
LAYER
  5
481
330
2
100
AcDbSymbolTableRecord
100
AcDbLayerTableRecord
  2
DM-Knife Switch
 70
     0
 62
     7
  6
Continuous
370
    -3
390
F
347
EE
1001
AcAecLayerStandard
1000

1000

  0
LAYER
  5
482
330
2
100
AcDbSymbolTableRecord
100
AcDbLayerTableRecord
  2
DM-HV FUSE
 70
     0
 62
     7
  6
Continuous
370
    -3
390
F
347
EE
1001
AcAecLayerStandard
1000

1000

  0
LAYER
  5
483
330
2
100
AcDbSymbolTableRecord
100
AcDbLayerTableRecord
  2
DM-Ctrl-Wire
 70
     0
 62
     5
  6
Continuous
370
    -3
390
F
347
EE
1001
AcAecLayerStandard
1000

1000

  0
LAYER
  5
484
330
2
100
AcDbSymbolTableRecord
100
AcDbLayerTableRecord
  2
DM-GND-180
 70
     0
 62
     7
  6
Continuous
370
    -3
390
F
347
EE
1001
AcAecLayerStandard
1000

1000

1001
AcCmTransparency
1071
        0
  0
LAYER
  5
485
330
2
100
AcDbSymbolTableRecord
100
AcDbLayerTableRecord
  2
DM-DXN-T-180
 70
     0
 62
     7
  6
Continuous
370
    -3
390
F
347
EE
1001
AcAecLayerStandard
1000

1000

1001
AcCmTransparency
1071
        0
  0
LAYER
  5
486
330
2
100
AcDbSymbolTableRecord
100
AcDbLayerTableRecord
  2
DM-0.4kV-Cable
 70
     0
 62
     3
  6
Continuous
370
    30
390
F
347
EE
1001
AcAecLayerStandard
1000

1000

1001
AcCmTransparency
1071
        0
  0
LAYER
  5
487
330
2
100
AcDbSymbolTableRecord
100
AcDbLayerTableRecord
  2
Defpoints
 70
     0
 62
     7
  6
Continuous
290
     0
370
    -3
390
F
347
EE
  0
ENDTAB
  0
TABLE
  2
STYLE
  5
3
330
0
100
AcDbSymbolTable
 70
     2
  0
STYLE
  5
11
330
3
100
AcDbSymbolTableRecord
100
AcDbTextStyleTableRecord
  2
Standard
 70
     0
 40
0.0
 41
1.0
 50
0.0
 71
     0
 42
2.5
  3
arial.ttf
  4

1001
ACAD
1000
Arial
1071
       34
  0
STYLE
  5
132
330
3
100
AcDbSymbolTableRecord
100
AcDbTextStyleTableRecord
  2
Annotative
 70
     0
 40
0.0
 41
1.0
 50
0.0
 71
     0
 42
2.5
  3
arial.ttf
  4

1001
AcadAnnotative
1000
AnnotativeData
1002
{
1070
     1
1070
     1
1002
}
1001
ACAD
1000
Arial
1071
       34
  0
ENDTAB
  0
TABLE
  2
VIEW
  5
6
330
0
100
AcDbSymbolTable
 70
     0
  0
ENDTAB
  0
TABLE
  2
UCS
  5
7
330
0
100
AcDbSymbolTable
 70
     0
  0
ENDTAB
  0
TABLE
  2
APPID
  5
9
330
0
100
AcDbSymbolTable
 70
    14
  0
APPID
  5
12
330
9
100
AcDbSymbolTableRecord
100
AcDbRegAppTableRecord
  2
ACAD
 70
     0
  0
APPID
  5
9E
330
9
100
AcDbSymbolTableRecord
100
AcDbRegAppTableRecord
  2
ACAD_PSEXT
 70
     0
  0
APPID
  5
133
330
9
100
AcDbSymbolTableRecord
100
AcDbRegAppTableRecord
  2
AcadAnnoPO
 70
     0
  0
APPID
  5
134
330
9
100
AcDbSymbolTableRecord
100
AcDbRegAppTableRecord
  2
AcadAnnotative
 70
     0
  0
APPID
  5
135
330
9
100
AcDbSymbolTableRecord
100
AcDbRegAppTableRecord
  2
ACAD_DSTYLE_DIMJAG
 70
     0
  0
APPID
  5
136
330
9
100
AcDbSymbolTableRecord
100
AcDbRegAppTableRecord
  2
ACAD_DSTYLE_DIMTALN
 70
     0
  0
APPID
  5
165
330
9
100
AcDbSymbolTableRecord
100
AcDbRegAppTableRecord
  2
ACAD_MLEADERVER
 70
     0
  0
APPID
  5
217
330
9
100
AcDbSymbolTableRecord
100
AcDbRegAppTableRecord
  2
ACAD_NAV_VCDISPLAY
 70
     0
  0
APPID
  5
488
330
9
100
AcDbSymbolTableRecord
100
AcDbRegAppTableRecord
  2
AcDbDynamicBlockGUID
 70
     0
  0
APPID
  5
489
330
9
100
AcDbSymbolTableRecord
100
AcDbRegAppTableRecord
  2
AcDbDynamicBlockTrueName
 70
     0
  0
APPID
  5
48A
330
9
100
AcDbSymbolTableRecord
100
AcDbRegAppTableRecord
  2
AcDbBlockRepETag
 70
     0
  0
APPID
  5
48B
330
9
100
AcDbSymbolTableRecord
100
AcDbRegAppTableRecord
  2
AcDbBlockRepBTag
 70
     0
  0
APPID
  5
48C
330
9
100
AcDbSymbolTableRecord
100
AcDbRegAppTableRecord
  2
AcAecLayerStandard
 70
     0
  0
APPID
  5
48D
330
9
100
AcDbSymbolTableRecord
100
AcDbRegAppTableRecord
  2
AcCmTransparency
 70
     0
  0
ENDTAB
  0
TABLE
  2
DIMSTYLE
  5
A
330
0
100
AcDbSymbolTable
 70
     3
100
AcDbDimStyleTable
 71
     2
340
27
340
137
  0
DIMSTYLE
105
1B0
330
A
100
AcDbSymbolTableRecord
100
AcDbDimStyleTableRecord
  2
Standard
 70
     0
340
11
  0
DIMSTYLE
105
137
330
A
100
AcDbSymbolTableRecord
100
AcDbDimStyleTableRecord
  2
Annotative
 70
     0
 40
0.0
 41
2.5
 42
0.625
 43
3.75
 44
1.25
 73
     0
 74
     0
 77
     1
 78
     8
140
2.5
141
2.5
143
0.03937007874016
147
0.625
171
     3
172
     1
271
     2
272
     2
274
     3
278
    44
283
     0
284
     8
340
11
1001
AcadAnnotative
1000
AnnotativeData
1002
{
1070
     1
1070
     1
1002
}
1001
ACAD_DSTYLE_DIMJAG
1070
   388
1040
1.5
1001
ACAD_DSTYLE_DIMTALN
1070
   392
1070
     0
  0
DIMSTYLE
105
27
330
A
100
AcDbSymbolTableRecord
100
AcDbDimStyleTableRecord
  2
ISO-25
 70
     0
 41
2.5
 42
0.625
 43
3.75
 44
1.25
 73
     0
 74
     0
 77
     1
 78
     8
140
2.5
141
2.5
143
0.03937007874016
147
0.625
171
     3
172
     1
271
     2
272
     2
274
     3
278
    44
283
     0
284
     8
340
11
  0
ENDTAB
  0
TABLE
  2
BLOCK_RECORD
  5
1
330
0
100
AcDbSymbolTable
 70
    45
  0
BLOCK_RECORD
  5
1F
102
{ACAD_XDICTIONARY
360
1CE
102
}
330
1
100
AcDbSymbolTableRecord
100
AcDbBlockTableRecord
  2
*Model_Space
340
22
 70
     0
280
     1
281
     0
  0
BLOCK_RECORD
  5
D2
330
1
100
AcDbSymbolTableRecord
100
AcDbBlockTableRecord
  2
*Paper_Space
340
D3
 70
     0
280
     1
281
     0
  0
BLOCK_RECORD
  5
D6
330
1
100
AcDbSymbolTableRecord
100
AcDbBlockTableRecord
  2
*Paper_Space0
340
D7
 70
     0
280
     1
281
     0
  0
BLOCK_RECORD
  5
25E
102
{ACAD_XDICTIONARY
360
25F
102
}
330
1
100
AcDbSymbolTableRecord
100
AcDbBlockTableRecord
  2
DM-ZCT
340
0
 70
     4
280
     1
281
     0
1001
AcDbBlockRepETag
1070
     1
1071
        7
1001
AcDbDynamicBlockTrueName
1000
DM-ZCT
1001
AcDbDynamicBlockGUID
1000
{A08D60D0-863E-40EF-9E66-F5CF4922B552}
  0
BLOCK_RECORD
  5
26C
102
{ACAD_XDICTIONARY
360
26D
102
}
330
1
100
AcDbSymbolTableRecord
100
AcDbBlockTableRecord
  2
DM-GND
340
0
310
2800000020000000200000000100080000000000000400000000000000000000000000000000000000000000000080000080000000808000800000008000800080800000C0C0C000C0DCC000F0CAA6000020400000206000002080000020A0000020C0000020E00000400000004020000040400000406000004080000040A0
310
000040C0000040E00000600000006020000060400000606000006080000060A0000060C0000060E00000800000008020000080400000806000008080000080A0000080C0000080E00000A0000000A0200000A0400000A0600000A0800000A0A00000A0C00000A0E00000C0000000C0200000C0400000C0600000C0800000C0
310
A00000C0C00000C0E00000E0000000E0200000E0400000E0600000E0800000E0A00000E0C00000E0E00040000000400020004000400040006000400080004000A0004000C0004000E00040200000402020004020400040206000402080004020A0004020C0004020E000404000004040200040404000404060004040800040
310
40A0004040C0004040E00040600000406020004060400040606000406080004060A0004060C0004060E00040800000408020004080400040806000408080004080A0004080C0004080E00040A0000040A0200040A0400040A0600040A0800040A0A00040A0C00040A0E00040C0000040C0200040C0400040C0600040C08000
310
40C0A00040C0C00040C0E00040E0000040E0200040E0400040E0600040E0800040E0A00040E0C00040E0E00080000000800020008000400080006000800080008000A0008000C0008000E00080200000802020008020400080206000802080008020A0008020C0008020E00080400000804020008040400080406000804080
310
008040A0008040C0008040E00080600000806020008060400080606000806080008060A0008060C0008060E00080800000808020008080400080806000808080008080A0008080C0008080E00080A0000080A0200080A0400080A0600080A0800080A0A00080A0C00080A0E00080C0000080C0200080C0400080C0600080C0
310
800080C0A00080C0C00080C0E00080E0000080E0200080E0400080E0600080E0800080E0A00080E0C00080E0E000C0000000C0002000C0004000C0006000C0008000C000A000C000C000C000E000C0200000C0202000C0204000C0206000C0208000C020A000C020C000C020E000C0400000C0402000C0404000C0406000C0
310
408000C040A000C040C000C040E000C0600000C0602000C0604000C0606000C0608000C060A000C060C000C060E000C0800000C0802000C0804000C0806000C0808000C080A000C080C000C080E000C0A00000C0A02000C0A04000C0A06000C0A08000C0A0A000C0A0C000C0A0E000C0C00000C0C02000C0C04000C0C06000
310
C0C08000C0C0A000F0FBFF00A4A0A000808080000000FF0000FF000000FFFF00FF000000FF00FF00FFFF0000FFFFFF00000000000000000000000000000000000000000000000000000000000000000000000000000000000000000000FFFFFFFFFFFF00000000000000000000000000000000000000000000000000000000
310
00000000000000000000000000000000000000000000000000000000000000000000000000000000000000000000000000000000000000000000000000000000000000000000000000000000000000000000000000000000000000000000000000000000000000000000000000000000000000000000000000000000FFFFFF
310
FFFFFFFFFFFFFF000000000000000000000000000000000000000000000000000000000000000000000000000000000000000000000000000000000000000000000000000000000000000000000000000000000000000000000000000000000000000000000000000000000000000000000000000000000000000000000000
310
00000000000000000000000000000000000000000000000000FFFFFFFFFFFFFFFFFFFFFFFFFFFFFFFFFFFFFFFF00000000000000000000000000000000000000000000FF00000000000000000000000000000000000000000000000000000000000000FF000000000000000000000000000000000000000000000000000000
310
00000000FF00000000000000000000000000000000000000000000000000000000000000FF00000000000000000000000000000000000000000000000000000000000000FF00000000000000000000000000000000000000000000000000000000000000FF0000000000000000000000000000000000000000000000000000
310
0000000000FF00000000000000000000000000000000000000000000000000000000000000FF00000000000000000000000000000000000000000000000000000000000000FF00000000000000000000000000000000000000000000000000000000000000FF00000000000000000000000000000000000000000000000000
310
000000000000FF00000000000000000000000000000000000000000000000000000000000000FF00000000000000000000000000000000000000000000000000000000000000FF00000000000000000000000000000000000000000000000000000000000000FF000000000000000000000000000000000000000000000000
310
00000000000000FF00000000000000000000000000000000000000000000000000000000000000FF00000000000000000000000000000000000000000000000000000000000000FF00000000000000000000000000000000000000000000000000000000000000FF0000000000000000000000000000000000000000000000
310
0000000000000000FF0000000000000000000000000000000000000000000000000000000000000000000000000000000000000000000000
 70
     4
280
     1
281
     0
1001
AcDbBlockRepETag
1070
     1
1071
        5
1001
AcDbDynamicBlockTrueName
1000
DM-GND
1001
AcDbDynamicBlockGUID
1000
{2C942F8A-AB08-4558-B333-B8FCD8811736}
  0
BLOCK_RECORD
  5
278
102
{ACAD_XDICTIONARY
360
279
102
}
330
1
100
AcDbSymbolTableRecord
100
AcDbBlockTableRecord
  2
DM-Earthing Switch
340
0
310
2800000020000000200000000100080000000000000400000000000000000000000000000000000000000000000080000080000000808000800000008000800080800000C0C0C000C0DCC000F0CAA6000020400000206000002080000020A0000020C0000020E00000400000004020000040400000406000004080000040A0
310
000040C0000040E00000600000006020000060400000606000006080000060A0000060C0000060E00000800000008020000080400000806000008080000080A0000080C0000080E00000A0000000A0200000A0400000A0600000A0800000A0A00000A0C00000A0E00000C0000000C0200000C0400000C0600000C0800000C0
310
A00000C0C00000C0E00000E0000000E0200000E0400000E0600000E0800000E0A00000E0C00000E0E00040000000400020004000400040006000400080004000A0004000C0004000E00040200000402020004020400040206000402080004020A0004020C0004020E000404000004040200040404000404060004040800040
310
40A0004040C0004040E00040600000406020004060400040606000406080004060A0004060C0004060E00040800000408020004080400040806000408080004080A0004080C0004080E00040A0000040A0200040A0400040A0600040A0800040A0A00040A0C00040A0E00040C0000040C0200040C0400040C0600040C08000
310
40C0A00040C0C00040C0E00040E0000040E0200040E0400040E0600040E0800040E0A00040E0C00040E0E00080000000800020008000400080006000800080008000A0008000C0008000E00080200000802020008020400080206000802080008020A0008020C0008020E00080400000804020008040400080406000804080
310
008040A0008040C0008040E00080600000806020008060400080606000806080008060A0008060C0008060E00080800000808020008080400080806000808080008080A0008080C0008080E00080A0000080A0200080A0400080A0600080A0800080A0A00080A0C00080A0E00080C0000080C0200080C0400080C0600080C0
310
800080C0A00080C0C00080C0E00080E0000080E0200080E0400080E0600080E0800080E0A00080E0C00080E0E000C0000000C0002000C0004000C0006000C0008000C000A000C000C000C000E000C0200000C0202000C0204000C0206000C0208000C020A000C020C000C020E000C0400000C0402000C0404000C0406000C0
310
408000C040A000C040C000C040E000C0600000C0602000C0604000C0606000C0608000C060A000C060C000C060E000C0800000C0802000C0804000C0806000C0808000C080A000C080C000C080E000C0A00000C0A02000C0A04000C0A06000C0A08000C0A0A000C0A0C000C0A0E000C0C00000C0C02000C0C04000C0C06000
310
C0C08000C0C0A000F0FBFF00A4A0A000808080000000FF0000FF000000FFFF00FF000000FF00FF00FFFF0000FFFFFF00000000000000000000000000000000000000000000000000000000000000000000000000000000000000000000000000FFFFFF00000000000000000000000000000000000000000000000000000000
310
000000000000000000000000000000000000000000000000000000000000000000FFFFFFFF00000000000000000000000000000000000000000000000000000000000000000000000000000000000000000000000000000000000000000000FFFFFFFFFFFFFFFF000000000000000000000000000000000000000000000000
310
000000FF00000000000000000000000000000000000000000000000000000000000000FF00000000000000000000000000000000000000000000000000000000000000FF00000000000000000000000000000000000000000000000000000000000000FF000000000000000000000000000000000000000000000000000000
310
00000000FF00000000000000000000000000000000000000000000000000000000000000FF00000000000000000000000000000000000000000000000000000000000000FF000000000000000000000000000000000000000000000000000000000000FF000000000000000000000000000000000000000000000000000000
310
00000000FF000000000000000000000000000000000000000000000000000000000000FF00000000000000000000000000000000000000000000000000000000000000FF000000000000000000000000000000000000000000000000000000000000FF00000000000000000000000000000000000000000000000000000000
310
000000FF000000000000000000000000000000000000000000000000000000000000FF000000000000000000000000000000000000000000000000000000000000FF00000000000000000000000000000000000000000000000000000000000000FF0000000000000000000000000000000000000000000000000000000000
310
00FF00000000000000000000000000000000000000000000000000000000000000FF000000000000000000000000000000000000000000000000000000000000FF0000000000000000000000000000000000000000000000000000000000000000000000FFFFFFFFFFFFFFFF00000000000000000000000000000000000000
310
0000000000000000FF00000000000000000000000000000000000000000000000000000000000000FF00000000000000000000000000000000000000000000000000000000000000FF00000000000000000000000000000000000000000000000000000000000000FF00000000000000000000000000000000000000000000
310
000000000000000000FF00000000000000000000000000000000000000000000000000000000000000000000000000000000000000000000
 70
     4
280
     1
281
     0
1001
AcDbBlockRepETag
1070
     1
1071
        9
1001
AcDbDynamicBlockTrueName
1000
DM-Earthing Switch
1001
AcDbDynamicBlockGUID
1000
{0B4D69F4-5C68-47B5-9982-F4E3417527FC}
  0
BLOCK_RECORD
  5
288
102
{ACAD_XDICTIONARY
360
289
102
}
330
1
100
AcDbSymbolTableRecord
100
AcDbBlockTableRecord
  2
DM-Outgoing Line
340
0
310
2800000020000000200000000100080000000000000400000000000000000000000000000000000000000000000080000080000000808000800000008000800080800000C0C0C000C0DCC000F0CAA6000020400000206000002080000020A0000020C0000020E00000400000004020000040400000406000004080000040A0
310
000040C0000040E00000600000006020000060400000606000006080000060A0000060C0000060E00000800000008020000080400000806000008080000080A0000080C0000080E00000A0000000A0200000A0400000A0600000A0800000A0A00000A0C00000A0E00000C0000000C0200000C0400000C0600000C0800000C0
310
A00000C0C00000C0E00000E0000000E0200000E0400000E0600000E0800000E0A00000E0C00000E0E00040000000400020004000400040006000400080004000A0004000C0004000E00040200000402020004020400040206000402080004020A0004020C0004020E000404000004040200040404000404060004040800040
310
40A0004040C0004040E00040600000406020004060400040606000406080004060A0004060C0004060E00040800000408020004080400040806000408080004080A0004080C0004080E00040A0000040A0200040A0400040A0600040A0800040A0A00040A0C00040A0E00040C0000040C0200040C0400040C0600040C08000
310
40C0A00040C0C00040C0E00040E0000040E0200040E0400040E0600040E0800040E0A00040E0C00040E0E00080000000800020008000400080006000800080008000A0008000C0008000E00080200000802020008020400080206000802080008020A0008020C0008020E00080400000804020008040400080406000804080
310
008040A0008040C0008040E00080600000806020008060400080606000806080008060A0008060C0008060E00080800000808020008080400080806000808080008080A0008080C0008080E00080A0000080A0200080A0400080A0600080A0800080A0A00080A0C00080A0E00080C0000080C0200080C0400080C0600080C0
310
800080C0A00080C0C00080C0E00080E0000080E0200080E0400080E0600080E0800080E0A00080E0C00080E0E000C0000000C0002000C0004000C0006000C0008000C000A000C000C000C000E000C0200000C0202000C0204000C0206000C0208000C020A000C020C000C020E000C0400000C0402000C0404000C0406000C0
310
408000C040A000C040C000C040E000C0600000C0602000C0604000C0606000C0608000C060A000C060C000C060E000C0800000C0802000C0804000C0806000C0808000C080A000C080C000C080E000C0A00000C0A02000C0A04000C0A06000C0A08000C0A0A000C0A0C000C0A0E000C0C00000C0C02000C0C04000C0C06000
310
C0C08000C0C0A000F0FBFF00A4A0A000808080000000FF0000FF000000FFFF00FF000000FF00FF00FFFF0000FFFFFF00000000000000000000000000000000000000000000000000000000000000000000000000000000000000000000000000FF000000000000000000000000000000000000000000000000000000000000
310
00FF00000000000000000000000000000000000000000000000000000000000000FF00000000000000000000000000000000000000000000000000000000000000FF00000000000000000000000000000000000000000000000000000000000000FF0000000000000000000000000000000000000000000000000000000000
310
0000FF00000000000000000000000000000000000000000000000000000000000000FF00000000000000000000000000000000000000000000000000000000000000FF00000000000000000000000000000000000000000000000000000000000000FF00000000000000000000000000000000000000000000000000000000
310
000000FF00000000000000000000000000000000000000000000000000000000000000FF00000000000000000000000000000000000000000000000000000000000000FF00000000000000000000000000000000000000000000000000000000000000FF000000000000000000000000000000000000000000000000000000
310
00000000FF00000000000000000000000000000000000000000000000000000000000000FF00000000000000000000000000000000000000000000000000000000000000FF00000000000000000000000000000000000000000000000000000000000000FF0000000000000000000000000000000000000000000000000000
310
0000000000FF00000000000000000000000000000000000000000000000000000000000000FF00000000000000000000000000000000000000000000000000000000000000FF00000000000000000000000000000000000000000000000000000000000000FF00000000000000000000000000000000000000000000000000
310
000000000000FF00000000000000000000000000000000000000000000000000000000000000FF00000000000000000000000000000000000000000000000000000000000000FF00000000000000000000000000000000000000000000000000000000000000FF000000000000000000000000000000000000000000000000
310
00000000000000FF0000000000000000000000000000000000000000000000000000000000FFFFFFFF0000000000000000000000000000000000000000000000000000000000FFFFFF0000000000000000000000000000000000000000000000000000000000FFFF0000000000000000000000000000000000000000000000
310
0000000000000000FF0000000000000000000000000000000000000000000000000000000000000000000000000000000000000000000000
 70
     4
280
     1
281
     0
1001
AcDbBlockRepETag
1070
     1
1071
        5
1001
AcDbDynamicBlockTrueName
1000
DM-Outgoing Line
1001
AcDbDynamicBlockGUID
1000
{5A8BDB6F-D682-4422-88EF-E0206877C02D}
  0
BLOCK_RECORD
  5
294
102
{ACAD_XDICTIONARY
360
295
102
}
330
1
100
AcDbSymbolTableRecord
100
AcDbBlockTableRecord
  2
DM-Arrester
340
0
310
2800000020000000200000000100080000000000000400000000000000000000000000000000000000000000000080000080000000808000800000008000800080800000C0C0C000C0DCC000F0CAA6000020400000206000002080000020A0000020C0000020E00000400000004020000040400000406000004080000040A0
310
000040C0000040E00000600000006020000060400000606000006080000060A0000060C0000060E00000800000008020000080400000806000008080000080A0000080C0000080E00000A0000000A0200000A0400000A0600000A0800000A0A00000A0C00000A0E00000C0000000C0200000C0400000C0600000C0800000C0
310
A00000C0C00000C0E00000E0000000E0200000E0400000E0600000E0800000E0A00000E0C00000E0E00040000000400020004000400040006000400080004000A0004000C0004000E00040200000402020004020400040206000402080004020A0004020C0004020E000404000004040200040404000404060004040800040
310
40A0004040C0004040E00040600000406020004060400040606000406080004060A0004060C0004060E00040800000408020004080400040806000408080004080A0004080C0004080E00040A0000040A0200040A0400040A0600040A0800040A0A00040A0C00040A0E00040C0000040C0200040C0400040C0600040C08000
310
40C0A00040C0C00040C0E00040E0000040E0200040E0400040E0600040E0800040E0A00040E0C00040E0E00080000000800020008000400080006000800080008000A0008000C0008000E00080200000802020008020400080206000802080008020A0008020C0008020E00080400000804020008040400080406000804080
310
008040A0008040C0008040E00080600000806020008060400080606000806080008060A0008060C0008060E00080800000808020008080400080806000808080008080A0008080C0008080E00080A0000080A0200080A0400080A0600080A0800080A0A00080A0C00080A0E00080C0000080C0200080C0400080C0600080C0
310
800080C0A00080C0C00080C0E00080E0000080E0200080E0400080E0600080E0800080E0A00080E0C00080E0E000C0000000C0002000C0004000C0006000C0008000C000A000C000C000C000E000C0200000C0202000C0204000C0206000C0208000C020A000C020C000C020E000C0400000C0402000C0404000C0406000C0
310
408000C040A000C040C000C040E000C0600000C0602000C0604000C0606000C0608000C060A000C060C000C060E000C0800000C0802000C0804000C0806000C0808000C080A000C080C000C080E000C0A00000C0A02000C0A04000C0A06000C0A08000C0A0A000C0A0C000C0A0E000C0C00000C0C02000C0C04000C0C06000
310
C0C08000C0C0A000F0FBFF00A4A0A000808080000000FF0000FF000000FFFF00FF000000FF00FF00FFFF0000FFFFFF00000000000000000000000000000000000000000000000000000000000000000000000000000000000000000000000000FF000000000000000000000000000000000000000000000000000000000000
310
00FF00000000000000000000000000000000000000000000000000000000000000FF00000000000000000000000000000000000000000000000000000000000000FF00000000000000000000000000000000000000000000000000000000000000FF0000000000000000000000000000000000000000000000000000000000
310
0000FF00000000000000000000000000000000000000000000000000000000000000FF000000000000000000000000000000000000000000000000000000FFFFFFFFFFFFFFFF000000000000000000000000000000000000000000000000FF000000000000FF000000000000000000000000000000000000000000000000FF
310
000000000000FF000000000000000000000000000000000000000000000000FF000000000000FF000000000000000000000000000000000000000000000000FF000000000000FF000000000000000000000000000000000000000000000000FF000000000000FF000000000000000000000000000000000000000000000000
310
FF000000000000FF000000000000000000000000000000000000000000000000FF000000000000FF000000000000000000000000000000000000000000000000FF000000FF0000FF000000000000000000000000000000000000000000000000FF000000FF0000FF0000000000000000000000000000000000000000000000
310
00FF0000FF00FF00FF000000000000000000000000000000000000000000000000FF0000FF00FF00FF000000000000000000000000000000000000000000000000FF00FF0000FF00FF000000000000000000000000000000000000000000000000FF00FF000000FFFF00000000000000000000000000000000000000000000
310
0000FFFFFFFFFFFFFFFF000000000000000000000000000000000000000000000000FFFFFFFFFFFFFFFF00000000000000000000000000000000000000000000000000000000FF00000000000000000000000000000000000000000000000000000000000000FF000000000000000000000000000000000000000000000000
310
00000000000000FF00000000000000000000000000000000000000000000000000000000000000FF00000000000000000000000000000000000000000000000000000000000000FF00000000000000000000000000000000000000000000000000000000000000FF0000000000000000000000000000000000000000000000
310
0000000000000000FF0000000000000000000000000000000000000000000000000000000000000000000000000000000000000000000000
 70
     4
280
     1
281
     0
1001
AcDbBlockRepETag
1070
     1
1071
       12
1001
AcDbDynamicBlockTrueName
1000
DM-Arrester
1001
AcDbDynamicBlockGUID
1000
{957BF6EF-2EBB-48C9-9215-EF134E53552B}
  0
BLOCK_RECORD
  5
2A8
102
{ACAD_XDICTIONARY
360
2A9
102
}
330
1
100
AcDbSymbolTableRecord
100
AcDbBlockTableRecord
  2
DM-DXN-T
340
0
310
2800000020000000200000000100080000000000000400000000000000000000000000000000000000000000000080000080000000808000800000008000800080800000C0C0C000C0DCC000F0CAA6000020400000206000002080000020A0000020C0000020E00000400000004020000040400000406000004080000040A0
310
000040C0000040E00000600000006020000060400000606000006080000060A0000060C0000060E00000800000008020000080400000806000008080000080A0000080C0000080E00000A0000000A0200000A0400000A0600000A0800000A0A00000A0C00000A0E00000C0000000C0200000C0400000C0600000C0800000C0
310
A00000C0C00000C0E00000E0000000E0200000E0400000E0600000E0800000E0A00000E0C00000E0E00040000000400020004000400040006000400080004000A0004000C0004000E00040200000402020004020400040206000402080004020A0004020C0004020E000404000004040200040404000404060004040800040
310
40A0004040C0004040E00040600000406020004060400040606000406080004060A0004060C0004060E00040800000408020004080400040806000408080004080A0004080C0004080E00040A0000040A0200040A0400040A0600040A0800040A0A00040A0C00040A0E00040C0000040C0200040C0400040C0600040C08000
310
40C0A00040C0C00040C0E00040E0000040E0200040E0400040E0600040E0800040E0A00040E0C00040E0E00080000000800020008000400080006000800080008000A0008000C0008000E00080200000802020008020400080206000802080008020A0008020C0008020E00080400000804020008040400080406000804080
310
008040A0008040C0008040E00080600000806020008060400080606000806080008060A0008060C0008060E00080800000808020008080400080806000808080008080A0008080C0008080E00080A0000080A0200080A0400080A0600080A0800080A0A00080A0C00080A0E00080C0000080C0200080C0400080C0600080C0
310
800080C0A00080C0C00080C0E00080E0000080E0200080E0400080E0600080E0800080E0A00080E0C00080E0E000C0000000C0002000C0004000C0006000C0008000C000A000C000C000C000E000C0200000C0202000C0204000C0206000C0208000C020A000C020C000C020E000C0400000C0402000C0404000C0406000C0
310
408000C040A000C040C000C040E000C0600000C0602000C0604000C0606000C0608000C060A000C060C000C060E000C0800000C0802000C0804000C0806000C0808000C080A000C080C000C080E000C0A00000C0A02000C0A04000C0A06000C0A08000C0A0A000C0A0C000C0A0E000C0C00000C0C02000C0C04000C0C06000
310
C0C08000C0C0A000F0FBFF00A4A0A000808080000000FF0000FF000000FFFF00FF000000FF00FF00FFFF0000FFFFFF00000000000000000000000000000000000000000000000000000000000000000000000000000000000000000000000000FF000000000000000000000000000000000000000000000000000000000000
310
00FF00000000000000000000000000000000000000000000000000000000000000FF00000000000000000000000000000000000000000000000000000000000000FF00000000000000000000000000000000000000000000000000000000000000FF0000000000000000000000000000000000000000000000000000000000
310
0000FF00000000000000000000000000000000000000000000000000000000FFFFFFFFFFFF00000000000000000000000000000000000000000000000000FF000000000000FF0000000000000000000000000000000000000000000000FF00FF00000000FF00FF000000000000000000000000000000000000000000FFFF00
310
00FF000000FF00FF000000000000000000000000000000000000000000FF00000000FF00FF000000FF0000000000000000000000000000000000000000FF0000000000FF00000000FF0000000000000000000000000000000000000000FF00000000FF00FF000000FF000000000000000000000000000000000000000000FF
310
0000FF000000FF00FF00000000000000000000000000000000000000000000FF00FF00000000FF00FF0000000000000000000000000000000000000000000000FF000000000000FF00000000000000000000000000000000000000000000000000FFFFFFFFFFFF000000000000000000000000000000000000000000000000
310
0000000000FF00000000000000000000000000000000000000000000000000000000000000FF00000000000000000000000000000000000000000000000000000000000000FF000000000000000000000000000000000000000000000000000000FFFFFFFFFFFFFFFF00000000000000000000000000000000000000000000
310
000000000000000000000000000000000000000000000000000000000000000000000000000000000000000000000000000000000000000000000000000000000000FFFFFFFFFFFFFFFF00000000000000000000000000000000000000000000000000000000FF000000000000000000000000000000000000000000000000
310
00000000000000FF00000000000000000000000000000000000000000000000000000000000000FF00000000000000000000000000000000000000000000000000000000000000FF00000000000000000000000000000000000000000000000000000000000000FF0000000000000000000000000000000000000000000000
310
0000000000000000FF0000000000000000000000000000000000000000000000000000000000000000000000000000000000000000000000
 70
     4
280
     1
281
     0
1001
AcDbBlockRepETag
1070
     1
1071
       16
1001
AcDbDynamicBlockTrueName
1000
DM-DXN-T
1001
AcDbDynamicBlockGUID
1000
{D73DAFFB-8754-48CF-A132-9149C356E7AF}
  0
BLOCK_RECORD
  5
2BF
102
{ACAD_XDICTIONARY
360
2C0
102
}
330
1
100
AcDbSymbolTableRecord
100
AcDbBlockTableRecord
  2
DM-VCB
340
0
 70
     4
280
     1
281
     0
1001
AcDbBlockRepETag
1070
     1
1071
       16
1001
AcDbDynamicBlockTrueName
1000
DM-VCB
1001
AcDbDynamicBlockGUID
1000
{0FF59A59-252D-42B7-981B-19AE506543B6}
  0
BLOCK_RECORD
  5
2D6
102
{ACAD_XDICTIONARY
360
2D7
102
}
330
1
100
AcDbSymbolTableRecord
100
AcDbBlockTableRecord
  2
DM-CT
340
0
 70
     4
280
     1
281
     0
1001
AcDbBlockRepETag
1070
     1
1071
        2
1001
AcDbDynamicBlockTrueName
1000
DM-CT
1001
AcDbDynamicBlockGUID
1000
{5CF707AA-C936-42DB-BD80-8833E3C61349}
  0
BLOCK_RECORD
  5
2E2
102
{ACAD_XDICTIONARY
360
2E3
102
}
330
1
100
AcDbSymbolTableRecord
100
AcDbBlockTableRecord
  2
*U9
340
0
102
{BLKREFS
331
76F
331
712
102
}
 70
     0
280
     1
281
     0
1001
AcDbBlockRepBTag
1070
     1
1005
25E
  0
BLOCK_RECORD
  5
2ED
102
{ACAD_XDICTIONARY
360
2EE
102
}
330
1
100
AcDbSymbolTableRecord
100
AcDbBlockTableRecord
  2
*U10
340
0
 70
     0
280
     1
281
     0
1001
AcDbBlockRepBTag
1070
     1
1005
288
  0
BLOCK_RECORD
  5
2F6
102
{ACAD_XDICTIONARY
360
2F7
102
}
330
1
100
AcDbSymbolTableRecord
100
AcDbBlockTableRecord
  2
*U11
340
0
102
{BLKREFS
331
789
331
6B1
331
72E
102
}
 70
     0
280
     1
281
     0
1001
AcDbBlockRepBTag
1070
     1
1005
294
  0
BLOCK_RECORD
  5
307
102
{ACAD_XDICTIONARY
360
308
102
}
330
1
100
AcDbSymbolTableRecord
100
AcDbBlockTableRecord
  2
*U12
340
0
 70
     0
280
     1
281
     0
1001
AcDbBlockRepBTag
1070
     1
1005
2A8
  0
BLOCK_RECORD
  5
31B
102
{ACAD_XDICTIONARY
360
31C
102
}
330
1
100
AcDbSymbolTableRecord
100
AcDbBlockTableRecord
  2
*U13
340
0
 70
     0
280
     1
281
     0
1001
AcDbBlockRepBTag
1070
     1
1005
2D6
  0
BLOCK_RECORD
  5
324
102
{ACAD_XDICTIONARY
360
325
102
}
330
1
100
AcDbSymbolTableRecord
100
AcDbBlockTableRecord
  2
*U14
340
0
 70
     0
280
     1
281
     0
1001
AcDbBlockRepBTag
1070
     1
1005
2D6
  0
BLOCK_RECORD
  5
32D
102
{ACAD_XDICTIONARY
360
32E
102
}
330
1
100
AcDbSymbolTableRecord
100
AcDbBlockTableRecord
  2
*U15
340
0
 70
     0
280
     1
281
     0
1001
AcDbBlockRepBTag
1070
     1
1005
2D6
  0
BLOCK_RECORD
  5
336
102
{ACAD_XDICTIONARY
360
337
102
}
330
1
100
AcDbSymbolTableRecord
100
AcDbBlockTableRecord
  2
*U16
340
0
102
{BLKREFS
331
74C
331
753
331
75A
331
761
331
7A7
331
7AE
331
7B5
331
7BC
331
694
331
69B
331
6A2
331
6A9
102
}
 70
     0
280
     1
281
     0
1001
AcDbBlockRepBTag
1070
     1
1005
2D6
  0
BLOCK_RECORD
  5
33F
102
{ACAD_XDICTIONARY
360
340
102
}
330
1
100
AcDbSymbolTableRecord
100
AcDbBlockTableRecord
  2
DM-DblClmnTrans
340
0
310
2800000020000000200000000100080000000000000400000000000000000000000000000000000000000000000080000080000000808000800000008000800080800000C0C0C000C0DCC000F0CAA6000020400000206000002080000020A0000020C0000020E00000400000004020000040400000406000004080000040A0
310
000040C0000040E00000600000006020000060400000606000006080000060A0000060C0000060E00000800000008020000080400000806000008080000080A0000080C0000080E00000A0000000A0200000A0400000A0600000A0800000A0A00000A0C00000A0E00000C0000000C0200000C0400000C0600000C0800000C0
310
A00000C0C00000C0E00000E0000000E0200000E0400000E0600000E0800000E0A00000E0C00000E0E00040000000400020004000400040006000400080004000A0004000C0004000E00040200000402020004020400040206000402080004020A0004020C0004020E000404000004040200040404000404060004040800040
310
40A0004040C0004040E00040600000406020004060400040606000406080004060A0004060C0004060E00040800000408020004080400040806000408080004080A0004080C0004080E00040A0000040A0200040A0400040A0600040A0800040A0A00040A0C00040A0E00040C0000040C0200040C0400040C0600040C08000
310
40C0A00040C0C00040C0E00040E0000040E0200040E0400040E0600040E0800040E0A00040E0C00040E0E00080000000800020008000400080006000800080008000A0008000C0008000E00080200000802020008020400080206000802080008020A0008020C0008020E00080400000804020008040400080406000804080
310
008040A0008040C0008040E00080600000806020008060400080606000806080008060A0008060C0008060E00080800000808020008080400080806000808080008080A0008080C0008080E00080A0000080A0200080A0400080A0600080A0800080A0A00080A0C00080A0E00080C0000080C0200080C0400080C0600080C0
310
800080C0A00080C0C00080C0E00080E0000080E0200080E0400080E0600080E0800080E0A00080E0C00080E0E000C0000000C0002000C0004000C0006000C0008000C000A000C000C000C000E000C0200000C0202000C0204000C0206000C0208000C020A000C020C000C020E000C0400000C0402000C0404000C0406000C0
310
408000C040A000C040C000C040E000C0600000C0602000C0604000C0606000C0608000C060A000C060C000C060E000C0800000C0802000C0804000C0806000C0808000C080A000C080C000C080E000C0A00000C0A02000C0A04000C0A06000C0A08000C0A0A000C0A0C000C0A0E000C0C00000C0C02000C0C04000C0C06000
310
C0C08000C0C0A000F0FBFF00A4A0A000808080000000FF0000FF000000FFFF00FF000000FF00FF00FFFF0000FFFFFF0000000000000000000000000000000000000000000000000000000000000000000000000000000000000000000000FFFFFF00000000000000000000000000000000000000000000000000000000FF00
310
0000FFFFFF00000000000000000000000000000000000000000000FFFFFF00000000000000FF000000000000000000000000000000000000000000FF00000000000000000000FFFF000000000000000000000000000000000000FF00000000000000000000000000FF00000000000000000000000000000000FF0000000000
310
000000000000000000FF000000000000000000000000000000FF000000000000000000000000000000FF000000000000000000000000000000FF00000000000000000000000000000000FF0000000000000000000000000000FF00000000000000000000000000000000FF0000000000000000000000000000FF0000000000
310
0000000000000000000000FF0000000000000000000000000000FF00000000000000000000000000000000FF0000000000000000000000000000FF00000000000000000000000000000000FF000000000000000000000000000000FF00000000FFFFFFFFFFFFFF000000FF00000000000000000000000000000000FF0000FF
310
FF00000000000000FF0000FF0000000000000000000000000000000000FFFF00000000000000000000FFFFFF0000000000000000000000000000000000FFFF0000000000000000000000FFFF00000000000000000000000000000000FF0000FF0000000000000000FFFF00FF00000000000000000000000000000000FF0000
310
00FFFFFFFFFFFFFFFF000000FF000000000000000000000000000000FF00000000000000000000000000000000FF0000000000000000000000000000FF00000000000000000000000000000000FF0000000000000000000000000000FF00000000000000000000000000000000FF0000000000000000000000000000FF0000
310
0000000000000000000000000000FF0000000000000000000000000000FF00000000000000000000000000000000FF0000000000000000000000000000FF000000000000000000000000000000FF00000000000000000000000000000000FF0000000000000000000000000000FF0000000000000000000000000000000000
310
FF00000000000000000000000000FF000000000000000000000000000000000000FF0000000000000000000000FF00000000000000000000000000000000000000FFFF0000000000000000FFFF00000000000000000000000000000000000000000000FFFF000000FFFFFF0000000000000000000000000000000000000000
310
000000000000FFFFFF0000000000000000000000000000000000000000000000000000000000000000000000000000000000000000000000
 70
     4
280
     1
281
     0
1001
AcDbBlockRepETag
1070
     1
1071
       11
1001
AcDbDynamicBlockTrueName
1000
DM-DblClmnTrans
1001
AcDbDynamicBlockGUID
1000
{E714A129-E91D-4A45-9DB5-EDE3507250C0}
  0
BLOCK_RECORD
  5
34E
102
{ACAD_XDICTIONARY
360
34F
102
}
330
1
100
AcDbSymbolTableRecord
100
AcDbBlockTableRecord
  2
DM-Knife Switch
340
0
102
{BLKREFS
331
7F8
331
830
102
}
 70
     4
280
     1
281
     0
1001
AcDbDynamicBlockGUID
1000
{1208EE2A-AA7C-4F17-ABFF-748ED99B0445}
  0
BLOCK_RECORD
  5
357
102
{ACAD_XDICTIONARY
360
358
102
}
330
1
100
AcDbSymbolTableRecord
100
AcDbBlockTableRecord
  2
DM-HV FUSE
340
0
310
2800000020000000200000000100080000000000000400000000000000000000000000000000000000000000000080000080000000808000800000008000800080800000C0C0C000C0DCC000F0CAA6000020400000206000002080000020A0000020C0000020E00000400000004020000040400000406000004080000040A0
310
000040C0000040E00000600000006020000060400000606000006080000060A0000060C0000060E00000800000008020000080400000806000008080000080A0000080C0000080E00000A0000000A0200000A0400000A0600000A0800000A0A00000A0C00000A0E00000C0000000C0200000C0400000C0600000C0800000C0
310
A00000C0C00000C0E00000E0000000E0200000E0400000E0600000E0800000E0A00000E0C00000E0E00040000000400020004000400040006000400080004000A0004000C0004000E00040200000402020004020400040206000402080004020A0004020C0004020E000404000004040200040404000404060004040800040
310
40A0004040C0004040E00040600000406020004060400040606000406080004060A0004060C0004060E00040800000408020004080400040806000408080004080A0004080C0004080E00040A0000040A0200040A0400040A0600040A0800040A0A00040A0C00040A0E00040C0000040C0200040C0400040C0600040C08000
310
40C0A00040C0C00040C0E00040E0000040E0200040E0400040E0600040E0800040E0A00040E0C00040E0E00080000000800020008000400080006000800080008000A0008000C0008000E00080200000802020008020400080206000802080008020A0008020C0008020E00080400000804020008040400080406000804080
310
008040A0008040C0008040E00080600000806020008060400080606000806080008060A0008060C0008060E00080800000808020008080400080806000808080008080A0008080C0008080E00080A0000080A0200080A0400080A0600080A0800080A0A00080A0C00080A0E00080C0000080C0200080C0400080C0600080C0
310
800080C0A00080C0C00080C0E00080E0000080E0200080E0400080E0600080E0800080E0A00080E0C00080E0E000C0000000C0002000C0004000C0006000C0008000C000A000C000C000C000E000C0200000C0202000C0204000C0206000C0208000C020A000C020C000C020E000C0400000C0402000C0404000C0406000C0
310
408000C040A000C040C000C040E000C0600000C0602000C0604000C0606000C0608000C060A000C060C000C060E000C0800000C0802000C0804000C0806000C0808000C080A000C080C000C080E000C0A00000C0A02000C0A04000C0A06000C0A08000C0A0A000C0A0C000C0A0E000C0C00000C0C02000C0C04000C0C06000
310
C0C08000C0C0A000F0FBFF00A4A0A000808080000000FF0000FF000000FFFF00FF000000FF00FF00FFFF0000FFFFFF000000000000000000000000000000000000000000000000000000000000000000000000000000000000000000000000FF00000000000000000000000000000000000000000000000000000000000000
310
FF00000000000000000000000000000000000000000000000000000000000000FF00000000000000000000000000000000000000000000000000000000000000FF00000000000000000000000000000000000000000000000000000000000000FF000000000000000000000000000000000000000000000000000000FFFFFF
310
FFFFFFFFFFFFFF00000000000000000000000000000000000000000000FF000000FF00000000FF00000000000000000000000000000000000000000000FF000000FF00000000FF00000000000000000000000000000000000000000000FF000000FF00000000FF00000000000000000000000000000000000000000000FF00
310
0000FF00000000FF00000000000000000000000000000000000000000000FF000000FF00000000FF00000000000000000000000000000000000000000000FF000000FF00000000FF00000000000000000000000000000000000000000000FF000000FF00000000FF00000000000000000000000000000000000000000000FF
310
000000FF00000000FF00000000000000000000000000000000000000000000FF000000FF00000000FF00000000000000000000000000000000000000000000FF000000FF00000000FF00000000000000000000000000000000000000000000FF000000FF00000000FF00000000000000000000000000000000000000000000
310
FF000000FF00000000FF00000000000000000000000000000000000000000000FF000000FF00000000FF00000000000000000000000000000000000000000000FF000000FF00000000FF00000000000000000000000000000000000000000000FF000000FF00000000FF000000000000000000000000000000000000000000
310
00FF000000FF00000000FF00000000000000000000000000000000000000000000FF000000FF00000000FF00000000000000000000000000000000000000000000FF000000FF00000000FF00000000000000000000000000000000000000000000FFFFFFFFFFFFFFFFFFFF0000000000000000000000000000000000000000
310
000000000000FF00000000000000000000000000000000000000000000000000000000000000FF00000000000000000000000000000000000000000000000000000000000000FF00000000000000000000000000000000000000000000000000000000000000FF000000000000000000000000000000000000000000000000
310
00000000000000FF000000000000000000000000000000000000000000000000000000000000000000000000000000000000000000000000
 70
     4
280
     1
281
     0
1001
AcDbBlockRepETag
1070
     1
1071
        4
1001
AcDbDynamicBlockTrueName
1000
DM-HV FUSE
1001
AcDbDynamicBlockGUID
1000
{2F7254A3-7A92-4942-9B59-68C3E22DF1BE}
  0
BLOCK_RECORD
  5
362
102
{ACAD_XDICTIONARY
360
363
102
}
330
1
100
AcDbSymbolTableRecord
100
AcDbBlockTableRecord
  2
*U20
340
0
102
{BLKREFS
331
7CA
331
802
102
}
 70
     0
280
     1
281
     0
1001
AcDbBlockRepBTag
1070
     1
1005
357
  0
BLOCK_RECORD
  5
36A
102
{ACAD_XDICTIONARY
360
36B
102
}
330
1
100
AcDbSymbolTableRecord
100
AcDbBlockTableRecord
  2
*U21
340
0
102
{BLKREFS
331
776
331
7D3
331
80B
331
67D
331
684
331
6C0
331
6CE
331
6D7
331
6DF
331
719
102
}
 70
     0
280
     1
281
     0
1001
AcDbBlockRepBTag
1070
     1
1005
288
  0
BLOCK_RECORD
  5
373
102
{ACAD_XDICTIONARY
360
374
102
}
330
1
100
AcDbSymbolTableRecord
100
AcDbBlockTableRecord
  2
*U22
340
0
102
{BLKREFS
331
73E
331
799
331
7E9
331
821
102
}
 70
     0
280
     1
281
     0
1001
AcDbBlockRepBTag
1070
     1
1005
2A8
  0
BLOCK_RECORD
  5
387
102
{ACAD_XDICTIONARY
360
388
102
}
330
1
100
AcDbSymbolTableRecord
100
AcDbBlockTableRecord
  2
*U23
340
0
102
{BLKREFS
331
768
331
7C3
331
68C
102
}
 70
     0
280
     1
281
     0
1001
AcDbBlockRepBTag
1070
     1
1005
2BF
  0
BLOCK_RECORD
  5
39B
102
{ACAD_XDICTIONARY
360
39C
102
}
330
1
100
AcDbSymbolTableRecord
100
AcDbBlockTableRecord
  2
*U24
340
0
 70
     0
280
     1
281
     0
1001
AcDbBlockRepBTag
1070
     1
1005
26C
  0
BLOCK_RECORD
  5
3A4
102
{ACAD_XDICTIONARY
360
3A5
102
}
330
1
100
AcDbSymbolTableRecord
100
AcDbBlockTableRecord
  2
*U25
340
0
 70
     0
280
     1
281
     0
1001
AcDbBlockRepBTag
1070
     1
1005
26C
  0
BLOCK_RECORD
  5
3AD
102
{ACAD_XDICTIONARY
360
3AE
102
}
330
1
100
AcDbSymbolTableRecord
100
AcDbBlockTableRecord
  2
*U26
340
0
 70
     0
280
     1
281
     0
1001
AcDbBlockRepBTag
1070
     1
1005
26C
  0
BLOCK_RECORD
  5
3B6
102
{ACAD_XDICTIONARY
360
3B7
102
}
330
1
100
AcDbSymbolTableRecord
100
AcDbBlockTableRecord
  2
*U27
340
0
102
{BLKREFS
331
745
331
790
331
7A0
331
7F0
331
7F9
331
6B8
331
735
331
828
331
831
102
}
 70
     0
280
     1
281
     0
1001
AcDbBlockRepBTag
1070
     1
1005
26C
  0
BLOCK_RECORD
  5
3BF
102
{ACAD_XDICTIONARY
360
3C0
102
}
330
1
100
AcDbSymbolTableRecord
100
AcDbBlockTableRecord
  2
*U28
340
0
 70
     0
280
     1
281
     0
1001
AcDbBlockRepBTag
1070
     1
1005
278
  0
BLOCK_RECORD
  5
3CC
102
{ACAD_XDICTIONARY
360
3CD
102
}
330
1
100
AcDbSymbolTableRecord
100
AcDbBlockTableRecord
  2
*U29
340
0
102
{BLKREFS
331
782
331
7DC
331
814
331
727
102
}
 70
     0
280
     1
281
     0
1001
AcDbBlockRepBTag
1070
     1
1005
278
  0
BLOCK_RECORD
  5
3D9
102
{ACAD_XDICTIONARY
360
3DA
102
}
330
1
100
AcDbSymbolTableRecord
100
AcDbBlockTableRecord
  2
*U30
340
0
102
{BLKREFS
331
676
102
}
 70
     0
280
     1
281
     0
1001
AcDbBlockRepBTag
1070
     1
1005
33F
  0
BLOCK_RECORD
  5
3E5
102
{ACAD_XDICTIONARY
360
3E6
102
}
330
1
100
AcDbSymbolTableRecord
100
AcDbBlockTableRecord
  2
*U31
340
0
 70
     0
280
     1
281
     0
1001
AcDbBlockRepBTag
1070
     1
1005
288
  0
BLOCK_RECORD
  5
3EE
102
{ACAD_XDICTIONARY
360
3EF
102
}
330
1
100
AcDbSymbolTableRecord
100
AcDbBlockTableRecord
  2
*U32
340
0
 70
     0
280
     1
281
     0
1001
AcDbBlockRepBTag
1070
     1
1005
288
  0
BLOCK_RECORD
  5
3F7
102
{ACAD_XDICTIONARY
360
3F8
102
}
330
1
100
AcDbSymbolTableRecord
100
AcDbBlockTableRecord
  2
*U33
340
0
 70
     0
280
     1
281
     0
1001
AcDbBlockRepBTag
1070
     1
1005
2BF
  0
BLOCK_RECORD
  5
40B
102
{ACAD_XDICTIONARY
360
40C
102
}
330
1
100
AcDbSymbolTableRecord
100
AcDbBlockTableRecord
  2
*U34
340
0
 70
     0
280
     1
281
     0
1001
AcDbBlockRepBTag
1070
     1
1005
2D6
  0
BLOCK_RECORD
  5
414
102
{ACAD_XDICTIONARY
360
415
102
}
330
1
100
AcDbSymbolTableRecord
100
AcDbBlockTableRecord
  2
*U35
340
0
 70
     0
280
     1
281
     0
1001
AcDbBlockRepBTag
1070
     1
1005
2D6
  0
BLOCK_RECORD
  5
41D
102
{ACAD_XDICTIONARY
360
41E
102
}
330
1
100
AcDbSymbolTableRecord
100
AcDbBlockTableRecord
  2
*U36
340
0
 70
     0
280
     1
281
     0
1001
AcDbBlockRepBTag
1070
     1
1005
2D6
  0
BLOCK_RECORD
  5
426
102
{ACAD_XDICTIONARY
360
427
102
}
330
1
100
AcDbSymbolTableRecord
100
AcDbBlockTableRecord
  2
*U37
340
0
 70
     0
280
     1
281
     0
1001
AcDbBlockRepBTag
1070
     1
1005
2D6
  0
BLOCK_RECORD
  5
42F
102
{ACAD_XDICTIONARY
360
430
102
}
330
1
100
AcDbSymbolTableRecord
100
AcDbBlockTableRecord
  2
*U38
340
0
 70
     0
280
     1
281
     0
1001
AcDbBlockRepBTag
1070
     1
1005
294
  0
BLOCK_RECORD
  5
440
102
{ACAD_XDICTIONARY
360
441
102
}
330
1
100
AcDbSymbolTableRecord
100
AcDbBlockTableRecord
  2
*U39
340
0
 70
     0
280
     1
281
     0
1001
AcDbBlockRepBTag
1070
     1
1005
26C
  0
BLOCK_RECORD
  5
449
102
{ACAD_XDICTIONARY
360
44A
102
}
330
1
100
AcDbSymbolTableRecord
100
AcDbBlockTableRecord
  2
*U40
340
0
 70
     0
280
     1
281
     0
1001
AcDbBlockRepBTag
1070
     1
1005
288
  0
BLOCK_RECORD
  5
452
102
{ACAD_XDICTIONARY
360
453
102
}
330
1
100
AcDbSymbolTableRecord
100
AcDbBlockTableRecord
  2
*U41
340
0
 70
     0
280
     1
281
     0
1001
AcDbBlockRepBTag
1070
     1
1005
288
  0
BLOCK_RECORD
  5
45B
102
{ACAD_XDICTIONARY
360
45C
102
}
330
1
100
AcDbSymbolTableRecord
100
AcDbBlockTableRecord
  2
*U42
340
0
 70
     0
280
     1
281
     0
1001
AcDbBlockRepBTag
1070
     1
1005
288
  0
BLOCK_RECORD
  5
464
102
{ACAD_XDICTIONARY
360
465
102
}
330
1
100
AcDbSymbolTableRecord
100
AcDbBlockTableRecord
  2
*U43
340
0
 70
     0
280
     1
281
     0
1001
AcDbBlockRepBTag
1070
     1
1005
288
  0
ENDTAB
  0
ENDSEC
  0
SECTION
  2
BLOCKS
  0
BLOCK
  5
20
330
1F
100
AcDbEntity
  8
0
100
AcDbBlockBegin
  2
*Model_Space
 70
     0
 10
0.0
 20
0.0
 30
0.0
  3
*Model_Space
  1

  0
ENDBLK
  5
21
330
1F
100
AcDbEntity
  8
0
100
AcDbBlockEnd
  0
BLOCK
  5
D4
330
D2
100
AcDbEntity
 67
     1
  8
0
100
AcDbBlockBegin
  2
*Paper_Space
 70
     0
 10
0.0
 20
0.0
 30
0.0
  3
*Paper_Space
  1

  0
ENDBLK
  5
D5
330
D2
100
AcDbEntity
 67
     1
  8
0
100
AcDbBlockEnd
  0
BLOCK
  5
D8
330
D6
100
AcDbEntity
 67
     1
  8
0
100
AcDbBlockBegin
  2
*Paper_Space0
 70
     0
 10
0.0
 20
0.0
 30
0.0
  3
*Paper_Space0
  1

  0
ENDBLK
  5
D9
330
D6
100
AcDbEntity
 67
     1
  8
0
100
AcDbBlockEnd
  0
BLOCK
  5
263
330
25E
100
AcDbEntity
  8
0
 48
0.1
100
AcDbBlockBegin
  2
DM-ZCT
 70
     0
 10
0.0
 20
0.0
 30
0.0
  3
DM-ZCT
  1

  0
LINE
  5
264
330
25E
100
AcDbEntity
  8
0
  6
DASHED2
100
AcDbLine
 10
0.0
 20
0.0
 30
0.0
 11
0.0
 21
-24.0
 31
0.0
1001
AcDbBlockRepETag
1070
     1
1071
        0
1005
264
  0
CIRCLE
  5
265
330
25E
100
AcDbEntity
  8
0
100
AcDbCircle
 10
0.0
 20
-12.0
 30
0.0
 40
5.0
1001
AcDbBlockRepETag
1070
     1
1071
        1
1005
265
  0
LINE
  5
266
330
25E
100
AcDbEntity
  8
0
100
AcDbLine
 10
7.999999147599737
 20
-10.0
 30
0.0
 11
5.999999147599737
 21
-14.0
 31
0.0
1001
AcDbBlockRepETag
1070
     1
1071
        3
1005
266
  0
LINE
  5
267
330
25E
100
AcDbEntity
  8
0
100
AcDbLine
 10
9.999999147599737
 20
-10.0
 30
0.0
 11
7.999999147599737
 21
-14.0
 31
0.0
1001
AcDbBlockRepETag
1070
     1
1071
        4
1005
267
  0
LINE
  5
268
330
25E
100
AcDbEntity
  8
0
  6
DASHED2
100
AcDbLine
 10
-3.0
 20
-4.0
 30
0.0
 11
-3.0
 21
-20.0
 31
0.0
1001
AcDbBlockRepETag
1070
     1
1071
        2
1005
268
  0
LINE
  5
269
330
25E
100
AcDbEntity
  8
0
  6
DASHED2
100
AcDbLine
 10
3.0
 20
-4.0
 30
0.0
 11
3.0
 21
-20.0
 31
0.0
1001
AcDbBlockRepETag
1070
     1
1071
        5
1005
269
  0
LINE
  5
26A
330
25E
100
AcDbEntity
  8
0
100
AcDbLine
 10
5.0
 20
-11.99999999863691
 30
0.0
 11
11.0
 21
-11.99999999863691
 31
0.0
1001
AcDbBlockRepETag
1070
     1
1071
        6
1005
26A
  0
ENDBLK
  5
26B
330
25E
100
AcDbEntity
  8
0
 48
0.1
100
AcDbBlockEnd
  0
BLOCK
  5
271
330
26C
100
AcDbEntity
  8
0
100
AcDbBlockBegin
  2
DM-GND
 70
     0
 10
0.0
 20
0.0
 30
0.0
  3
DM-GND
  1

  0
LINE
  5
272
330
26C
100
AcDbEntity
  8
0
100
AcDbLine
 10
0.0
 20
0.0
 30
0.0
 11
0.0
 21
-4.0
 31
0.0
1001
AcDbBlockRepETag
1070
     1
1071
        0
1005
272
  0
LINE
  5
273
330
26C
100
AcDbEntity
  8
0
100
AcDbLine
 10
-2.0
 20
-4.0
 30
0.0
 11
2.0
 21
-4.0
 31
0.0
1001
AcDbBlockRepETag
1070
     1
1071
        1
1005
273
  0
LINE
  5
274
330
26C
100
AcDbEntity
  8
0
100
AcDbLine
 10
-1.0
 20
-5.0
 30
0.0
 11
1.0
 21
-5.0
 31
0.0
1001
AcDbBlockRepETag
1070
     1
1071
        2
1005
274
  0
LINE
  5
275
330
26C
100
AcDbEntity
  8
0
100
AcDbLine
 10
0.0
 20
-6.0
 30
0.0
 11
0.0
 21
-6.0
 31
0.0
1001
AcDbBlockRepETag
1070
     1
1071
        3
1005
275
  0
LINE
  5
276
330
26C
100
AcDbEntity
  8
0
100
AcDbLine
 10
0.5
 20
-6.0
 30
0.0
 11
-0.5
 21
-6.0
 31
0.0
1001
AcDbBlockRepETag
1070
     1
1071
        4
1005
276
  0
ENDBLK
  5
277
330
26C
100
AcDbEntity
  8
0
100
AcDbBlockEnd
  0
BLOCK
  5
27D
330
278
100
AcDbEntity
  8
0
370
   158
100
AcDbBlockBegin
  2
DM-Earthing Switch
 70
     0
 10
0.0
 20
0.0
 30
0.0
  3
DM-Earthing Switch
  1

  0
LINE
  5
27E
330
278
100
AcDbEntity
  8
0
100
AcDbLine
 10
-4.0
 20
-6.0
 30
0.0
 11
4.0
 21
-6.0
 31
0.0
1001
AcDbBlockRepETag
1070
     1
1071
        1
1005
27E
  0
LINE
  5
27F
330
278
100
AcDbEntity
  8
0
100
AcDbLine
 10
0.0
 20
0.0
 30
0.0
 11
0.0
 21
-6.0
 31
0.0
1001
AcDbBlockRepETag
1070
     1
1071
        2
1005
27F
  0
LINE
  5
280
330
278
100
AcDbEntity
  8
0
100
AcDbLine
 10
0.0000004987477951
 20
-20.0
 30
0.0
 11
-8.0
 21
-6.0
 31
0.0
1001
AcDbBlockRepETag
1070
     1
1071
        3
1005
280
  0
LINE
  5
281
330
278
100
AcDbEntity
  8
0
 48
0.1
100
AcDbLine
 10
0.0000004987477951
 20
-20.0
 30
0.0
 11
0.0000004987477951
 21
-32.0
 31
0.0
1001
AcDbBlockRepETag
1070
     1
1071
        4
1005
281
  0
LINE
  5
282
330
278
100
AcDbEntity
  8
0
100
AcDbLine
 10
0.0000004987477951
 20
-32.0
 30
0.0
 11
0.0000004987477951
 21
-40.0
 31
0.0
1001
AcDbBlockRepETag
1070
     1
1071
        0
1005
282
  0
LINE
  5
283
330
278
100
AcDbEntity
  8
0
100
AcDbLine
 10
-3.999999501252204
 20
-40.0
 30
0.0
 11
4.000000498747795
 21
-40.0
 31
0.0
1001
AcDbBlockRepETag
1070
     1
1071
        5
1005
283
  0
LINE
  5
284
330
278
100
AcDbEntity
  8
0
100
AcDbLine
 10
-1.999999501252204
 20
-42.0
 30
0.0
 11
2.000000498747795
 21
-42.0
 31
0.0
1001
AcDbBlockRepETag
1070
     1
1071
        6
1005
284
  0
LINE
  5
285
330
278
100
AcDbEntity
  8
0
100
AcDbLine
 10
0.0000004987477951
 20
-44.0
 30
0.0
 11
0.0000004987477951
 21
-44.0
 31
0.0
1001
AcDbBlockRepETag
1070
     1
1071
        7
1005
285
  0
LINE
  5
286
330
278
100
AcDbEntity
  8
0
100
AcDbLine
 10
1.000000498747795
 20
-44.0
 30
0.0
 11
-0.9999995012522049
 21
-44.0
 31
0.0
1001
AcDbBlockRepETag
1070
     1
1071
        8
1005
286
  0
ENDBLK
  5
287
330
278
100
AcDbEntity
  8
0
370
   158
100
AcDbBlockEnd
  0
BLOCK
  5
28D
330
288
100
AcDbEntity
  8
0
 48
0.1
100
AcDbBlockBegin
  2
DM-Outgoing Line
 70
     0
 10
0.0
 20
0.0
 30
0.0
  3
DM-Outgoing Line
  1

  0
LINE
  5
28E
330
288
100
AcDbEntity
  8
0
100
AcDbLine
 10
0.0
 20
0.0
 30
0.0
 11
0.0
 21
15.0
 31
0.0
1001
AcDbBlockRepETag
1070
     1
1071
        0
1005
28E
  0
HATCH
  5
28F
330
288
100
AcDbEntity
  8
0
100
AcDbHatch
 10
0.0
 20
0.0
 30
0.0
210
0.0
220
0.0
230
1.0
  2
SOLID
 70
     1
 71
     1
 91
        1
 92
        1
 93
        3
 72
     1
 10
0.0
 20
15.0
 11
-2.0
 21
10.99999910797555
 72
     1
 10
-2.0
 20
10.99999910797555
 11
2.0
 21
10.99999910797555
 72
     1
 10
2.0
 20
10.99999910797555
 11
0.0
 21
15.0
 97
        3
330
290
330
291
330
292
 75
     0
 76
     1
 98
        1
 10
-854.0
 20
84.99999910797555
450
        0
451
        0
460
0.0
461
0.0
452
        1
462
1.0
453
        2
463
0.0
 63
     5
421
      255
463
1.0
 63
     7
421
 16777215
470
LINEAR
1001
ACAD
1010
0.0
1020
0.0
1030
0.0
1001
AcDbBlockRepETag
1070
     1
1071
        1
1005
28F
  0
LINE
  5
290
102
{ACAD_REACTORS
330
28F
102
}
330
288
100
AcDbEntity
  8
0
100
AcDbLine
 10
0.0
 20
15.0
 30
0.0
 11
-2.0
 21
10.99999910797555
 31
0.0
1001
AcDbBlockRepETag
1070
     1
1071
        2
1005
290
  0
LINE
  5
291
102
{ACAD_REACTORS
330
28F
102
}
330
288
100
AcDbEntity
  8
0
100
AcDbLine
 10
-2.0
 20
10.99999910797555
 30
0.0
 11
2.0
 21
10.99999910797555
 31
0.0
1001
AcDbBlockRepETag
1070
     1
1071
        3
1005
291
  0
LINE
  5
292
102
{ACAD_REACTORS
330
28F
102
}
330
288
100
AcDbEntity
  8
0
100
AcDbLine
 10
2.0
 20
10.99999910797555
 30
0.0
 11
0.0
 21
15.0
 31
0.0
1001
AcDbBlockRepETag
1070
     1
1071
        4
1005
292
  0
ENDBLK
  5
293
330
288
100
AcDbEntity
  8
0
 48
0.1
100
AcDbBlockEnd
  0
BLOCK
  5
29A
330
294
100
AcDbEntity
  8
0
100
AcDbBlockBegin
  2
DM-Arrester
 70
     0
 10
0.0
 20
0.0
 30
0.0
  3
DM-Arrester
  1

  0
LINE
  5
29B
330
294
100
AcDbEntity
  8
0
100
AcDbLine
 10
0.0
 20
0.0
 30
0.0
 11
0.0
 21
-4.0
 31
0.0
1001
AcDbBlockRepETag
1070
     1
1071
        0
1005
29B
  0
LINE
  5
29C
330
294
100
AcDbEntity
  8
0
100
AcDbLine
 10
-2.0
 20
-4.0
 30
0.0
 11
2.0
 21
-4.0
 31
0.0
1001
AcDbBlockRepETag
1070
     1
1071
        1
1005
29C
  0
LINE
  5
29D
330
294
100
AcDbEntity
  8
0
100
AcDbLine
 10
2.0
 20
-4.0
 30
0.0
 11
2.0
 21
-12.0
 31
0.0
1001
AcDbBlockRepETag
1070
     1
1071
        2
1005
29D
  0
LINE
  5
29E
330
294
100
AcDbEntity
  8
0
100
AcDbLine
 10
2.0
 20
-12.0
 30
0.0
 11
-2.0
 21
-12.0
 31
0.0
1001
AcDbBlockRepETag
1070
     1
1071
        3
1005
29E
  0
LINE
  5
29F
330
294
100
AcDbEntity
  8
0
100
AcDbLine
 10
-2.0
 20
-12.0
 30
0.0
 11
-2.0
 21
-4.0
 31
0.0
1001
AcDbBlockRepETag
1070
     1
1071
        4
1005
29F
  0
LINE
  5
2A0
330
294
100
AcDbEntity
  8
0
100
AcDbLine
 10
0.0
 20
-16.0
 30
0.0
 11
0.0
 21
-12.0
 31
0.0
1001
AcDbBlockRepETag
1070
     1
1071
        5
1005
2A0
  0
LINE
  5
2A1
330
294
100
AcDbEntity
  8
0
100
AcDbLine
 10
0.0
 20
-4.0
 30
0.0
 11
0.0
 21
-4.5
 31
0.0
1001
AcDbBlockRepETag
1070
     1
1071
        6
1005
2A1
  0
HATCH
  5
2A2
330
294
100
AcDbEntity
  8
0
100
AcDbHatch
 10
0.0
 20
0.0
 30
0.0
210
0.0
220
0.0
230
1.0
  2
SOLID
 70
     1
 71
     1
 91
        1
 92
        1
 93
        4
 72
     1
 10
0.0
 20
-4.5
 11
1.5
 21
-4.5
 72
     1
 10
1.5
 20
-4.5
 11
0.0
 21
-8.0
 72
     1
 10
0.0
 20
-8.0
 11
-1.5
 21
-4.5
 72
     1
 10
-1.5
 20
-4.5
 11
0.0
 21
-4.5
 97
        4
330
2A3
330
2A5
330
2A6
330
2A4
 75
     0
 76
     1
 98
        1
 10
-3024.0
 20
314.0
450
        0
451
        0
460
0.0
461
0.0
452
        1
462
1.0
453
        2
463
0.0
 63
     5
421
      255
463
1.0
 63
     7
421
 16777215
470
LINEAR
1001
ACAD
1010
0.0
1020
0.0
1030
0.0
1001
AcDbBlockRepETag
1070
     1
1071
       11
1005
2A2
  0
LINE
  5
2A3
102
{ACAD_REACTORS
330
2A2
102
}
330
294
100
AcDbEntity
  8
0
100
AcDbLine
 10
0.0
 20
-4.5
 30
0.0
 11
1.5
 21
-4.5
 31
0.0
1001
AcDbBlockRepETag
1070
     1
1071
        7
1005
2A3
  0
LINE
  5
2A4
102
{ACAD_REACTORS
330
2A2
102
}
330
294
100
AcDbEntity
  8
0
100
AcDbLine
 10
0.0
 20
-4.5
 30
0.0
 11
-1.5
 21
-4.5
 31
0.0
1001
AcDbBlockRepETag
1070
     1
1071
        8
1005
2A4
  0
LINE
  5
2A5
102
{ACAD_REACTORS
330
2A2
102
}
330
294
100
AcDbEntity
  8
0
100
AcDbLine
 10
0.0
 20
-8.0
 30
0.0
 11
1.5
 21
-4.5
 31
0.0
1001
AcDbBlockRepETag
1070
     1
1071
        9
1005
2A5
  0
LINE
  5
2A6
102
{ACAD_REACTORS
330
2A2
102
}
330
294
100
AcDbEntity
  8
0
100
AcDbLine
 10
0.0
 20
-8.0
 30
0.0
 11
-1.5
 21
-4.5
 31
0.0
1001
AcDbBlockRepETag
1070
     1
1071
       10
1005
2A6
  0
ENDBLK
  5
2A7
330
294
100
AcDbEntity
  8
0
100
AcDbBlockEnd
  0
BLOCK
  5
2AD
330
2A8
100
AcDbEntity
  8
0
100
AcDbBlockBegin
  2
DM-DXN-T
 70
     0
 10
0.0
 20
0.0
 30
0.0
  3
DM-DXN-T
  1

  0
LINE
  5
2AE
330
2A8
100
AcDbEntity
  8
0
100
AcDbLine
 10
0.0
 20
0.0
 30
0.0
 11
0.0
 21
-3.0
 31
0.0
1001
AcDbBlockRepETag
1070
     1
1071
        0
1005
2AE
  0
LINE
  5
2AF
330
2A8
100
AcDbEntity
  8
0
100
AcDbLine
 10
2.0
 20
-3.0
 30
0.0
 11
-2.0
 21
-3.0
 31
0.0
1001
AcDbBlockRepETag
1070
     1
1071
        1
1005
2AF
  0
LINE
  5
2B0
330
2A8
100
AcDbEntity
  8
0
100
AcDbLine
 10
-2.0
 20
-5.0
 30
0.0
 11
2.0
 21
-5.0
 31
0.0
1001
AcDbBlockRepETag
1070
     1
1071
        2
1005
2B0
  0
LINE
  5
2B1
330
2A8
100
AcDbEntity
  8
0
100
AcDbLine
 10
0.0
 20
-8.0
 30
0.0
 11
0.0
 21
-5.0
 31
0.0
1001
AcDbBlockRepETag
1070
     1
1071
        3
1005
2B1
  0
CIRCLE
  5
2B2
330
2A8
100
AcDbEntity
  8
0
100
AcDbCircle
 10
0.0
 20
-10.5
 30
0.0
 40
2.5
1001
AcDbBlockRepETag
1070
     1
1071
        4
1005
2B2
  0
LINE
  5
2B3
330
2A8
100
AcDbEntity
  8
0
100
AcDbLine
 10
0.0
 20
-16.0
 30
0.0
 11
0.0
 21
-13.0
 31
0.0
1001
AcDbBlockRepETag
1070
     1
1071
        5
1005
2B3
  0
LINE
  5
2B4
330
2A8
100
AcDbEntity
  8
0
100
AcDbLine
 10
0.0
 20
-10.5
 30
0.0
 11
0.0
 21
-10.5
 31
0.0
1001
AcDbBlockRepETag
1070
     1
1071
        6
1005
2B4
  0
LINE
  5
2B5
330
2A8
100
AcDbEntity
  8
0
100
AcDbLine
 10
0.0
 20
-10.5
 30
0.0
 11
0.0
 21
-10.5
 31
0.0
1001
AcDbBlockRepETag
1070
     1
1071
        7
1005
2B5
  0
LINE
  5
2B6
330
2A8
100
AcDbEntity
  8
0
100
AcDbLine
 10
0.0
 20
-10.5
 30
0.0
 11
0.0
 21
-10.5
 31
0.0
1001
AcDbBlockRepETag
1070
     1
1071
        8
1005
2B6
  0
LINE
  5
2B7
330
2A8
100
AcDbEntity
  8
0
100
AcDbLine
 10
0.0
 20
-10.5
 30
0.0
 11
0.0
 21
-10.5
 31
0.0
1001
AcDbBlockRepETag
1070
     1
1071
        9
1005
2B7
  0
LINE
  5
2B8
330
2A8
100
AcDbEntity
  8
0
100
AcDbLine
 10
0.0
 20
-10.5
 30
0.0
 11
0.0
 21
-10.5
 31
0.0
1001
AcDbBlockRepETag
1070
     1
1071
       10
1005
2B8
  0
LINE
  5
2B9
330
2A8
100
AcDbEntity
  8
0
100
AcDbLine
 10
0.0
 20
-10.5
 30
0.0
 11
0.0
 21
-10.5
 31
0.0
1001
AcDbBlockRepETag
1070
     1
1071
       11
1005
2B9
  0
LINE
  5
2BA
330
2A8
100
AcDbEntity
  8
0
100
AcDbLine
 10
0.0
 20
-10.5
 30
0.0
 11
-1.767766952966212
 21
-8.732233047033616
 31
0.0
1001
AcDbBlockRepETag
1070
     1
1071
       12
1005
2BA
  0
LINE
  5
2BB
330
2A8
100
AcDbEntity
  8
0
100
AcDbLine
 10
0.0
 20
-10.5
 30
0.0
 11
1.767766952966212
 21
-8.732233047033616
 31
0.0
1001
AcDbBlockRepETag
1070
     1
1071
       13
1005
2BB
  0
LINE
  5
2BC
330
2A8
100
AcDbEntity
  8
0
100
AcDbLine
 10
0.0
 20
-10.5
 30
0.0
 11
1.767766952966212
 21
-12.26776695296638
 31
0.0
1001
AcDbBlockRepETag
1070
     1
1071
       14
1005
2BC
  0
LINE
  5
2BD
330
2A8
100
AcDbEntity
  8
0
100
AcDbLine
 10
0.0
 20
-10.5
 30
0.0
 11
-1.767766952966212
 21
-12.26776695296638
 31
0.0
1001
AcDbBlockRepETag
1070
     1
1071
       15
1005
2BD
  0
ENDBLK
  5
2BE
330
2A8
100
AcDbEntity
  8
0
100
AcDbBlockEnd
  0
BLOCK
  5
2C4
330
2BF
100
AcDbEntity
  8
0
 48
0.1
100
AcDbBlockBegin
  2
DM-VCB
 70
     0
 10
0.0
 20
0.0
 30
0.0
  3
DM-VCB
  1

  0
LINE
  5
2C5
330
2BF
100
AcDbEntity
  8
0
100
AcDbLine
 10
0.0
 20
0.0
 30
0.0
 11
0.0
 21
-24.0
 31
0.0
1001
AcDbBlockRepETag
1070
     1
1071
        0
1005
2C5
  0
HATCH
  5
2C6
330
2BF
100
AcDbEntity
  8
0
100
AcDbHatch
 10
0.0
 20
0.0
 30
0.0
210
0.0
220
0.0
230
1.0
  2
SOLID
 70
     1
 71
     1
 91
        1
 92
        1
 93
        5
 72
     1
 10
-4.0
 20
-24.0
 11
-4.0
 21
-40.0
 72
     1
 10
-4.0
 20
-40.0
 11
4.0
 21
-40.0
 72
     1
 10
4.0
 20
-40.0
 11
4.0
 21
-32.0
 72
     1
 10
4.0
 20
-32.0
 11
4.0
 21
-24.0
 72
     1
 10
4.0
 20
-24.0
 11
-4.0
 21
-24.0
 97
        5
330
2CA
330
2CB
330
2C9
330
2C8
330
2C7
 75
     0
 76
     1
 98
        1
 10
-730.0000011883575
 20
-101.9999995897865
450
        0
451
        0
460
0.0
461
0.0
452
        1
462
1.0
453
        2
463
0.0
 63
     5
421
      255
463
1.0
 63
     7
421
 16777215
470
LINEAR
1001
ACAD
1010
0.0
1020
0.0
1030
0.0
1001
AcDbBlockRepETag
1070
     1
1071
        1
1005
2C6
  0
LINE
  5
2C7
102
{ACAD_REACTORS
330
2C6
102
}
330
2BF
100
AcDbEntity
  8
0
100
AcDbLine
 10
-4.0
 20
-24.0
 30
0.0
 11
4.0
 21
-24.0
 31
0.0
1001
AcDbBlockRepETag
1070
     1
1071
        2
1005
2C7
  0
LINE
  5
2C8
102
{ACAD_REACTORS
330
2C6
102
}
330
2BF
100
AcDbEntity
  8
0
100
AcDbLine
 10
4.0
 20
-24.0
 30
0.0
 11
4.0
 21
-32.0
 31
0.0
1001
AcDbBlockRepETag
1070
     1
1071
        3
1005
2C8
  0
LINE
  5
2C9
102
{ACAD_REACTORS
330
2C6
102
}
330
2BF
100
AcDbEntity
  8
0
100
AcDbLine
 10
4.0
 20
-32.0
 30
0.0
 11
4.0
 21
-40.0
 31
0.0
1001
AcDbBlockRepETag
1070
     1
1071
        4
1005
2C9
  0
LINE
  5
2CA
102
{ACAD_REACTORS
330
2C6
102
}
330
2BF
100
AcDbEntity
  8
0
100
AcDbLine
 10
-4.0
 20
-24.0
 30
0.0
 11
-4.0
 21
-40.0
 31
0.0
1001
AcDbBlockRepETag
1070
     1
1071
        5
1005
2CA
  0
LINE
  5
2CB
102
{ACAD_REACTORS
330
2C6
102
}
330
2BF
100
AcDbEntity
  8
0
100
AcDbLine
 10
-4.0
 20
-40.0
 30
0.0
 11
4.0
 21
-40.0
 31
0.0
1001
AcDbBlockRepETag
1070
     1
1071
        6
1005
2CB
  0
LINE
  5
2CC
330
2BF
100
AcDbEntity
  8
0
100
AcDbLine
 10
0.0
 20
-64.0
 30
0.0
 11
0.0
 21
-40.0
 31
0.0
1001
AcDbBlockRepETag
1070
     1
1071
        7
1005
2CC
  0
LINE
  5
2CD
330
2BF
100
AcDbEntity
  8
0
100
AcDbLine
 10
0.0
 20
0.0
 30
0.0
 11
-4.0
 21
-4.0
 31
0.0
1001
AcDbBlockRepETag
1070
     1
1071
        8
1005
2CD
  0
LINE
  5
2CE
330
2BF
100
AcDbEntity
  8
0
100
AcDbLine
 10
0.0
 20
0.0
 30
0.0
 11
4.0
 21
-4.0
 31
0.0
1001
AcDbBlockRepETag
1070
     1
1071
        9
1005
2CE
  0
LINE
  5
2CF
330
2BF
100
AcDbEntity
  8
0
100
AcDbLine
 10
0.0
 20
-4.0
 30
0.0
 11
-4.0
 21
-8.0
 31
0.0
1001
AcDbBlockRepETag
1070
     1
1071
       10
1005
2CF
  0
LINE
  5
2D0
330
2BF
100
AcDbEntity
  8
0
100
AcDbLine
 10
0.0
 20
-4.0
 30
0.0
 11
4.0
 21
-8.0
 31
0.0
1001
AcDbBlockRepETag
1070
     1
1071
       11
1005
2D0
  0
LINE
  5
2D1
330
2BF
100
AcDbEntity
  8
0
100
AcDbLine
 10
0.0
 20
-64.0
 30
0.0
 11
4.0
 21
-60.0
 31
0.0
1001
AcDbBlockRepETag
1070
     1
1071
       12
1005
2D1
  0
LINE
  5
2D2
330
2BF
100
AcDbEntity
  8
0
100
AcDbLine
 10
0.0
 20
-64.0
 30
0.0
 11
-4.0
 21
-60.0
 31
0.0
1001
AcDbBlockRepETag
1070
     1
1071
       13
1005
2D2
  0
LINE
  5
2D3
330
2BF
100
AcDbEntity
  8
0
100
AcDbLine
 10
0.0
 20
-60.0
 30
0.0
 11
4.0
 21
-56.0
 31
0.0
1001
AcDbBlockRepETag
1070
     1
1071
       14
1005
2D3
  0
LINE
  5
2D4
330
2BF
100
AcDbEntity
  8
0
100
AcDbLine
 10
0.0
 20
-60.0
 30
0.0
 11
-4.0
 21
-56.0
 31
0.0
1001
AcDbBlockRepETag
1070
     1
1071
       15
1005
2D4
  0
ENDBLK
  5
2D5
330
2BF
100
AcDbEntity
  8
0
 48
0.1
100
AcDbBlockEnd
  0
BLOCK
  5
2DB
330
2D6
100
AcDbEntity
  8
0
370
   158
100
AcDbBlockBegin
  2
DM-CT
 70
     0
 10
0.0
 20
0.0
 30
0.0
  3
DM-CT
  1

  0
LINE
  5
2DC
330
2D6
100
AcDbEntity
  8
0
100
AcDbLine
 10
0.0
 20
0.0
 30
0.0
 11
0.0
 21
-24.0
 31
0.0
1001
AcDbBlockRepETag
1070
     1
1071
        0
1005
2DC
  0
CIRCLE
  5
2DD
330
2D6
100
AcDbEntity
  8
0
100
AcDbCircle
 10
0.0
 20
-12.0
 30
0.0
 40
4.0
1001
AcDbBlockRepETag
1070
     1
1071
        1
1005
2DD
  0
LINE
  5
2DE
330
2D6
100
AcDbEntity
  8
0
100
AcDbLine
 10
4.0
 20
-12.0
 30
0.0
 11
9.999992328408325
 21
-11.99040525967284
 31
0.0
1001
AcDbBlockRepETag
1070
     1
1071
        2
1005
2DE
  0
LINE
  5
2DF
330
2D6
100
AcDbEntity
  8
0
100
AcDbLine
 10
7.0
 20
-10.0
 30
0.0
 11
5.0
 21
-14.0
 31
0.0
1001
AcDbBlockRepETag
1070
     1
1071
        3
1005
2DF
  0
LINE
  5
2E0
330
2D6
100
AcDbEntity
  8
0
100
AcDbLine
 10
9.0
 20
-10.0
 30
0.0
 11
7.0
 21
-14.0
 31
0.0
1001
AcDbBlockRepETag
1070
     1
1071
        4
1005
2E0
  0
ENDBLK
  5
2E1
330
2D6
100
AcDbEntity
  8
0
370
   158
100
AcDbBlockEnd
  0
BLOCK
  5
2E4
330
2E2
100
AcDbEntity
  8
0
100
AcDbBlockBegin
  2
*U9
 70
     1
 10
0.0
 20
0.0
 30
0.0
  3
*U9
  1

  0
LINE
  5
2E5
330
2E2
100
AcDbEntity
  8
0
  6
DASHED2
100
AcDbLine
 10
0.0
 20
0.0
 30
0.0
 11
0.0
 21
-24.0
 31
0.0
1001
AcDbBlockRepETag
1070
     1
1071
        0
1005
2E5
  0
CIRCLE
  5
2E6
330
2E2
100
AcDbEntity
  8
0
100
AcDbCircle
 10
0.0
 20
-12.0
 30
0.0
 40
5.0
1001
AcDbBlockRepETag
1070
     1
1071
        1
1005
2E6
  0
LINE
  5
2E7
330
2E2
100
AcDbEntity
  8
0
100
AcDbLine
 10
7.999999147599737
 20
-10.0
 30
0.0
 11
5.999999147599737
 21
-14.0
 31
0.0
1001
AcDbBlockRepETag
1070
     1
1071
        3
1005
2E7
  0
LINE
  5
2E8
330
2E2
100
AcDbEntity
  8
0
100
AcDbLine
 10
9.999999147599737
 20
-10.0
 30
0.0
 11
7.999999147599737
 21
-14.0
 31
0.0
1001
AcDbBlockRepETag
1070
     1
1071
        4
1005
2E8
  0
LINE
  5
2E9
330
2E2
100
AcDbEntity
  8
0
  6
DASHED2
100
AcDbLine
 10
-3.0
 20
-4.0
 30
0.0
 11
-3.0
 21
-20.0
 31
0.0
1001
AcDbBlockRepETag
1070
     1
1071
        2
1005
2E9
  0
LINE
  5
2EA
330
2E2
100
AcDbEntity
  8
0
  6
DASHED2
100
AcDbLine
 10
3.0
 20
-4.0
 30
0.0
 11
3.0
 21
-20.0
 31
0.0
1001
AcDbBlockRepETag
1070
     1
1071
        5
1005
2EA
  0
LINE
  5
2EB
330
2E2
100
AcDbEntity
  8
0
100
AcDbLine
 10
5.0
 20
-11.99999999863691
 30
0.0
 11
11.0
 21
-11.99999999863691
 31
0.0
1001
AcDbBlockRepETag
1070
     1
1071
        6
1005
2EB
  0
ENDBLK
  5
2EC
330
2E2
100
AcDbEntity
  8
0
100
AcDbBlockEnd
  0
BLOCK
  5
2EF
330
2ED
100
AcDbEntity
  8
0
100
AcDbBlockBegin
  2
*U10
 70
     1
 10
0.0
 20
0.0
 30
0.0
  3
*U10
  1

  0
LINE
  5
2F0
330
2ED
100
AcDbEntity
  8
0
100
AcDbLine
 10
0.0
 20
0.0
 30
0.0
 11
0.0
 21
15.0
 31
0.0
1001
AcDbBlockRepETag
1070
     1
1071
        0
1005
2F0
  0
HATCH
  5
2F1
330
2ED
100
AcDbEntity
  8
0
100
AcDbHatch
 10
0.0
 20
0.0
 30
0.0
210
0.0
220
0.0
230
1.0
  2
SOLID
 70
     1
 71
     1
 91
        1
 92
        1
 93
        3
 72
     1
 10
0.0
 20
15.0
 11
-2.0
 21
10.99999910797555
 72
     1
 10
-2.0
 20
10.99999910797555
 11
2.0
 21
10.99999910797555
 72
     1
 10
2.0
 20
10.99999910797555
 11
0.0
 21
15.0
 97
        3
330
2F2
330
2F3
330
2F4
 75
     0
 76
     1
 98
        1
 10
-854.0
 20
84.99999910797555
450
        0
451
        0
460
0.0
461
0.0
452
        1
462
1.0
453
        2
463
0.0
 63
     5
421
      255
463
1.0
 63
     7
421
 16777215
470
LINEAR
1001
ACAD
1010
0.0
1020
0.0
1030
0.0
1001
AcDbBlockRepETag
1070
     1
1071
        1
1005
2F1
  0
LINE
  5
2F2
102
{ACAD_REACTORS
330
2F1
102
}
330
2ED
100
AcDbEntity
  8
0
100
AcDbLine
 10
0.0
 20
15.0
 30
0.0
 11
-2.0
 21
10.99999910797555
 31
0.0
1001
AcDbBlockRepETag
1070
     1
1071
        2
1005
2F2
  0
LINE
  5
2F3
102
{ACAD_REACTORS
330
2F1
102
}
330
2ED
100
AcDbEntity
  8
0
100
AcDbLine
 10
-2.0
 20
10.99999910797555
 30
0.0
 11
2.0
 21
10.99999910797555
 31
0.0
1001
AcDbBlockRepETag
1070
     1
1071
        3
1005
2F3
  0
LINE
  5
2F4
102
{ACAD_REACTORS
330
2F1
102
}
330
2ED
100
AcDbEntity
  8
0
100
AcDbLine
 10
2.0
 20
10.99999910797555
 30
0.0
 11
0.0
 21
15.0
 31
0.0
1001
AcDbBlockRepETag
1070
     1
1071
        4
1005
2F4
  0
ENDBLK
  5
2F5
330
2ED
100
AcDbEntity
  8
0
100
AcDbBlockEnd
  0
BLOCK
  5
2F9
330
2F6
100
AcDbEntity
  8
0
100
AcDbBlockBegin
  2
*U11
 70
     1
 10
0.0
 20
0.0
 30
0.0
  3
*U11
  1

  0
LINE
  5
2FA
330
2F6
100
AcDbEntity
  8
0
100
AcDbLine
 10
0.0
 20
0.0
 30
0.0
 11
0.0
 21
-4.0
 31
0.0
1001
AcDbBlockRepETag
1070
     1
1071
        0
1005
2FA
  0
LINE
  5
2FB
330
2F6
100
AcDbEntity
  8
0
100
AcDbLine
 10
-2.0
 20
-4.0
 30
0.0
 11
2.0
 21
-4.0
 31
0.0
1001
AcDbBlockRepETag
1070
     1
1071
        1
1005
2FB
  0
LINE
  5
2FC
330
2F6
100
AcDbEntity
  8
0
100
AcDbLine
 10
2.0
 20
-4.0
 30
0.0
 11
2.0
 21
-12.0
 31
0.0
1001
AcDbBlockRepETag
1070
     1
1071
        2
1005
2FC
  0
LINE
  5
2FD
330
2F6
100
AcDbEntity
  8
0
100
AcDbLine
 10
2.0
 20
-12.0
 30
0.0
 11
-2.0
 21
-12.0
 31
0.0
1001
AcDbBlockRepETag
1070
     1
1071
        3
1005
2FD
  0
LINE
  5
2FE
330
2F6
100
AcDbEntity
  8
0
100
AcDbLine
 10
-2.0
 20
-12.0
 30
0.0
 11
-2.0
 21
-4.0
 31
0.0
1001
AcDbBlockRepETag
1070
     1
1071
        4
1005
2FE
  0
LINE
  5
2FF
330
2F6
100
AcDbEntity
  8
0
100
AcDbLine
 10
0.0
 20
-16.0
 30
0.0
 11
0.0
 21
-12.0
 31
0.0
1001
AcDbBlockRepETag
1070
     1
1071
        5
1005
2FF
  0
LINE
  5
300
330
2F6
100
AcDbEntity
  8
0
100
AcDbLine
 10
0.0
 20
-4.0
 30
0.0
 11
0.0
 21
-4.5
 31
0.0
1001
AcDbBlockRepETag
1070
     1
1071
        6
1005
300
  0
HATCH
  5
301
330
2F6
100
AcDbEntity
  8
0
100
AcDbHatch
 10
0.0
 20
0.0
 30
0.0
210
0.0
220
0.0
230
1.0
  2
SOLID
 70
     1
 71
     1
 91
        1
 92
        1
 93
        4
 72
     1
 10
0.0
 20
-4.5
 11
1.5
 21
-4.5
 72
     1
 10
1.5
 20
-4.5
 11
0.0
 21
-8.0
 72
     1
 10
0.0
 20
-8.0
 11
-1.5
 21
-4.5
 72
     1
 10
-1.5
 20
-4.5
 11
0.0
 21
-4.5
 97
        4
330
302
330
304
330
305
330
303
 75
     0
 76
     1
 98
        1
 10
-3024.0
 20
314.0
450
        0
451
        0
460
0.0
461
0.0
452
        1
462
1.0
453
        2
463
0.0
 63
     5
421
      255
463
1.0
 63
     7
421
 16777215
470
LINEAR
1001
ACAD
1010
0.0
1020
0.0
1030
0.0
1001
AcDbBlockRepETag
1070
     1
1071
       11
1005
301
  0
LINE
  5
302
102
{ACAD_REACTORS
330
301
102
}
330
2F6
100
AcDbEntity
  8
0
100
AcDbLine
 10
0.0
 20
-4.5
 30
0.0
 11
1.5
 21
-4.5
 31
0.0
1001
AcDbBlockRepETag
1070
     1
1071
        7
1005
302
  0
LINE
  5
303
102
{ACAD_REACTORS
330
301
102
}
330
2F6
100
AcDbEntity
  8
0
100
AcDbLine
 10
0.0
 20
-4.5
 30
0.0
 11
-1.5
 21
-4.5
 31
0.0
1001
AcDbBlockRepETag
1070
     1
1071
        8
1005
303
  0
LINE
  5
304
102
{ACAD_REACTORS
330
301
102
}
330
2F6
100
AcDbEntity
  8
0
100
AcDbLine
 10
0.0
 20
-8.0
 30
0.0
 11
1.5
 21
-4.5
 31
0.0
1001
AcDbBlockRepETag
1070
     1
1071
        9
1005
304
  0
LINE
  5
305
102
{ACAD_REACTORS
330
301
102
}
330
2F6
100
AcDbEntity
  8
0
100
AcDbLine
 10
0.0
 20
-8.0
 30
0.0
 11
-1.5
 21
-4.5
 31
0.0
1001
AcDbBlockRepETag
1070
     1
1071
       10
1005
305
  0
ENDBLK
  5
306
330
2F6
100
AcDbEntity
  8
0
100
AcDbBlockEnd
  0
BLOCK
  5
309
330
307
100
AcDbEntity
  8
0
100
AcDbBlockBegin
  2
*U12
 70
     1
 10
0.0
 20
0.0
 30
0.0
  3
*U12
  1

  0
LINE
  5
30A
330
307
100
AcDbEntity
  8
0
100
AcDbLine
 10
0.0
 20
0.0
 30
0.0
 11
0.0
 21
-3.0
 31
0.0
1001
AcDbBlockRepETag
1070
     1
1071
        0
1005
30A
  0
LINE
  5
30B
330
307
100
AcDbEntity
  8
0
100
AcDbLine
 10
2.0
 20
-3.0
 30
0.0
 11
-2.0
 21
-3.0
 31
0.0
1001
AcDbBlockRepETag
1070
     1
1071
        1
1005
30B
  0
LINE
  5
30C
330
307
100
AcDbEntity
  8
0
100
AcDbLine
 10
-2.0
 20
-5.0
 30
0.0
 11
2.0
 21
-5.0
 31
0.0
1001
AcDbBlockRepETag
1070
     1
1071
        2
1005
30C
  0
LINE
  5
30D
330
307
100
AcDbEntity
  8
0
100
AcDbLine
 10
0.0
 20
-8.0
 30
0.0
 11
0.0
 21
-5.0
 31
0.0
1001
AcDbBlockRepETag
1070
     1
1071
        3
1005
30D
  0
CIRCLE
  5
30E
330
307
100
AcDbEntity
  8
0
100
AcDbCircle
 10
0.0
 20
-10.5
 30
0.0
 40
2.5
1001
AcDbBlockRepETag
1070
     1
1071
        4
1005
30E
  0
LINE
  5
30F
330
307
100
AcDbEntity
  8
0
100
AcDbLine
 10
0.0
 20
-16.0
 30
0.0
 11
0.0
 21
-13.0
 31
0.0
1001
AcDbBlockRepETag
1070
     1
1071
        5
1005
30F
  0
LINE
  5
310
330
307
100
AcDbEntity
  8
0
100
AcDbLine
 10
0.0
 20
-10.5
 30
0.0
 11
0.0
 21
-10.5
 31
0.0
1001
AcDbBlockRepETag
1070
     1
1071
        6
1005
310
  0
LINE
  5
311
330
307
100
AcDbEntity
  8
0
100
AcDbLine
 10
0.0
 20
-10.5
 30
0.0
 11
0.0
 21
-10.5
 31
0.0
1001
AcDbBlockRepETag
1070
     1
1071
        7
1005
311
  0
LINE
  5
312
330
307
100
AcDbEntity
  8
0
100
AcDbLine
 10
0.0
 20
-10.5
 30
0.0
 11
0.0
 21
-10.5
 31
0.0
1001
AcDbBlockRepETag
1070
     1
1071
        8
1005
312
  0
LINE
  5
313
330
307
100
AcDbEntity
  8
0
100
AcDbLine
 10
0.0
 20
-10.5
 30
0.0
 11
0.0
 21
-10.5
 31
0.0
1001
AcDbBlockRepETag
1070
     1
1071
        9
1005
313
  0
LINE
  5
314
330
307
100
AcDbEntity
  8
0
100
AcDbLine
 10
0.0
 20
-10.5
 30
0.0
 11
0.0
 21
-10.5
 31
0.0
1001
AcDbBlockRepETag
1070
     1
1071
       10
1005
314
  0
LINE
  5
315
330
307
100
AcDbEntity
  8
0
100
AcDbLine
 10
0.0
 20
-10.5
 30
0.0
 11
0.0
 21
-10.5
 31
0.0
1001
AcDbBlockRepETag
1070
     1
1071
       11
1005
315
  0
LINE
  5
316
330
307
100
AcDbEntity
  8
0
100
AcDbLine
 10
0.0
 20
-10.5
 30
0.0
 11
-1.767766952966212
 21
-8.732233047033616
 31
0.0
1001
AcDbBlockRepETag
1070
     1
1071
       12
1005
316
  0
LINE
  5
317
330
307
100
AcDbEntity
  8
0
100
AcDbLine
 10
0.0
 20
-10.5
 30
0.0
 11
1.767766952966212
 21
-8.732233047033616
 31
0.0
1001
AcDbBlockRepETag
1070
     1
1071
       13
1005
317
  0
LINE
  5
318
330
307
100
AcDbEntity
  8
0
100
AcDbLine
 10
0.0
 20
-10.5
 30
0.0
 11
1.767766952966212
 21
-12.26776695296638
 31
0.0
1001
AcDbBlockRepETag
1070
     1
1071
       14
1005
318
  0
LINE
  5
319
330
307
100
AcDbEntity
  8
0
100
AcDbLine
 10
0.0
 20
-10.5
 30
0.0
 11
-1.767766952966212
 21
-12.26776695296638
 31
0.0
1001
AcDbBlockRepETag
1070
     1
1071
       15
1005
319
  0
ENDBLK
  5
31A
330
307
100
AcDbEntity
  8
0
100
AcDbBlockEnd
  0
BLOCK
  5
31D
330
31B
100
AcDbEntity
  8
0
100
AcDbBlockBegin
  2
*U13
 70
     1
 10
0.0
 20
0.0
 30
0.0
  3
*U13
  1

  0
LINE
  5
31E
330
31B
100
AcDbEntity
  8
0
100
AcDbLine
 10
0.0
 20
0.0
 30
0.0
 11
0.0
 21
-24.0
 31
0.0
1001
AcDbBlockRepETag
1070
     1
1071
        0
1005
31E
  0
CIRCLE
  5
31F
330
31B
100
AcDbEntity
  8
0
100
AcDbCircle
 10
0.0
 20
-12.0
 30
0.0
 40
4.0
1001
AcDbBlockRepETag
1070
     1
1071
        1
1005
31F
  0
LINE
  5
320
330
31B
100
AcDbEntity
  8
0
100
AcDbLine
 10
4.0
 20
-12.0
 30
0.0
 11
9.999992328408325
 21
-11.99040525967284
 31
0.0
1001
AcDbBlockRepETag
1070
     1
1071
        2
1005
320
  0
LINE
  5
321
330
31B
100
AcDbEntity
  8
0
100
AcDbLine
 10
7.0
 20
-10.0
 30
0.0
 11
5.0
 21
-14.0
 31
0.0
1001
AcDbBlockRepETag
1070
     1
1071
        3
1005
321
  0
LINE
  5
322
330
31B
100
AcDbEntity
  8
0
100
AcDbLine
 10
9.0
 20
-10.0
 30
0.0
 11
7.0
 21
-14.0
 31
0.0
1001
AcDbBlockRepETag
1070
     1
1071
        4
1005
322
  0
ENDBLK
  5
323
330
31B
100
AcDbEntity
  8
0
100
AcDbBlockEnd
  0
BLOCK
  5
326
330
324
100
AcDbEntity
  8
0
100
AcDbBlockBegin
  2
*U14
 70
     1
 10
0.0
 20
0.0
 30
0.0
  3
*U14
  1

  0
LINE
  5
327
330
324
100
AcDbEntity
  8
0
100
AcDbLine
 10
0.0
 20
0.0
 30
0.0
 11
0.0
 21
-24.0
 31
0.0
1001
AcDbBlockRepETag
1070
     1
1071
        0
1005
327
  0
CIRCLE
  5
328
330
324
100
AcDbEntity
  8
0
100
AcDbCircle
 10
0.0
 20
-12.0
 30
0.0
 40
4.0
1001
AcDbBlockRepETag
1070
     1
1071
        1
1005
328
  0
LINE
  5
329
330
324
100
AcDbEntity
  8
0
100
AcDbLine
 10
4.0
 20
-12.0
 30
0.0
 11
9.999992328408325
 21
-11.99040525967284
 31
0.0
1001
AcDbBlockRepETag
1070
     1
1071
        2
1005
329
  0
LINE
  5
32A
330
324
100
AcDbEntity
  8
0
100
AcDbLine
 10
7.0
 20
-10.0
 30
0.0
 11
5.0
 21
-14.0
 31
0.0
1001
AcDbBlockRepETag
1070
     1
1071
        3
1005
32A
  0
LINE
  5
32B
330
324
100
AcDbEntity
  8
0
100
AcDbLine
 10
9.0
 20
-10.0
 30
0.0
 11
7.0
 21
-14.0
 31
0.0
1001
AcDbBlockRepETag
1070
     1
1071
        4
1005
32B
  0
ENDBLK
  5
32C
330
324
100
AcDbEntity
  8
0
100
AcDbBlockEnd
  0
BLOCK
  5
32F
330
32D
100
AcDbEntity
  8
0
100
AcDbBlockBegin
  2
*U15
 70
     1
 10
0.0
 20
0.0
 30
0.0
  3
*U15
  1

  0
LINE
  5
330
330
32D
100
AcDbEntity
  8
0
100
AcDbLine
 10
0.0
 20
0.0
 30
0.0
 11
0.0
 21
-24.0
 31
0.0
1001
AcDbBlockRepETag
1070
     1
1071
        0
1005
330
  0
CIRCLE
  5
331
330
32D
100
AcDbEntity
  8
0
100
AcDbCircle
 10
0.0
 20
-12.0
 30
0.0
 40
4.0
1001
AcDbBlockRepETag
1070
     1
1071
        1
1005
331
  0
LINE
  5
332
330
32D
100
AcDbEntity
  8
0
100
AcDbLine
 10
4.0
 20
-12.0
 30
0.0
 11
9.999992328408325
 21
-11.99040525967284
 31
0.0
1001
AcDbBlockRepETag
1070
     1
1071
        2
1005
332
  0
LINE
  5
333
330
32D
100
AcDbEntity
  8
0
100
AcDbLine
 10
7.0
 20
-10.0
 30
0.0
 11
5.0
 21
-14.0
 31
0.0
1001
AcDbBlockRepETag
1070
     1
1071
        3
1005
333
  0
LINE
  5
334
330
32D
100
AcDbEntity
  8
0
100
AcDbLine
 10
9.0
 20
-10.0
 30
0.0
 11
7.0
 21
-14.0
 31
0.0
1001
AcDbBlockRepETag
1070
     1
1071
        4
1005
334
  0
ENDBLK
  5
335
330
32D
100
AcDbEntity
  8
0
100
AcDbBlockEnd
  0
BLOCK
  5
338
330
336
100
AcDbEntity
  8
0
100
AcDbBlockBegin
  2
*U16
 70
     1
 10
0.0
 20
0.0
 30
0.0
  3
*U16
  1

  0
LINE
  5
339
330
336
100
AcDbEntity
  8
0
100
AcDbLine
 10
0.0
 20
0.0
 30
0.0
 11
0.0
 21
-24.0
 31
0.0
1001
AcDbBlockRepETag
1070
     1
1071
        0
1005
339
  0
CIRCLE
  5
33A
330
336
100
AcDbEntity
  8
0
100
AcDbCircle
 10
0.0
 20
-12.0
 30
0.0
 40
4.0
1001
AcDbBlockRepETag
1070
     1
1071
        1
1005
33A
  0
LINE
  5
33B
330
336
100
AcDbEntity
  8
0
100
AcDbLine
 10
4.0
 20
-12.0
 30
0.0
 11
9.999992328408325
 21
-11.99040525967284
 31
0.0
1001
AcDbBlockRepETag
1070
     1
1071
        2
1005
33B
  0
LINE
  5
33C
330
336
100
AcDbEntity
  8
0
100
AcDbLine
 10
7.0
 20
-10.0
 30
0.0
 11
5.0
 21
-14.0
 31
0.0
1001
AcDbBlockRepETag
1070
     1
1071
        3
1005
33C
  0
LINE
  5
33D
330
336
100
AcDbEntity
  8
0
100
AcDbLine
 10
9.0
 20
-10.0
 30
0.0
 11
7.0
 21
-14.0
 31
0.0
1001
AcDbBlockRepETag
1070
     1
1071
        4
1005
33D
  0
ENDBLK
  5
33E
330
336
100
AcDbEntity
  8
0
100
AcDbBlockEnd
  0
BLOCK
  5
344
330
33F
100
AcDbEntity
  8
0
370
   158
100
AcDbBlockBegin
  2
DM-DblClmnTrans
 70
     0
 10
0.0
 20
0.0
 30
0.0
  3
DM-DblClmnTrans
  1

  0
CIRCLE
  5
345
330
33F
100
AcDbEntity
  8
0
100
AcDbCircle
 10
0.0
 20
-12.0
 30
0.0
 40
12.0
1001
AcDbBlockRepETag
1070
     1
1071
        0
1005
345
  0
CIRCLE
  5
346
330
33F
100
AcDbEntity
  8
0
100
AcDbCircle
 10
0.0
 20
-28.0
 30
0.0
 40
12.0
1001
AcDbBlockRepETag
1070
     1
1071
        1
1005
346
  0
LINE
  5
347
330
33F
100
AcDbEntity
  8
0
100
AcDbLine
 10
0.0
 20
-6.0
 30
0.0
 11
-4.0
 21
-12.0
 31
0.0
1001
AcDbBlockRepETag
1070
     1
1071
        2
1005
347
  0
LINE
  5
348
330
33F
100
AcDbEntity
  8
0
100
AcDbLine
 10
-4.0
 20
-12.0
 30
0.0
 11
4.0
 21
-12.0
 31
0.0
1001
AcDbBlockRepETag
1070
     1
1071
        3
1005
348
  0
LINE
  5
349
330
33F
100
AcDbEntity
  8
0
100
AcDbLine
 10
4.0
 20
-12.0
 30
0.0
 11
0.0
 21
-6.0
 31
0.0
1001
AcDbBlockRepETag
1070
     1
1071
        4
1005
349
  0
LINE
  5
34A
330
33F
100
AcDbEntity
  8
0
100
AcDbLine
 10
0.0
 20
-32.0
 30
0.0
 11
0.0
 21
-28.0
 31
0.0
1001
AcDbBlockRepETag
1070
     1
1071
        6
1005
34A
  0
LINE
  5
34B
330
33F
100
AcDbEntity
  8
0
 48
0.1
100
AcDbLine
 10
0.0
 20
-28.0
 30
0.0
 11
-4.0
 21
-25.0
 31
0.0
1001
AcDbBlockRepETag
1070
     1
1071
        9
1005
34B
  0
LINE
  5
34C
330
33F
100
AcDbEntity
  8
0
 48
0.1
100
AcDbLine
 10
0.0
 20
-28.0
 30
0.0
 11
4.0
 21
-25.0
 31
0.0
1001
AcDbBlockRepETag
1070
     1
1071
       10
1005
34C
  0
ENDBLK
  5
34D
330
33F
100
AcDbEntity
  8
0
370
   158
100
AcDbBlockEnd
  0
BLOCK
  5
350
330
34E
100
AcDbEntity
  8
0
100
AcDbBlockBegin
  2
DM-Knife Switch
 70
     0
 10
0.0
 20
0.0
 30
0.0
  3
DM-Knife Switch
  1

  0
LINE
  5
351
330
34E
100
AcDbEntity
  8
0
100
AcDbLine
 10
1781.69991981517
 20
316.1466945805651
 30
0.0
 11
1781.69991981517
 21
313.1466945805651
 31
0.0
  0
CIRCLE
  5
352
330
34E
100
AcDbEntity
  8
0
100
AcDbCircle
 10
1781.69991981517
 20
312.146694580565
 30
0.0
 40
1.0
  0
LINE
  5
353
330
34E
100
AcDbEntity
  8
0
100
AcDbLine
 10
1781.69991981517
 20
292.1466945805651
 30
0.0
 11
1781.69991981517
 21
295.146694580565
 31
0.0
  0
CIRCLE
  5
354
330
34E
100
AcDbEntity
  8
0
100
AcDbCircle
 10
1781.69991981517
 20
296.146694580565
 30
0.0
 40
1.0
  0
LINE
  5
355
330
34E
100
AcDbEntity
  8
0
100
AcDbLine
 10
1780.69991981517
 20
296.146694580565
 30
0.0
 11
1772.69991981517
 21
312.146694580565
 31
0.0
  0
ENDBLK
  5
356
330
34E
100
AcDbEntity
  8
0
100
AcDbBlockEnd
  0
BLOCK
  5
35C
330
357
100
AcDbEntity
  8
0
100
AcDbBlockBegin
  2
DM-HV FUSE
 70
     0
 10
0.0
 20
0.0
 30
0.0
  3
DM-HV FUSE
  1

  0
LINE
  5
35D
330
357
100
AcDbEntity
  8
0
100
AcDbLine
 10
0.0
 20
24.0
 30
0.0
 11
0.0
 21
20.0
 31
0.0
1001
AcDbBlockRepETag
1070
     1
1071
        0
1005
35D
  0
LWPOLYLINE
  5
35E
330
357
100
AcDbEntity
  8
0
100
AcDbPolyline
 90
        4
 70
     1
 43
0.0
 10
-4.0
 20
20.0
 10
4.0
 20
20.0
 10
4.0
 20
4.0
 10
-4.0
 20
4.0
1001
AcDbBlockRepETag
1070
     1
1071
        1
1005
35E
  0
LINE
  5
35F
330
357
100
AcDbEntity
  8
0
100
AcDbLine
 10
0.0
 20
0.0
 30
0.0
 11
0.0
 21
4.0
 31
0.0
1001
AcDbBlockRepETag
1070
     1
1071
        2
1005
35F
  0
LINE
  5
360
330
357
100
AcDbEntity
  8
0
100
AcDbLine
 10
0.0
 20
4.0
 30
0.0
 11
0.0
 21
20.0
 31
0.0
1001
AcDbBlockRepETag
1070
     1
1071
        3
1005
360
  0
ENDBLK
  5
361
330
357
100
AcDbEntity
  8
0
100
AcDbBlockEnd
  0
BLOCK
  5
364
330
362
100
AcDbEntity
  8
0
 62
     1
100
AcDbBlockBegin
  2
*U20
 70
     1
 10
0.0
 20
0.0
 30
0.0
  3
*U20
  1

  0
LINE
  5
365
330
362
100
AcDbEntity
  8
0
100
AcDbLine
 10
0.0
 20
24.0
 30
0.0
 11
0.0
 21
20.0
 31
0.0
1001
AcDbBlockRepETag
1070
     1
1071
        0
1005
365
  0
LWPOLYLINE
  5
366
330
362
100
AcDbEntity
  8
0
100
AcDbPolyline
 90
        4
 70
     1
 43
0.0
 10
-4.0
 20
20.0
 10
4.0
 20
20.0
 10
4.0
 20
4.0
 10
-4.0
 20
4.0
1001
AcDbBlockRepETag
1070
     1
1071
        1
1005
366
  0
LINE
  5
367
330
362
100
AcDbEntity
  8
0
100
AcDbLine
 10
0.0
 20
0.0
 30
0.0
 11
0.0
 21
4.0
 31
0.0
1001
AcDbBlockRepETag
1070
     1
1071
        2
1005
367
  0
LINE
  5
368
330
362
100
AcDbEntity
  8
0
100
AcDbLine
 10
0.0
 20
4.0
 30
0.0
 11
0.0
 21
20.0
 31
0.0
1001
AcDbBlockRepETag
1070
     1
1071
        3
1005
368
  0
ENDBLK
  5
369
330
362
100
AcDbEntity
  8
0
 62
     1
100
AcDbBlockEnd
  0
BLOCK
  5
36C
330
36A
100
AcDbEntity
  8
0
100
AcDbBlockBegin
  2
*U21
 70
     1
 10
0.0
 20
0.0
 30
0.0
  3
*U21
  1

  0
LINE
  5
36D
330
36A
100
AcDbEntity
  8
0
100
AcDbLine
 10
0.0
 20
0.0
 30
0.0
 11
0.0
 21
15.0
 31
0.0
1001
AcDbBlockRepETag
1070
     1
1071
        0
1005
36D
  0
HATCH
  5
36E
330
36A
100
AcDbEntity
  8
0
100
AcDbHatch
 10
0.0
 20
0.0
 30
0.0
210
0.0
220
0.0
230
1.0
  2
SOLID
 70
     1
 71
     1
 91
        1
 92
        1
 93
        3
 72
     1
 10
0.0
 20
15.0
 11
-2.0
 21
10.99999910797555
 72
     1
 10
-2.0
 20
10.99999910797555
 11
2.0
 21
10.99999910797555
 72
     1
 10
2.0
 20
10.99999910797555
 11
0.0
 21
15.0
 97
        3
330
36F
330
370
330
371
 75
     0
 76
     1
 98
        1
 10
-854.0
 20
84.99999910797555
450
        0
451
        0
460
0.0
461
0.0
452
        1
462
1.0
453
        2
463
0.0
 63
     5
421
      255
463
1.0
 63
     7
421
 16777215
470
LINEAR
1001
ACAD
1010
0.0
1020
0.0
1030
0.0
1001
AcDbBlockRepETag
1070
     1
1071
        1
1005
36E
  0
LINE
  5
36F
102
{ACAD_REACTORS
330
36E
102
}
330
36A
100
AcDbEntity
  8
0
100
AcDbLine
 10
0.0
 20
15.0
 30
0.0
 11
-2.0
 21
10.99999910797555
 31
0.0
1001
AcDbBlockRepETag
1070
     1
1071
        2
1005
36F
  0
LINE
  5
370
102
{ACAD_REACTORS
330
36E
102
}
330
36A
100
AcDbEntity
  8
0
100
AcDbLine
 10
-2.0
 20
10.99999910797555
 30
0.0
 11
2.0
 21
10.99999910797555
 31
0.0
1001
AcDbBlockRepETag
1070
     1
1071
        3
1005
370
  0
LINE
  5
371
102
{ACAD_REACTORS
330
36E
102
}
330
36A
100
AcDbEntity
  8
0
100
AcDbLine
 10
2.0
 20
10.99999910797555
 30
0.0
 11
0.0
 21
15.0
 31
0.0
1001
AcDbBlockRepETag
1070
     1
1071
        4
1005
371
  0
ENDBLK
  5
372
330
36A
100
AcDbEntity
  8
0
100
AcDbBlockEnd
  0
BLOCK
  5
375
330
373
100
AcDbEntity
  8
0
100
AcDbBlockBegin
  2
*U22
 70
     1
 10
0.0
 20
0.0
 30
0.0
  3
*U22
  1

  0
LINE
  5
376
330
373
100
AcDbEntity
  8
0
100
AcDbLine
 10
0.0
 20
0.0
 30
0.0
 11
0.0
 21
-3.0
 31
0.0
1001
AcDbBlockRepETag
1070
     1
1071
        0
1005
376
  0
LINE
  5
377
330
373
100
AcDbEntity
  8
0
100
AcDbLine
 10
2.0
 20
-3.0
 30
0.0
 11
-2.0
 21
-3.0
 31
0.0
1001
AcDbBlockRepETag
1070
     1
1071
        1
1005
377
  0
LINE
  5
378
330
373
100
AcDbEntity
  8
0
100
AcDbLine
 10
-2.0
 20
-5.0
 30
0.0
 11
2.0
 21
-5.0
 31
0.0
1001
AcDbBlockRepETag
1070
     1
1071
        2
1005
378
  0
LINE
  5
379
330
373
100
AcDbEntity
  8
0
100
AcDbLine
 10
0.0
 20
-8.0
 30
0.0
 11
0.0
 21
-5.0
 31
0.0
1001
AcDbBlockRepETag
1070
     1
1071
        3
1005
379
  0
CIRCLE
  5
37A
330
373
100
AcDbEntity
  8
0
100
AcDbCircle
 10
0.0
 20
-10.5
 30
0.0
 40
2.5
1001
AcDbBlockRepETag
1070
     1
1071
        4
1005
37A
  0
LINE
  5
37B
330
373
100
AcDbEntity
  8
0
100
AcDbLine
 10
0.0
 20
-16.0
 30
0.0
 11
0.0
 21
-13.0
 31
0.0
1001
AcDbBlockRepETag
1070
     1
1071
        5
1005
37B
  0
LINE
  5
37C
330
373
100
AcDbEntity
  8
0
100
AcDbLine
 10
0.0
 20
-10.5
 30
0.0
 11
0.0
 21
-10.5
 31
0.0
1001
AcDbBlockRepETag
1070
     1
1071
        6
1005
37C
  0
LINE
  5
37D
330
373
100
AcDbEntity
  8
0
100
AcDbLine
 10
0.0
 20
-10.5
 30
0.0
 11
0.0
 21
-10.5
 31
0.0
1001
AcDbBlockRepETag
1070
     1
1071
        7
1005
37D
  0
LINE
  5
37E
330
373
100
AcDbEntity
  8
0
100
AcDbLine
 10
0.0
 20
-10.5
 30
0.0
 11
0.0
 21
-10.5
 31
0.0
1001
AcDbBlockRepETag
1070
     1
1071
        8
1005
37E
  0
LINE
  5
37F
330
373
100
AcDbEntity
  8
0
100
AcDbLine
 10
0.0
 20
-10.5
 30
0.0
 11
0.0
 21
-10.5
 31
0.0
1001
AcDbBlockRepETag
1070
     1
1071
        9
1005
37F
  0
LINE
  5
380
330
373
100
AcDbEntity
  8
0
100
AcDbLine
 10
0.0
 20
-10.5
 30
0.0
 11
0.0
 21
-10.5
 31
0.0
1001
AcDbBlockRepETag
1070
     1
1071
       10
1005
380
  0
LINE
  5
381
330
373
100
AcDbEntity
  8
0
100
AcDbLine
 10
0.0
 20
-10.5
 30
0.0
 11
0.0
 21
-10.5
 31
0.0
1001
AcDbBlockRepETag
1070
     1
1071
       11
1005
381
  0
LINE
  5
382
330
373
100
AcDbEntity
  8
0
100
AcDbLine
 10
0.0
 20
-10.5
 30
0.0
 11
-1.767766952966212
 21
-8.732233047033616
 31
0.0
1001
AcDbBlockRepETag
1070
     1
1071
       12
1005
382
  0
LINE
  5
383
330
373
100
AcDbEntity
  8
0
100
AcDbLine
 10
0.0
 20
-10.5
 30
0.0
 11
1.767766952966212
 21
-8.732233047033616
 31
0.0
1001
AcDbBlockRepETag
1070
     1
1071
       13
1005
383
  0
LINE
  5
384
330
373
100
AcDbEntity
  8
0
100
AcDbLine
 10
0.0
 20
-10.5
 30
0.0
 11
1.767766952966212
 21
-12.26776695296638
 31
0.0
1001
AcDbBlockRepETag
1070
     1
1071
       14
1005
384
  0
LINE
  5
385
330
373
100
AcDbEntity
  8
0
100
AcDbLine
 10
0.0
 20
-10.5
 30
0.0
 11
-1.767766952966212
 21
-12.26776695296638
 31
0.0
1001
AcDbBlockRepETag
1070
     1
1071
       15
1005
385
  0
ENDBLK
  5
386
330
373
100
AcDbEntity
  8
0
100
AcDbBlockEnd
  0
BLOCK
  5
389
330
387
100
AcDbEntity
  8
0
100
AcDbBlockBegin
  2
*U23
 70
     1
 10
0.0
 20
0.0
 30
0.0
  3
*U23
  1

  0
LINE
  5
38A
330
387
100
AcDbEntity
  8
0
100
AcDbLine
 10
0.0
 20
0.0
 30
0.0
 11
0.0
 21
-24.0
 31
0.0
1001
AcDbBlockRepETag
1070
     1
1071
        0
1005
38A
  0
HATCH
  5
38B
330
387
100
AcDbEntity
  8
0
100
AcDbHatch
 10
0.0
 20
0.0
 30
0.0
210
0.0
220
0.0
230
1.0
  2
SOLID
 70
     1
 71
     1
 91
        1
 92
        1
 93
        5
 72
     1
 10
-4.0
 20
-24.0
 11
-4.0
 21
-40.0
 72
     1
 10
-4.0
 20
-40.0
 11
4.0
 21
-40.0
 72
     1
 10
4.0
 20
-40.0
 11
4.0
 21
-32.0
 72
     1
 10
4.0
 20
-32.0
 11
4.0
 21
-24.0
 72
     1
 10
4.0
 20
-24.0
 11
-4.0
 21
-24.0
 97
        5
330
38F
330
390
330
38E
330
38D
330
38C
 75
     0
 76
     1
 98
        1
 10
-730.0000011883575
 20
-101.9999995897865
450
        0
451
        0
460
0.0
461
0.0
452
        1
462
1.0
453
        2
463
0.0
 63
     5
421
      255
463
1.0
 63
     7
421
 16777215
470
LINEAR
1001
ACAD
1010
0.0
1020
0.0
1030
0.0
1001
AcDbBlockRepETag
1070
     1
1071
        1
1005
38B
  0
LINE
  5
38C
102
{ACAD_REACTORS
330
38B
102
}
330
387
100
AcDbEntity
  8
0
100
AcDbLine
 10
-4.0
 20
-24.0
 30
0.0
 11
4.0
 21
-24.0
 31
0.0
1001
AcDbBlockRepETag
1070
     1
1071
        2
1005
38C
  0
LINE
  5
38D
102
{ACAD_REACTORS
330
38B
102
}
330
387
100
AcDbEntity
  8
0
100
AcDbLine
 10
4.0
 20
-24.0
 30
0.0
 11
4.0
 21
-32.0
 31
0.0
1001
AcDbBlockRepETag
1070
     1
1071
        3
1005
38D
  0
LINE
  5
38E
102
{ACAD_REACTORS
330
38B
102
}
330
387
100
AcDbEntity
  8
0
100
AcDbLine
 10
4.0
 20
-32.0
 30
0.0
 11
4.0
 21
-40.0
 31
0.0
1001
AcDbBlockRepETag
1070
     1
1071
        4
1005
38E
  0
LINE
  5
38F
102
{ACAD_REACTORS
330
38B
102
}
330
387
100
AcDbEntity
  8
0
100
AcDbLine
 10
-4.0
 20
-24.0
 30
0.0
 11
-4.0
 21
-40.0
 31
0.0
1001
AcDbBlockRepETag
1070
     1
1071
        5
1005
38F
  0
LINE
  5
390
102
{ACAD_REACTORS
330
38B
102
}
330
387
100
AcDbEntity
  8
0
100
AcDbLine
 10
-4.0
 20
-40.0
 30
0.0
 11
4.0
 21
-40.0
 31
0.0
1001
AcDbBlockRepETag
1070
     1
1071
        6
1005
390
  0
LINE
  5
391
330
387
100
AcDbEntity
  8
0
100
AcDbLine
 10
0.0
 20
-64.0
 30
0.0
 11
0.0
 21
-40.0
 31
0.0
1001
AcDbBlockRepETag
1070
     1
1071
        7
1005
391
  0
LINE
  5
392
330
387
100
AcDbEntity
  8
0
100
AcDbLine
 10
0.0
 20
0.0
 30
0.0
 11
-4.0
 21
-4.0
 31
0.0
1001
AcDbBlockRepETag
1070
     1
1071
        8
1005
392
  0
LINE
  5
393
330
387
100
AcDbEntity
  8
0
100
AcDbLine
 10
0.0
 20
0.0
 30
0.0
 11
4.0
 21
-4.0
 31
0.0
1001
AcDbBlockRepETag
1070
     1
1071
        9
1005
393
  0
LINE
  5
394
330
387
100
AcDbEntity
  8
0
100
AcDbLine
 10
0.0
 20
-4.0
 30
0.0
 11
-4.0
 21
-8.0
 31
0.0
1001
AcDbBlockRepETag
1070
     1
1071
       10
1005
394
  0
LINE
  5
395
330
387
100
AcDbEntity
  8
0
100
AcDbLine
 10
0.0
 20
-4.0
 30
0.0
 11
4.0
 21
-8.0
 31
0.0
1001
AcDbBlockRepETag
1070
     1
1071
       11
1005
395
  0
LINE
  5
396
330
387
100
AcDbEntity
  8
0
100
AcDbLine
 10
0.0
 20
-64.0
 30
0.0
 11
4.0
 21
-60.0
 31
0.0
1001
AcDbBlockRepETag
1070
     1
1071
       12
1005
396
  0
LINE
  5
397
330
387
100
AcDbEntity
  8
0
100
AcDbLine
 10
0.0
 20
-64.0
 30
0.0
 11
-4.0
 21
-60.0
 31
0.0
1001
AcDbBlockRepETag
1070
     1
1071
       13
1005
397
  0
LINE
  5
398
330
387
100
AcDbEntity
  8
0
100
AcDbLine
 10
0.0
 20
-60.0
 30
0.0
 11
4.0
 21
-56.0
 31
0.0
1001
AcDbBlockRepETag
1070
     1
1071
       14
1005
398
  0
LINE
  5
399
330
387
100
AcDbEntity
  8
0
100
AcDbLine
 10
0.0
 20
-60.0
 30
0.0
 11
-4.0
 21
-56.0
 31
0.0
1001
AcDbBlockRepETag
1070
     1
1071
       15
1005
399
  0
ENDBLK
  5
39A
330
387
100
AcDbEntity
  8
0
100
AcDbBlockEnd
  0
BLOCK
  5
39D
330
39B
100
AcDbEntity
  8
0
100
AcDbBlockBegin
  2
*U24
 70
     1
 10
0.0
 20
0.0
 30
0.0
  3
*U24
  1

  0
LINE
  5
39E
330
39B
100
AcDbEntity
  8
0
100
AcDbLine
 10
0.0
 20
0.0
 30
0.0
 11
0.0
 21
-4.0
 31
0.0
1001
AcDbBlockRepETag
1070
     1
1071
        0
1005
39E
  0
LINE
  5
39F
330
39B
100
AcDbEntity
  8
0
100
AcDbLine
 10
-2.0
 20
-4.0
 30
0.0
 11
2.0
 21
-4.0
 31
0.0
1001
AcDbBlockRepETag
1070
     1
1071
        1
1005
39F
  0
LINE
  5
3A0
330
39B
100
AcDbEntity
  8
0
100
AcDbLine
 10
-1.0
 20
-5.0
 30
0.0
 11
1.0
 21
-5.0
 31
0.0
1001
AcDbBlockRepETag
1070
     1
1071
        2
1005
3A0
  0
LINE
  5
3A1
330
39B
100
AcDbEntity
  8
0
100
AcDbLine
 10
0.0
 20
-6.0
 30
0.0
 11
0.0
 21
-6.0
 31
0.0
1001
AcDbBlockRepETag
1070
     1
1071
        3
1005
3A1
  0
LINE
  5
3A2
330
39B
100
AcDbEntity
  8
0
100
AcDbLine
 10
0.5
 20
-6.0
 30
0.0
 11
-0.5
 21
-6.0
 31
0.0
1001
AcDbBlockRepETag
1070
     1
1071
        4
1005
3A2
  0
ENDBLK
  5
3A3
330
39B
100
AcDbEntity
  8
0
100
AcDbBlockEnd
  0
BLOCK
  5
3A6
330
3A4
100
AcDbEntity
  8
0
100
AcDbBlockBegin
  2
*U25
 70
     1
 10
0.0
 20
0.0
 30
0.0
  3
*U25
  1

  0
LINE
  5
3A7
330
3A4
100
AcDbEntity
  8
0
100
AcDbLine
 10
0.0
 20
0.0
 30
0.0
 11
0.0
 21
-4.0
 31
0.0
1001
AcDbBlockRepETag
1070
     1
1071
        0
1005
3A7
  0
LINE
  5
3A8
330
3A4
100
AcDbEntity
  8
0
100
AcDbLine
 10
-2.0
 20
-4.0
 30
0.0
 11
2.0
 21
-4.0
 31
0.0
1001
AcDbBlockRepETag
1070
     1
1071
        1
1005
3A8
  0
LINE
  5
3A9
330
3A4
100
AcDbEntity
  8
0
100
AcDbLine
 10
-1.0
 20
-5.0
 30
0.0
 11
1.0
 21
-5.0
 31
0.0
1001
AcDbBlockRepETag
1070
     1
1071
        2
1005
3A9
  0
LINE
  5
3AA
330
3A4
100
AcDbEntity
  8
0
100
AcDbLine
 10
0.0
 20
-6.0
 30
0.0
 11
0.0
 21
-6.0
 31
0.0
1001
AcDbBlockRepETag
1070
     1
1071
        3
1005
3AA
  0
LINE
  5
3AB
330
3A4
100
AcDbEntity
  8
0
100
AcDbLine
 10
0.5
 20
-6.0
 30
0.0
 11
-0.5
 21
-6.0
 31
0.0
1001
AcDbBlockRepETag
1070
     1
1071
        4
1005
3AB
  0
ENDBLK
  5
3AC
330
3A4
100
AcDbEntity
  8
0
100
AcDbBlockEnd
  0
BLOCK
  5
3AF
330
3AD
100
AcDbEntity
  8
0
100
AcDbBlockBegin
  2
*U26
 70
     1
 10
0.0
 20
0.0
 30
0.0
  3
*U26
  1

  0
LINE
  5
3B0
330
3AD
100
AcDbEntity
  8
0
100
AcDbLine
 10
0.0
 20
0.0
 30
0.0
 11
0.0
 21
-4.0
 31
0.0
1001
AcDbBlockRepETag
1070
     1
1071
        0
1005
3B0
  0
LINE
  5
3B1
330
3AD
100
AcDbEntity
  8
0
100
AcDbLine
 10
-2.0
 20
-4.0
 30
0.0
 11
2.0
 21
-4.0
 31
0.0
1001
AcDbBlockRepETag
1070
     1
1071
        1
1005
3B1
  0
LINE
  5
3B2
330
3AD
100
AcDbEntity
  8
0
100
AcDbLine
 10
-1.0
 20
-5.0
 30
0.0
 11
1.0
 21
-5.0
 31
0.0
1001
AcDbBlockRepETag
1070
     1
1071
        2
1005
3B2
  0
LINE
  5
3B3
330
3AD
100
AcDbEntity
  8
0
100
AcDbLine
 10
0.0
 20
-6.0
 30
0.0
 11
0.0
 21
-6.0
 31
0.0
1001
AcDbBlockRepETag
1070
     1
1071
        3
1005
3B3
  0
LINE
  5
3B4
330
3AD
100
AcDbEntity
  8
0
100
AcDbLine
 10
0.5
 20
-6.0
 30
0.0
 11
-0.5
 21
-6.0
 31
0.0
1001
AcDbBlockRepETag
1070
     1
1071
        4
1005
3B4
  0
ENDBLK
  5
3B5
330
3AD
100
AcDbEntity
  8
0
100
AcDbBlockEnd
  0
BLOCK
  5
3B8
330
3B6
100
AcDbEntity
  8
0
100
AcDbBlockBegin
  2
*U27
 70
     1
 10
0.0
 20
0.0
 30
0.0
  3
*U27
  1

  0
LINE
  5
3B9
330
3B6
100
AcDbEntity
  8
0
100
AcDbLine
 10
0.0
 20
0.0
 30
0.0
 11
0.0
 21
-4.0
 31
0.0
1001
AcDbBlockRepETag
1070
     1
1071
        0
1005
3B9
  0
LINE
  5
3BA
330
3B6
100
AcDbEntity
  8
0
100
AcDbLine
 10
-2.0
 20
-4.0
 30
0.0
 11
2.0
 21
-4.0
 31
0.0
1001
AcDbBlockRepETag
1070
     1
1071
        1
1005
3BA
  0
LINE
  5
3BB
330
3B6
100
AcDbEntity
  8
0
100
AcDbLine
 10
-1.0
 20
-5.0
 30
0.0
 11
1.0
 21
-5.0
 31
0.0
1001
AcDbBlockRepETag
1070
     1
1071
        2
1005
3BB
  0
LINE
  5
3BC
330
3B6
100
AcDbEntity
  8
0
100
AcDbLine
 10
0.0
 20
-6.0
 30
0.0
 11
0.0
 21
-6.0
 31
0.0
1001
AcDbBlockRepETag
1070
     1
1071
        3
1005
3BC
  0
LINE
  5
3BD
330
3B6
100
AcDbEntity
  8
0
100
AcDbLine
 10
0.5
 20
-6.0
 30
0.0
 11
-0.5
 21
-6.0
 31
0.0
1001
AcDbBlockRepETag
1070
     1
1071
        4
1005
3BD
  0
ENDBLK
  5
3BE
330
3B6
100
AcDbEntity
  8
0
100
AcDbBlockEnd
  0
BLOCK
  5
3C1
330
3BF
100
AcDbEntity
  8
0
100
AcDbBlockBegin
  2
*U28
 70
     1
 10
0.0
 20
0.0
 30
0.0
  3
*U28
  1

  0
LINE
  5
3C2
330
3BF
100
AcDbEntity
  8
0
100
AcDbLine
 10
-4.0
 20
-6.0
 30
0.0
 11
4.0
 21
-6.0
 31
0.0
1001
AcDbBlockRepETag
1070
     1
1071
        1
1005
3C2
  0
LINE
  5
3C3
330
3BF
100
AcDbEntity
  8
0
100
AcDbLine
 10
0.0
 20
0.0
 30
0.0
 11
0.0
 21
-6.0
 31
0.0
1001
AcDbBlockRepETag
1070
     1
1071
        2
1005
3C3
  0
LINE
  5
3C4
330
3BF
100
AcDbEntity
  8
0
100
AcDbLine
 10
0.0000004987477951
 20
-20.0
 30
0.0
 11
-8.0
 21
-6.0
 31
0.0
1001
AcDbBlockRepETag
1070
     1
1071
        3
1005
3C4
  0
LINE
  5
3C5
330
3BF
100
AcDbEntity
  8
0
 48
0.1
100
AcDbLine
 10
0.0000004987477951
 20
-20.0
 30
0.0
 11
0.0000004987477951
 21
-32.0
 31
0.0
1001
AcDbBlockRepETag
1070
     1
1071
        4
1005
3C5
  0
LINE
  5
3C6
330
3BF
100
AcDbEntity
  8
0
100
AcDbLine
 10
0.0000004987477951
 20
-32.0
 30
0.0
 11
0.0000004987477951
 21
-40.0
 31
0.0
1001
AcDbBlockRepETag
1070
     1
1071
        0
1005
3C6
  0
LINE
  5
3C7
330
3BF
100
AcDbEntity
  8
0
100
AcDbLine
 10
-3.999999501252204
 20
-40.0
 30
0.0
 11
4.000000498747795
 21
-40.0
 31
0.0
1001
AcDbBlockRepETag
1070
     1
1071
        5
1005
3C7
  0
LINE
  5
3C8
330
3BF
100
AcDbEntity
  8
0
100
AcDbLine
 10
-1.999999501252204
 20
-42.0
 30
0.0
 11
2.000000498747795
 21
-42.0
 31
0.0
1001
AcDbBlockRepETag
1070
     1
1071
        6
1005
3C8
  0
LINE
  5
3C9
330
3BF
100
AcDbEntity
  8
0
100
AcDbLine
 10
0.0000004987477951
 20
-44.0
 30
0.0
 11
0.0000004987477951
 21
-44.0
 31
0.0
1001
AcDbBlockRepETag
1070
     1
1071
        7
1005
3C9
  0
LINE
  5
3CA
330
3BF
100
AcDbEntity
  8
0
100
AcDbLine
 10
1.000000498747795
 20
-44.0
 30
0.0
 11
-0.9999995012522049
 21
-44.0
 31
0.0
1001
AcDbBlockRepETag
1070
     1
1071
        8
1005
3CA
  0
ENDBLK
  5
3CB
330
3BF
100
AcDbEntity
  8
0
100
AcDbBlockEnd
  0
BLOCK
  5
3CE
330
3CC
100
AcDbEntity
  8
0
100
AcDbBlockBegin
  2
*U29
 70
     1
 10
0.0
 20
0.0
 30
0.0
  3
*U29
  1

  0
LINE
  5
3CF
330
3CC
100
AcDbEntity
  8
0
100
AcDbLine
 10
-4.0
 20
-6.0
 30
0.0
 11
4.0
 21
-6.0
 31
0.0
1001
AcDbBlockRepETag
1070
     1
1071
        1
1005
3CF
  0
LINE
  5
3D0
330
3CC
100
AcDbEntity
  8
0
100
AcDbLine
 10
0.0
 20
0.0
 30
0.0
 11
0.0
 21
-6.0
 31
0.0
1001
AcDbBlockRepETag
1070
     1
1071
        2
1005
3D0
  0
LINE
  5
3D1
330
3CC
100
AcDbEntity
  8
0
100
AcDbLine
 10
0.0000004987477951
 20
-20.0
 30
0.0
 11
-8.0
 21
-6.0
 31
0.0
1001
AcDbBlockRepETag
1070
     1
1071
        3
1005
3D1
  0
LINE
  5
3D2
330
3CC
100
AcDbEntity
  8
0
 48
0.1
100
AcDbLine
 10
0.0000004987477951
 20
-20.0
 30
0.0
 11
0.0000004987477951
 21
-32.0
 31
0.0
1001
AcDbBlockRepETag
1070
     1
1071
        4
1005
3D2
  0
LINE
  5
3D3
330
3CC
100
AcDbEntity
  8
0
100
AcDbLine
 10
0.0000004987477951
 20
-32.0
 30
0.0
 11
0.0000004987477951
 21
-40.0
 31
0.0
1001
AcDbBlockRepETag
1070
     1
1071
        0
1005
3D3
  0
LINE
  5
3D4
330
3CC
100
AcDbEntity
  8
0
100
AcDbLine
 10
-3.999999501252204
 20
-40.0
 30
0.0
 11
4.000000498747795
 21
-40.0
 31
0.0
1001
AcDbBlockRepETag
1070
     1
1071
        5
1005
3D4
  0
LINE
  5
3D5
330
3CC
100
AcDbEntity
  8
0
100
AcDbLine
 10
-1.999999501252204
 20
-42.0
 30
0.0
 11
2.000000498747795
 21
-42.0
 31
0.0
1001
AcDbBlockRepETag
1070
     1
1071
        6
1005
3D5
  0
LINE
  5
3D6
330
3CC
100
AcDbEntity
  8
0
100
AcDbLine
 10
0.0000004987477951
 20
-44.0
 30
0.0
 11
0.0000004987477951
 21
-44.0
 31
0.0
1001
AcDbBlockRepETag
1070
     1
1071
        7
1005
3D6
  0
LINE
  5
3D7
330
3CC
100
AcDbEntity
  8
0
100
AcDbLine
 10
1.000000498747795
 20
-44.0
 30
0.0
 11
-0.9999995012522049
 21
-44.0
 31
0.0
1001
AcDbBlockRepETag
1070
     1
1071
        8
1005
3D7
  0
ENDBLK
  5
3D8
330
3CC
100
AcDbEntity
  8
0
100
AcDbBlockEnd
  0
BLOCK
  5
3DB
330
3D9
100
AcDbEntity
  8
0
100
AcDbBlockBegin
  2
*U30
 70
     1
 10
0.0
 20
0.0
 30
0.0
  3
*U30
  1

  0
CIRCLE
  5
3DC
330
3D9
100
AcDbEntity
  8
0
100
AcDbCircle
 10
0.0
 20
-12.0
 30
0.0
 40
12.0
1001
AcDbBlockRepETag
1070
     1
1071
        0
1005
3DC
  0
CIRCLE
  5
3DD
330
3D9
100
AcDbEntity
  8
0
100
AcDbCircle
 10
0.0
 20
-28.0
 30
0.0
 40
12.0
1001
AcDbBlockRepETag
1070
     1
1071
        1
1005
3DD
  0
LINE
  5
3DE
330
3D9
100
AcDbEntity
  8
0
100
AcDbLine
 10
0.0
 20
-6.0
 30
0.0
 11
-4.0
 21
-12.0
 31
0.0
1001
AcDbBlockRepETag
1070
     1
1071
        2
1005
3DE
  0
LINE
  5
3DF
330
3D9
100
AcDbEntity
  8
0
100
AcDbLine
 10
-4.0
 20
-12.0
 30
0.0
 11
4.0
 21
-12.0
 31
0.0
1001
AcDbBlockRepETag
1070
     1
1071
        3
1005
3DF
  0
LINE
  5
3E0
330
3D9
100
AcDbEntity
  8
0
100
AcDbLine
 10
4.0
 20
-12.0
 30
0.0
 11
0.0
 21
-6.0
 31
0.0
1001
AcDbBlockRepETag
1070
     1
1071
        4
1005
3E0
  0
LINE
  5
3E1
330
3D9
100
AcDbEntity
  8
0
100
AcDbLine
 10
0.0
 20
-32.0
 30
0.0
 11
0.0
 21
-28.0
 31
0.0
1001
AcDbBlockRepETag
1070
     1
1071
        6
1005
3E1
  0
LINE
  5
3E2
330
3D9
100
AcDbEntity
  8
0
 48
0.1
100
AcDbLine
 10
0.0
 20
-28.0
 30
0.0
 11
-4.0
 21
-25.0
 31
0.0
1001
AcDbBlockRepETag
1070
     1
1071
        9
1005
3E2
  0
LINE
  5
3E3
330
3D9
100
AcDbEntity
  8
0
 48
0.1
100
AcDbLine
 10
0.0
 20
-28.0
 30
0.0
 11
4.0
 21
-25.0
 31
0.0
1001
AcDbBlockRepETag
1070
     1
1071
       10
1005
3E3
  0
ENDBLK
  5
3E4
330
3D9
100
AcDbEntity
  8
0
100
AcDbBlockEnd
  0
BLOCK
  5
3E7
330
3E5
100
AcDbEntity
  8
0
100
AcDbBlockBegin
  2
*U31
 70
     1
 10
0.0
 20
0.0
 30
0.0
  3
*U31
  1

  0
LINE
  5
3E8
330
3E5
100
AcDbEntity
  8
0
100
AcDbLine
 10
0.0
 20
0.0
 30
0.0
 11
0.0
 21
15.0
 31
0.0
1001
AcDbBlockRepETag
1070
     1
1071
        0
1005
3E8
  0
HATCH
  5
3E9
330
3E5
100
AcDbEntity
  8
0
100
AcDbHatch
 10
0.0
 20
0.0
 30
0.0
210
0.0
220
0.0
230
1.0
  2
SOLID
 70
     1
 71
     1
 91
        1
 92
        1
 93
        3
 72
     1
 10
0.0
 20
15.0
 11
-2.0
 21
10.99999910797555
 72
     1
 10
-2.0
 20
10.99999910797555
 11
2.0
 21
10.99999910797555
 72
     1
 10
2.0
 20
10.99999910797555
 11
0.0
 21
15.0
 97
        3
330
3EA
330
3EB
330
3EC
 75
     0
 76
     1
 98
        1
 10
-854.0
 20
84.99999910797555
450
        0
451
        0
460
0.0
461
0.0
452
        1
462
1.0
453
        2
463
0.0
 63
     5
421
      255
463
1.0
 63
     7
421
 16777215
470
LINEAR
1001
ACAD
1010
0.0
1020
0.0
1030
0.0
1001
AcDbBlockRepETag
1070
     1
1071
        1
1005
3E9
  0
LINE
  5
3EA
102
{ACAD_REACTORS
330
3E9
102
}
330
3E5
100
AcDbEntity
  8
0
100
AcDbLine
 10
0.0
 20
15.0
 30
0.0
 11
-2.0
 21
10.99999910797555
 31
0.0
1001
AcDbBlockRepETag
1070
     1
1071
        2
1005
3EA
  0
LINE
  5
3EB
102
{ACAD_REACTORS
330
3E9
102
}
330
3E5
100
AcDbEntity
  8
0
100
AcDbLine
 10
-2.0
 20
10.99999910797555
 30
0.0
 11
2.0
 21
10.99999910797555
 31
0.0
1001
AcDbBlockRepETag
1070
     1
1071
        3
1005
3EB
  0
LINE
  5
3EC
102
{ACAD_REACTORS
330
3E9
102
}
330
3E5
100
AcDbEntity
  8
0
100
AcDbLine
 10
2.0
 20
10.99999910797555
 30
0.0
 11
0.0
 21
15.0
 31
0.0
1001
AcDbBlockRepETag
1070
     1
1071
        4
1005
3EC
  0
ENDBLK
  5
3ED
330
3E5
100
AcDbEntity
  8
0
100
AcDbBlockEnd
  0
BLOCK
  5
3F0
330
3EE
100
AcDbEntity
  8
0
100
AcDbBlockBegin
  2
*U32
 70
     1
 10
0.0
 20
0.0
 30
0.0
  3
*U32
  1

  0
LINE
  5
3F1
330
3EE
100
AcDbEntity
  8
0
100
AcDbLine
 10
0.0
 20
0.0
 30
0.0
 11
0.0
 21
15.0
 31
0.0
1001
AcDbBlockRepETag
1070
     1
1071
        0
1005
3F1
  0
HATCH
  5
3F2
330
3EE
100
AcDbEntity
  8
0
100
AcDbHatch
 10
0.0
 20
0.0
 30
0.0
210
0.0
220
0.0
230
1.0
  2
SOLID
 70
     1
 71
     1
 91
        1
 92
        1
 93
        3
 72
     1
 10
0.0
 20
15.0
 11
-2.0
 21
10.99999910797555
 72
     1
 10
-2.0
 20
10.99999910797555
 11
2.0
 21
10.99999910797555
 72
     1
 10
2.0
 20
10.99999910797555
 11
0.0
 21
15.0
 97
        3
330
3F3
330
3F4
330
3F5
 75
     0
 76
     1
 98
        1
 10
-854.0
 20
84.99999910797555
450
        0
451
        0
460
0.0
461
0.0
452
        1
462
1.0
453
        2
463
0.0
 63
     5
421
      255
463
1.0
 63
     7
421
 16777215
470
LINEAR
1001
ACAD
1010
0.0
1020
0.0
1030
0.0
1001
AcDbBlockRepETag
1070
     1
1071
        1
1005
3F2
  0
LINE
  5
3F3
102
{ACAD_REACTORS
330
3F2
102
}
330
3EE
100
AcDbEntity
  8
0
100
AcDbLine
 10
0.0
 20
15.0
 30
0.0
 11
-2.0
 21
10.99999910797555
 31
0.0
1001
AcDbBlockRepETag
1070
     1
1071
        2
1005
3F3
  0
LINE
  5
3F4
102
{ACAD_REACTORS
330
3F2
102
}
330
3EE
100
AcDbEntity
  8
0
100
AcDbLine
 10
-2.0
 20
10.99999910797555
 30
0.0
 11
2.0
 21
10.99999910797555
 31
0.0
1001
AcDbBlockRepETag
1070
     1
1071
        3
1005
3F4
  0
LINE
  5
3F5
102
{ACAD_REACTORS
330
3F2
102
}
330
3EE
100
AcDbEntity
  8
0
100
AcDbLine
 10
2.0
 20
10.99999910797555
 30
0.0
 11
0.0
 21
15.0
 31
0.0
1001
AcDbBlockRepETag
1070
     1
1071
        4
1005
3F5
  0
ENDBLK
  5
3F6
330
3EE
100
AcDbEntity
  8
0
100
AcDbBlockEnd
  0
BLOCK
  5
3F9
330
3F7
100
AcDbEntity
  8
0
100
AcDbBlockBegin
  2
*U33
 70
     1
 10
0.0
 20
0.0
 30
0.0
  3
*U33
  1

  0
LINE
  5
3FA
330
3F7
100
AcDbEntity
  8
0
100
AcDbLine
 10
0.0
 20
0.0
 30
0.0
 11
0.0
 21
-24.0
 31
0.0
1001
AcDbBlockRepETag
1070
     1
1071
        0
1005
3FA
  0
HATCH
  5
3FB
330
3F7
100
AcDbEntity
  8
0
100
AcDbHatch
 10
0.0
 20
0.0
 30
0.0
210
0.0
220
0.0
230
1.0
  2
SOLID
 70
     1
 71
     1
 91
        1
 92
        1
 93
        5
 72
     1
 10
-4.0
 20
-24.0
 11
-4.0
 21
-40.0
 72
     1
 10
-4.0
 20
-40.0
 11
4.0
 21
-40.0
 72
     1
 10
4.0
 20
-40.0
 11
4.0
 21
-32.0
 72
     1
 10
4.0
 20
-32.0
 11
4.0
 21
-24.0
 72
     1
 10
4.0
 20
-24.0
 11
-4.0
 21
-24.0
 97
        5
330
3FF
330
400
330
3FE
330
3FD
330
3FC
 75
     0
 76
     1
 98
        1
 10
-730.0000011883575
 20
-101.9999995897865
450
        0
451
        0
460
0.0
461
0.0
452
        1
462
1.0
453
        2
463
0.0
 63
     5
421
      255
463
1.0
 63
     7
421
 16777215
470
LINEAR
1001
ACAD
1010
0.0
1020
0.0
1030
0.0
1001
AcDbBlockRepETag
1070
     1
1071
        1
1005
3FB
  0
LINE
  5
3FC
102
{ACAD_REACTORS
330
3FB
102
}
330
3F7
100
AcDbEntity
  8
0
100
AcDbLine
 10
-4.0
 20
-24.0
 30
0.0
 11
4.0
 21
-24.0
 31
0.0
1001
AcDbBlockRepETag
1070
     1
1071
        2
1005
3FC
  0
LINE
  5
3FD
102
{ACAD_REACTORS
330
3FB
102
}
330
3F7
100
AcDbEntity
  8
0
100
AcDbLine
 10
4.0
 20
-24.0
 30
0.0
 11
4.0
 21
-32.0
 31
0.0
1001
AcDbBlockRepETag
1070
     1
1071
        3
1005
3FD
  0
LINE
  5
3FE
102
{ACAD_REACTORS
330
3FB
102
}
330
3F7
100
AcDbEntity
  8
0
100
AcDbLine
 10
4.0
 20
-32.0
 30
0.0
 11
4.0
 21
-40.0
 31
0.0
1001
AcDbBlockRepETag
1070
     1
1071
        4
1005
3FE
  0
LINE
  5
3FF
102
{ACAD_REACTORS
330
3FB
102
}
330
3F7
100
AcDbEntity
  8
0
100
AcDbLine
 10
-4.0
 20
-24.0
 30
0.0
 11
-4.0
 21
-40.0
 31
0.0
1001
AcDbBlockRepETag
1070
     1
1071
        5
1005
3FF
  0
LINE
  5
400
102
{ACAD_REACTORS
330
3FB
102
}
330
3F7
100
AcDbEntity
  8
0
100
AcDbLine
 10
-4.0
 20
-40.0
 30
0.0
 11
4.0
 21
-40.0
 31
0.0
1001
AcDbBlockRepETag
1070
     1
1071
        6
1005
400
  0
LINE
  5
401
330
3F7
100
AcDbEntity
  8
0
100
AcDbLine
 10
0.0
 20
-64.0
 30
0.0
 11
0.0
 21
-40.0
 31
0.0
1001
AcDbBlockRepETag
1070
     1
1071
        7
1005
401
  0
LINE
  5
402
330
3F7
100
AcDbEntity
  8
0
100
AcDbLine
 10
0.0
 20
0.0
 30
0.0
 11
-4.0
 21
-4.0
 31
0.0
1001
AcDbBlockRepETag
1070
     1
1071
        8
1005
402
  0
LINE
  5
403
330
3F7
100
AcDbEntity
  8
0
100
AcDbLine
 10
0.0
 20
0.0
 30
0.0
 11
4.0
 21
-4.0
 31
0.0
1001
AcDbBlockRepETag
1070
     1
1071
        9
1005
403
  0
LINE
  5
404
330
3F7
100
AcDbEntity
  8
0
100
AcDbLine
 10
0.0
 20
-4.0
 30
0.0
 11
-4.0
 21
-8.0
 31
0.0
1001
AcDbBlockRepETag
1070
     1
1071
       10
1005
404
  0
LINE
  5
405
330
3F7
100
AcDbEntity
  8
0
100
AcDbLine
 10
0.0
 20
-4.0
 30
0.0
 11
4.0
 21
-8.0
 31
0.0
1001
AcDbBlockRepETag
1070
     1
1071
       11
1005
405
  0
LINE
  5
406
330
3F7
100
AcDbEntity
  8
0
100
AcDbLine
 10
0.0
 20
-64.0
 30
0.0
 11
4.0
 21
-60.0
 31
0.0
1001
AcDbBlockRepETag
1070
     1
1071
       12
1005
406
  0
LINE
  5
407
330
3F7
100
AcDbEntity
  8
0
100
AcDbLine
 10
0.0
 20
-64.0
 30
0.0
 11
-4.0
 21
-60.0
 31
0.0
1001
AcDbBlockRepETag
1070
     1
1071
       13
1005
407
  0
LINE
  5
408
330
3F7
100
AcDbEntity
  8
0
100
AcDbLine
 10
0.0
 20
-60.0
 30
0.0
 11
4.0
 21
-56.0
 31
0.0
1001
AcDbBlockRepETag
1070
     1
1071
       14
1005
408
  0
LINE
  5
409
330
3F7
100
AcDbEntity
  8
0
100
AcDbLine
 10
0.0
 20
-60.0
 30
0.0
 11
-4.0
 21
-56.0
 31
0.0
1001
AcDbBlockRepETag
1070
     1
1071
       15
1005
409
  0
ENDBLK
  5
40A
330
3F7
100
AcDbEntity
  8
0
100
AcDbBlockEnd
  0
BLOCK
  5
40D
330
40B
100
AcDbEntity
  8
0
100
AcDbBlockBegin
  2
*U34
 70
     1
 10
0.0
 20
0.0
 30
0.0
  3
*U34
  1

  0
LINE
  5
40E
330
40B
100
AcDbEntity
  8
0
100
AcDbLine
 10
0.0
 20
0.0
 30
0.0
 11
0.0
 21
-24.0
 31
0.0
1001
AcDbBlockRepETag
1070
     1
1071
        0
1005
40E
  0
CIRCLE
  5
40F
330
40B
100
AcDbEntity
  8
0
100
AcDbCircle
 10
0.0
 20
-12.0
 30
0.0
 40
4.0
1001
AcDbBlockRepETag
1070
     1
1071
        1
1005
40F
  0
LINE
  5
410
330
40B
100
AcDbEntity
  8
0
100
AcDbLine
 10
4.0
 20
-12.0
 30
0.0
 11
9.999992328408325
 21
-11.99040525967284
 31
0.0
1001
AcDbBlockRepETag
1070
     1
1071
        2
1005
410
  0
LINE
  5
411
330
40B
100
AcDbEntity
  8
0
100
AcDbLine
 10
7.0
 20
-10.0
 30
0.0
 11
5.0
 21
-14.0
 31
0.0
1001
AcDbBlockRepETag
1070
     1
1071
        3
1005
411
  0
LINE
  5
412
330
40B
100
AcDbEntity
  8
0
100
AcDbLine
 10
9.0
 20
-10.0
 30
0.0
 11
7.0
 21
-14.0
 31
0.0
1001
AcDbBlockRepETag
1070
     1
1071
        4
1005
412
  0
ENDBLK
  5
413
330
40B
100
AcDbEntity
  8
0
100
AcDbBlockEnd
  0
BLOCK
  5
416
330
414
100
AcDbEntity
  8
0
100
AcDbBlockBegin
  2
*U35
 70
     1
 10
0.0
 20
0.0
 30
0.0
  3
*U35
  1

  0
LINE
  5
417
330
414
100
AcDbEntity
  8
0
100
AcDbLine
 10
0.0
 20
0.0
 30
0.0
 11
0.0
 21
-24.0
 31
0.0
1001
AcDbBlockRepETag
1070
     1
1071
        0
1005
417
  0
CIRCLE
  5
418
330
414
100
AcDbEntity
  8
0
100
AcDbCircle
 10
0.0
 20
-12.0
 30
0.0
 40
4.0
1001
AcDbBlockRepETag
1070
     1
1071
        1
1005
418
  0
LINE
  5
419
330
414
100
AcDbEntity
  8
0
100
AcDbLine
 10
4.0
 20
-12.0
 30
0.0
 11
9.999992328408325
 21
-11.99040525967284
 31
0.0
1001
AcDbBlockRepETag
1070
     1
1071
        2
1005
419
  0
LINE
  5
41A
330
414
100
AcDbEntity
  8
0
100
AcDbLine
 10
7.0
 20
-10.0
 30
0.0
 11
5.0
 21
-14.0
 31
0.0
1001
AcDbBlockRepETag
1070
     1
1071
        3
1005
41A
  0
LINE
  5
41B
330
414
100
AcDbEntity
  8
0
100
AcDbLine
 10
9.0
 20
-10.0
 30
0.0
 11
7.0
 21
-14.0
 31
0.0
1001
AcDbBlockRepETag
1070
     1
1071
        4
1005
41B
  0
ENDBLK
  5
41C
330
414
100
AcDbEntity
  8
0
100
AcDbBlockEnd
  0
BLOCK
  5
41F
330
41D
100
AcDbEntity
  8
0
100
AcDbBlockBegin
  2
*U36
 70
     1
 10
0.0
 20
0.0
 30
0.0
  3
*U36
  1

  0
LINE
  5
420
330
41D
100
AcDbEntity
  8
0
100
AcDbLine
 10
0.0
 20
0.0
 30
0.0
 11
0.0
 21
-24.0
 31
0.0
1001
AcDbBlockRepETag
1070
     1
1071
        0
1005
420
  0
CIRCLE
  5
421
330
41D
100
AcDbEntity
  8
0
100
AcDbCircle
 10
0.0
 20
-12.0
 30
0.0
 40
4.0
1001
AcDbBlockRepETag
1070
     1
1071
        1
1005
421
  0
LINE
  5
422
330
41D
100
AcDbEntity
  8
0
100
AcDbLine
 10
4.0
 20
-12.0
 30
0.0
 11
9.999992328408325
 21
-11.99040525967284
 31
0.0
1001
AcDbBlockRepETag
1070
     1
1071
        2
1005
422
  0
LINE
  5
423
330
41D
100
AcDbEntity
  8
0
100
AcDbLine
 10
7.0
 20
-10.0
 30
0.0
 11
5.0
 21
-14.0
 31
0.0
1001
AcDbBlockRepETag
1070
     1
1071
        3
1005
423
  0
LINE
  5
424
330
41D
100
AcDbEntity
  8
0
100
AcDbLine
 10
9.0
 20
-10.0
 30
0.0
 11
7.0
 21
-14.0
 31
0.0
1001
AcDbBlockRepETag
1070
     1
1071
        4
1005
424
  0
ENDBLK
  5
425
330
41D
100
AcDbEntity
  8
0
100
AcDbBlockEnd
  0
BLOCK
  5
428
330
426
100
AcDbEntity
  8
0
100
AcDbBlockBegin
  2
*U37
 70
     1
 10
0.0
 20
0.0
 30
0.0
  3
*U37
  1

  0
LINE
  5
429
330
426
100
AcDbEntity
  8
0
100
AcDbLine
 10
0.0
 20
0.0
 30
0.0
 11
0.0
 21
-24.0
 31
0.0
1001
AcDbBlockRepETag
1070
     1
1071
        0
1005
429
  0
CIRCLE
  5
42A
330
426
100
AcDbEntity
  8
0
100
AcDbCircle
 10
0.0
 20
-12.0
 30
0.0
 40
4.0
1001
AcDbBlockRepETag
1070
     1
1071
        1
1005
42A
  0
LINE
  5
42B
330
426
100
AcDbEntity
  8
0
100
AcDbLine
 10
4.0
 20
-12.0
 30
0.0
 11
9.999992328408325
 21
-11.99040525967284
 31
0.0
1001
AcDbBlockRepETag
1070
     1
1071
        2
1005
42B
  0
LINE
  5
42C
330
426
100
AcDbEntity
  8
0
100
AcDbLine
 10
7.0
 20
-10.0
 30
0.0
 11
5.0
 21
-14.0
 31
0.0
1001
AcDbBlockRepETag
1070
     1
1071
        3
1005
42C
  0
LINE
  5
42D
330
426
100
AcDbEntity
  8
0
100
AcDbLine
 10
9.0
 20
-10.0
 30
0.0
 11
7.0
 21
-14.0
 31
0.0
1001
AcDbBlockRepETag
1070
     1
1071
        4
1005
42D
  0
ENDBLK
  5
42E
330
426
100
AcDbEntity
  8
0
100
AcDbBlockEnd
  0
BLOCK
  5
432
330
42F
100
AcDbEntity
  8
0
100
AcDbBlockBegin
  2
*U38
 70
     1
 10
0.0
 20
0.0
 30
0.0
  3
*U38
  1

  0
LINE
  5
433
330
42F
100
AcDbEntity
  8
0
100
AcDbLine
 10
0.0
 20
0.0
 30
0.0
 11
0.0
 21
-4.0
 31
0.0
1001
AcDbBlockRepETag
1070
     1
1071
        0
1005
433
  0
LINE
  5
434
330
42F
100
AcDbEntity
  8
0
100
AcDbLine
 10
-2.0
 20
-4.0
 30
0.0
 11
2.0
 21
-4.0
 31
0.0
1001
AcDbBlockRepETag
1070
     1
1071
        1
1005
434
  0
LINE
  5
435
330
42F
100
AcDbEntity
  8
0
100
AcDbLine
 10
2.0
 20
-4.0
 30
0.0
 11
2.0
 21
-12.0
 31
0.0
1001
AcDbBlockRepETag
1070
     1
1071
        2
1005
435
  0
LINE
  5
436
330
42F
100
AcDbEntity
  8
0
100
AcDbLine
 10
2.0
 20
-12.0
 30
0.0
 11
-2.0
 21
-12.0
 31
0.0
1001
AcDbBlockRepETag
1070
     1
1071
        3
1005
436
  0
LINE
  5
437
330
42F
100
AcDbEntity
  8
0
100
AcDbLine
 10
-2.0
 20
-12.0
 30
0.0
 11
-2.0
 21
-4.0
 31
0.0
1001
AcDbBlockRepETag
1070
     1
1071
        4
1005
437
  0
LINE
  5
438
330
42F
100
AcDbEntity
  8
0
100
AcDbLine
 10
0.0
 20
-16.0
 30
0.0
 11
0.0
 21
-12.0
 31
0.0
1001
AcDbBlockRepETag
1070
     1
1071
        5
1005
438
  0
LINE
  5
439
330
42F
100
AcDbEntity
  8
0
100
AcDbLine
 10
0.0
 20
-4.0
 30
0.0
 11
0.0
 21
-4.5
 31
0.0
1001
AcDbBlockRepETag
1070
     1
1071
        6
1005
439
  0
HATCH
  5
43A
330
42F
100
AcDbEntity
  8
0
100
AcDbHatch
 10
0.0
 20
0.0
 30
0.0
210
0.0
220
0.0
230
1.0
  2
SOLID
 70
     1
 71
     1
 91
        1
 92
        1
 93
        4
 72
     1
 10
0.0
 20
-4.5
 11
1.5
 21
-4.5
 72
     1
 10
1.5
 20
-4.5
 11
0.0
 21
-8.0
 72
     1
 10
0.0
 20
-8.0
 11
-1.5
 21
-4.5
 72
     1
 10
-1.5
 20
-4.5
 11
0.0
 21
-4.5
 97
        4
330
43B
330
43D
330
43E
330
43C
 75
     0
 76
     1
 98
        1
 10
-3024.0
 20
314.0
450
        0
451
        0
460
0.0
461
0.0
452
        1
462
1.0
453
        2
463
0.0
 63
     5
421
      255
463
1.0
 63
     7
421
 16777215
470
LINEAR
1001
ACAD
1010
0.0
1020
0.0
1030
0.0
1001
AcDbBlockRepETag
1070
     1
1071
       11
1005
43A
  0
LINE
  5
43B
102
{ACAD_REACTORS
330
43A
102
}
330
42F
100
AcDbEntity
  8
0
100
AcDbLine
 10
0.0
 20
-4.5
 30
0.0
 11
1.5
 21
-4.5
 31
0.0
1001
AcDbBlockRepETag
1070
     1
1071
        7
1005
43B
  0
LINE
  5
43C
102
{ACAD_REACTORS
330
43A
102
}
330
42F
100
AcDbEntity
  8
0
100
AcDbLine
 10
0.0
 20
-4.5
 30
0.0
 11
-1.5
 21
-4.5
 31
0.0
1001
AcDbBlockRepETag
1070
     1
1071
        8
1005
43C
  0
LINE
  5
43D
102
{ACAD_REACTORS
330
43A
102
}
330
42F
100
AcDbEntity
  8
0
100
AcDbLine
 10
0.0
 20
-8.0
 30
0.0
 11
1.5
 21
-4.5
 31
0.0
1001
AcDbBlockRepETag
1070
     1
1071
        9
1005
43D
  0
LINE
  5
43E
102
{ACAD_REACTORS
330
43A
102
}
330
42F
100
AcDbEntity
  8
0
100
AcDbLine
 10
0.0
 20
-8.0
 30
0.0
 11
-1.5
 21
-4.5
 31
0.0
1001
AcDbBlockRepETag
1070
     1
1071
       10
1005
43E
  0
ENDBLK
  5
43F
330
42F
100
AcDbEntity
  8
0
100
AcDbBlockEnd
  0
BLOCK
  5
442
330
440
100
AcDbEntity
  8
0
100
AcDbBlockBegin
  2
*U39
 70
     1
 10
0.0
 20
0.0
 30
0.0
  3
*U39
  1

  0
LINE
  5
443
330
440
100
AcDbEntity
  8
0
100
AcDbLine
 10
0.0
 20
0.0
 30
0.0
 11
0.0
 21
-4.0
 31
0.0
1001
AcDbBlockRepETag
1070
     1
1071
        0
1005
443
  0
LINE
  5
444
330
440
100
AcDbEntity
  8
0
100
AcDbLine
 10
-2.0
 20
-4.0
 30
0.0
 11
2.0
 21
-4.0
 31
0.0
1001
AcDbBlockRepETag
1070
     1
1071
        1
1005
444
  0
LINE
  5
445
330
440
100
AcDbEntity
  8
0
100
AcDbLine
 10
-1.0
 20
-5.0
 30
0.0
 11
1.0
 21
-5.0
 31
0.0
1001
AcDbBlockRepETag
1070
     1
1071
        2
1005
445
  0
LINE
  5
446
330
440
100
AcDbEntity
  8
0
100
AcDbLine
 10
0.0
 20
-6.0
 30
0.0
 11
0.0
 21
-6.0
 31
0.0
1001
AcDbBlockRepETag
1070
     1
1071
        3
1005
446
  0
LINE
  5
447
330
440
100
AcDbEntity
  8
0
100
AcDbLine
 10
0.5
 20
-6.0
 30
0.0
 11
-0.5
 21
-6.0
 31
0.0
1001
AcDbBlockRepETag
1070
     1
1071
        4
1005
447
  0
ENDBLK
  5
448
330
440
100
AcDbEntity
  8
0
100
AcDbBlockEnd
  0
BLOCK
  5
44B
330
449
100
AcDbEntity
  8
0
100
AcDbBlockBegin
  2
*U40
 70
     1
 10
0.0
 20
0.0
 30
0.0
  3
*U40
  1

  0
LINE
  5
44C
330
449
100
AcDbEntity
  8
0
100
AcDbLine
 10
0.0
 20
0.0
 30
0.0
 11
0.0
 21
15.0
 31
0.0
1001
AcDbBlockRepETag
1070
     1
1071
        0
1005
44C
  0
HATCH
  5
44D
330
449
100
AcDbEntity
  8
0
100
AcDbHatch
 10
0.0
 20
0.0
 30
0.0
210
0.0
220
0.0
230
1.0
  2
SOLID
 70
     1
 71
     1
 91
        1
 92
        1
 93
        3
 72
     1
 10
0.0
 20
15.0
 11
-2.0
 21
10.99999910797555
 72
     1
 10
-2.0
 20
10.99999910797555
 11
2.0
 21
10.99999910797555
 72
     1
 10
2.0
 20
10.99999910797555
 11
0.0
 21
15.0
 97
        3
330
44E
330
44F
330
450
 75
     0
 76
     1
 98
        1
 10
-854.0
 20
84.99999910797555
450
        0
451
        0
460
0.0
461
0.0
452
        1
462
1.0
453
        2
463
0.0
 63
     5
421
      255
463
1.0
 63
     7
421
 16777215
470
LINEAR
1001
ACAD
1010
0.0
1020
0.0
1030
0.0
1001
AcDbBlockRepETag
1070
     1
1071
        1
1005
44D
  0
LINE
  5
44E
102
{ACAD_REACTORS
330
44D
102
}
330
449
100
AcDbEntity
  8
0
100
AcDbLine
 10
0.0
 20
15.0
 30
0.0
 11
-2.0
 21
10.99999910797555
 31
0.0
1001
AcDbBlockRepETag
1070
     1
1071
        2
1005
44E
  0
LINE
  5
44F
102
{ACAD_REACTORS
330
44D
102
}
330
449
100
AcDbEntity
  8
0
100
AcDbLine
 10
-2.0
 20
10.99999910797555
 30
0.0
 11
2.0
 21
10.99999910797555
 31
0.0
1001
AcDbBlockRepETag
1070
     1
1071
        3
1005
44F
  0
LINE
  5
450
102
{ACAD_REACTORS
330
44D
102
}
330
449
100
AcDbEntity
  8
0
100
AcDbLine
 10
2.0
 20
10.99999910797555
 30
0.0
 11
0.0
 21
15.0
 31
0.0
1001
AcDbBlockRepETag
1070
     1
1071
        4
1005
450
  0
ENDBLK
  5
451
330
449
100
AcDbEntity
  8
0
100
AcDbBlockEnd
  0
BLOCK
  5
454
330
452
100
AcDbEntity
  8
0
100
AcDbBlockBegin
  2
*U41
 70
     1
 10
0.0
 20
0.0
 30
0.0
  3
*U41
  1

  0
LINE
  5
455
330
452
100
AcDbEntity
  8
0
100
AcDbLine
 10
0.0
 20
0.0
 30
0.0
 11
0.0
 21
15.0
 31
0.0
1001
AcDbBlockRepETag
1070
     1
1071
        0
1005
455
  0
HATCH
  5
456
330
452
100
AcDbEntity
  8
0
100
AcDbHatch
 10
0.0
 20
0.0
 30
0.0
210
0.0
220
0.0
230
1.0
  2
SOLID
 70
     1
 71
     1
 91
        1
 92
        1
 93
        3
 72
     1
 10
0.0
 20
15.0
 11
-2.0
 21
10.99999910797555
 72
     1
 10
-2.0
 20
10.99999910797555
 11
2.0
 21
10.99999910797555
 72
     1
 10
2.0
 20
10.99999910797555
 11
0.0
 21
15.0
 97
        3
330
457
330
458
330
459
 75
     0
 76
     1
 98
        1
 10
-854.0
 20
84.99999910797555
450
        0
451
        0
460
0.0
461
0.0
452
        1
462
1.0
453
        2
463
0.0
 63
     5
421
      255
463
1.0
 63
     7
421
 16777215
470
LINEAR
1001
ACAD
1010
0.0
1020
0.0
1030
0.0
1001
AcDbBlockRepETag
1070
     1
1071
        1
1005
456
  0
LINE
  5
457
102
{ACAD_REACTORS
330
456
102
}
330
452
100
AcDbEntity
  8
0
100
AcDbLine
 10
0.0
 20
15.0
 30
0.0
 11
-2.0
 21
10.99999910797555
 31
0.0
1001
AcDbBlockRepETag
1070
     1
1071
        2
1005
457
  0
LINE
  5
458
102
{ACAD_REACTORS
330
456
102
}
330
452
100
AcDbEntity
  8
0
100
AcDbLine
 10
-2.0
 20
10.99999910797555
 30
0.0
 11
2.0
 21
10.99999910797555
 31
0.0
1001
AcDbBlockRepETag
1070
     1
1071
        3
1005
458
  0
LINE
  5
459
102
{ACAD_REACTORS
330
456
102
}
330
452
100
AcDbEntity
  8
0
100
AcDbLine
 10
2.0
 20
10.99999910797555
 30
0.0
 11
0.0
 21
15.0
 31
0.0
1001
AcDbBlockRepETag
1070
     1
1071
        4
1005
459
  0
ENDBLK
  5
45A
330
452
100
AcDbEntity
  8
0
100
AcDbBlockEnd
  0
BLOCK
  5
45D
330
45B
100
AcDbEntity
  8
0
100
AcDbBlockBegin
  2
*U42
 70
     1
 10
0.0
 20
0.0
 30
0.0
  3
*U42
  1

  0
LINE
  5
45E
330
45B
100
AcDbEntity
  8
0
100
AcDbLine
 10
0.0
 20
0.0
 30
0.0
 11
0.0
 21
15.0
 31
0.0
1001
AcDbBlockRepETag
1070
     1
1071
        0
1005
45E
  0
HATCH
  5
45F
330
45B
100
AcDbEntity
  8
0
100
AcDbHatch
 10
0.0
 20
0.0
 30
0.0
210
0.0
220
0.0
230
1.0
  2
SOLID
 70
     1
 71
     1
 91
        1
 92
        1
 93
        3
 72
     1
 10
0.0
 20
15.0
 11
-2.0
 21
10.99999910797555
 72
     1
 10
-2.0
 20
10.99999910797555
 11
2.0
 21
10.99999910797555
 72
     1
 10
2.0
 20
10.99999910797555
 11
0.0
 21
15.0
 97
        3
330
460
330
461
330
462
 75
     0
 76
     1
 98
        1
 10
-854.0
 20
84.99999910797555
450
        0
451
        0
460
0.0
461
0.0
452
        1
462
1.0
453
        2
463
0.0
 63
     5
421
      255
463
1.0
 63
     7
421
 16777215
470
LINEAR
1001
ACAD
1010
0.0
1020
0.0
1030
0.0
1001
AcDbBlockRepETag
1070
     1
1071
        1
1005
45F
  0
LINE
  5
460
102
{ACAD_REACTORS
330
45F
102
}
330
45B
100
AcDbEntity
  8
0
100
AcDbLine
 10
0.0
 20
15.0
 30
0.0
 11
-2.0
 21
10.99999910797555
 31
0.0
1001
AcDbBlockRepETag
1070
     1
1071
        2
1005
460
  0
LINE
  5
461
102
{ACAD_REACTORS
330
45F
102
}
330
45B
100
AcDbEntity
  8
0
100
AcDbLine
 10
-2.0
 20
10.99999910797555
 30
0.0
 11
2.0
 21
10.99999910797555
 31
0.0
1001
AcDbBlockRepETag
1070
     1
1071
        3
1005
461
  0
LINE
  5
462
102
{ACAD_REACTORS
330
45F
102
}
330
45B
100
AcDbEntity
  8
0
100
AcDbLine
 10
2.0
 20
10.99999910797555
 30
0.0
 11
0.0
 21
15.0
 31
0.0
1001
AcDbBlockRepETag
1070
     1
1071
        4
1005
462
  0
ENDBLK
  5
463
330
45B
100
AcDbEntity
  8
0
100
AcDbBlockEnd
  0
BLOCK
  5
466
330
464
100
AcDbEntity
  8
0
100
AcDbBlockBegin
  2
*U43
 70
     1
 10
0.0
 20
0.0
 30
0.0
  3
*U43
  1

  0
LINE
  5
467
330
464
100
AcDbEntity
  8
0
100
AcDbLine
 10
0.0
 20
0.0
 30
0.0
 11
0.0
 21
15.0
 31
0.0
1001
AcDbBlockRepETag
1070
     1
1071
        0
1005
467
  0
HATCH
  5
468
330
464
100
AcDbEntity
  8
0
100
AcDbHatch
 10
0.0
 20
0.0
 30
0.0
210
0.0
220
0.0
230
1.0
  2
SOLID
 70
     1
 71
     1
 91
        1
 92
        1
 93
        3
 72
     1
 10
0.0
 20
15.0
 11
-2.0
 21
10.99999910797555
 72
     1
 10
-2.0
 20
10.99999910797555
 11
2.0
 21
10.99999910797555
 72
     1
 10
2.0
 20
10.99999910797555
 11
0.0
 21
15.0
 97
        3
330
469
330
46A
330
46B
 75
     0
 76
     1
 98
        1
 10
-854.0
 20
84.99999910797555
450
        0
451
        0
460
0.0
461
0.0
452
        1
462
1.0
453
        2
463
0.0
 63
     5
421
      255
463
1.0
 63
     7
421
 16777215
470
LINEAR
1001
ACAD
1010
0.0
1020
0.0
1030
0.0
1001
AcDbBlockRepETag
1070
     1
1071
        1
1005
468
  0
LINE
  5
469
102
{ACAD_REACTORS
330
468
102
}
330
464
100
AcDbEntity
  8
0
100
AcDbLine
 10
0.0
 20
15.0
 30
0.0
 11
-2.0
 21
10.99999910797555
 31
0.0
1001
AcDbBlockRepETag
1070
     1
1071
        2
1005
469
  0
LINE
  5
46A
102
{ACAD_REACTORS
330
468
102
}
330
464
100
AcDbEntity
  8
0
100
AcDbLine
 10
-2.0
 20
10.99999910797555
 30
0.0
 11
2.0
 21
10.99999910797555
 31
0.0
1001
AcDbBlockRepETag
1070
     1
1071
        3
1005
46A
  0
LINE
  5
46B
102
{ACAD_REACTORS
330
468
102
}
330
464
100
AcDbEntity
  8
0
100
AcDbLine
 10
2.0
 20
10.99999910797555
 30
0.0
 11
0.0
 21
15.0
 31
0.0
1001
AcDbBlockRepETag
1070
     1
1071
        4
1005
46B
  0
ENDBLK
  5
46C
330
464
100
AcDbEntity
  8
0
100
AcDbBlockEnd
  0
ENDSEC
  0
SECTION
  2
ENTITIES
  0
LWPOLYLINE
  5
66A
330
1F
100
AcDbEntity
  8
Defpoints
 62
     1
100
AcDbPolyline
 90
        4
 70
     1
 43
0.0
 10
-73.94477861198175
 20
-63.24451372532258
 10
2320.055221388019
 20
-61.24451372532258
 10
2320.055221388019
 20
1078.755486274677
 10
-73.94477861198175
 20
1080.755486274677
  0
LWPOLYLINE
  5
66B
330
1F
100
AcDbEntity
  8
0
 48
100.0
100
AcDbPolyline
 90
        5
 70
     0
 43
4.0
 10
2320.055221388019
 20
1078.755486274677
 10
0.0552213880182535
 20
1078.755486274677
 10
0.0552213880182535
 20
-61.24451372532258
 10
2320.055221388019
 20
-61.24451372532258
 10
2320.055221388019
 20
1078.755486274677
  0
LWPOLYLINE
  5
66C
330
1F
100
AcDbEntity
  8
0
 48
100.0
100
AcDbPolyline
 90
        3
 70
     0
 43
4.0
 10
1600.055221388018
 20
-63.24451372532258
 10
1600.055221388018
 20
18.75548627467742
 10
2320.055221388019
 20
18.75548627467742
  0
LINE
  5
66D
330
1F
100
AcDbEntity
  8
0
100
AcDbLine
 10
2110.055221388018
 20
18.75548627465377
 30
0.0
 11
2110.055221388018
 21
-61.24451372532258
 31
0.0
  0
LINE
  5
66E
330
1F
100
AcDbEntity
  8
0
100
AcDbLine
 10
2110.055221388018
 20
-21.24451372534622
 30
0.0
 11
2320.055221388019
 21
-21.24451372532258
 31
0.0
  0
LINE
  5
66F
330
1F
100
AcDbEntity
  8
0
100
AcDbLine
 10
2182.055221388019
 20
18.75548627467742
 30
0.0
 11
2182.055221388019
 21
-61.24451372532258
 31
0.0
  0
TEXT
  5
670
330
1F
100
AcDbEntity
  8
0
100
AcDbText
 10
2128.342952217971
 20
-9.563902346236426
 30
0.0
 40
14.0
  1
图  号
 41
0.7
 72
     4
 11
2145.837222340755
 21
-2.573452141597954
 31
0.0
100
AcDbText
  0
TEXT
  5
671
330
1F
100
AcDbEntity
  8
0
100
AcDbText
 10
2128.342952217971
 20
-48.39852526757535
 30
0.0
 40
14.0
  1
页  码
 41
0.7
 72
     4
 11
2145.837222340755
 21
-41.36987588149077
 31
0.0
100
AcDbText
  0
MTEXT
  5
672
330
1F
100
AcDbEntity
  8
0
370
   158
100
AcDbMText
 10
1864.365197115592
 20
-25.14045467745745
 30
0.0
 40
20.0
 41
451.2449755750671
 46
0.0
 71
     5
 72
     5
  1
{\fSimSun|b0|i0|c134|p2;东莞美华实业有限公司专变房一次接线图}
 73
     1
 44
1.0
1001
ACAD
1000
ACAD_MTEXT_COLUMN_INFO_BEGIN
1070
    75
1070
     2
1070
    79
1070
     0
1070
    76
1070
     1
1070
    78
1070
     0
1070
    48
1040
451.2449755750671
1070
    49
1040
12.5
1070
    50
1070
     1
1040
0.0
1000
ACAD_MTEXT_COLUMN_INFO_END
  0
MTEXT
  5
673
330
1F
100
AcDbEntity
  8
0
370
   158
100
AcDbMText
 10
2204.863069122557
 20
1.821670052124318
 30
0.0
 40
10.0
 41
165.8123706162532
 46
0.0
 71
     1
 72
     5
  1
DG20170312-01
 73
     1
 44
1.0
1001
ACAD
1000
ACAD_MTEXT_COLUMN_INFO_BEGIN
1070
    75
1070
     2
1070
    79
1070
     0
1070
    76
1070
     1
1070
    78
1070
     0
1070
    48
1040
165.8123706162532
1070
    49
1040
12.5
1070
    50
1070
     1
1040
0.0
1000
ACAD_MTEXT_COLUMN_INFO_END
  0
LWPOLYLINE
  5
674
330
1F
100
AcDbEntity
  8
DM-10kV-Cable
100
AcDbPolyline
 90
        4
 70
     1
 43
0.0
 10
0.0552213880182535
 20
1078.755486274677
 10
1600.055221388018
 20
1078.755486274677
 10
1600.055221388018
 20
-1.244513725322576
 10
0.0552213880182535
 20
-1.244513725322576
  0
LINE
  5
675
330
1F
100
AcDbEntity
  8
DM-10kV-Cable
370
   200
100
AcDbLine
 10
111.7381084181361
 20
687.2554862746774
 30
0.0
 11
1532.374430959029
 21
687.2554862746755
 31
0.0
  0
INSERT
  5
676
102
{ACAD_XDICTIONARY
360
677
102
}
330
1F
100
AcDbEntity
  8
DM-DblClmnTrans
370
     0
100
AcDbBlockReference
  2
*U30
 10
861.9382209073433
 20
602.2554862747031
 30
0.0
  0
INSERT
  5
67D
102
{ACAD_XDICTIONARY
360
67E
102
}
330
1F
100
AcDbEntity
  8
DM-Outgoing Line
370
     0
100
AcDbBlockReference
  2
*U21
 10
861.9382209073433
 20
602.2554862747031
 30
0.0
  0
INSERT
  5
684
102
{ACAD_XDICTIONARY
360
685
102
}
330
1F
100
AcDbEntity
  8
DM-Outgoing Line-180
370
     0
100
AcDbBlockReference
  2
*U21
 10
861.9382209073433
 20
562.2554862747031
 30
0.0
 50
180.0
  0
MTEXT
  5
68B
330
1F
100
AcDbEntity
  8
DM-Text
370
     0
100
AcDbMText
 10
905.341681665463
 20
582.2554862747031
 30
0.0
 40
20.0
 41
51.58707615633011
 46
0.0
 71
     5
 72
     5
  1
B1
 73
     1
 44
1.0
1001
ACAD
1000
ACAD_MTEXT_COLUMN_INFO_BEGIN
1070
    75
1070
     2
1070
    79
1070
     0
1070
    76
1070
     1
1070
    78
1070
     0
1070
    48
1040
51.58707615633011
1070
    49
1040
12.5
1070
    50
1070
     1
1040
0.0
1000
ACAD_MTEXT_COLUMN_INFO_END
  0
INSERT
  5
68C
102
{ACAD_XDICTIONARY
360
68D
102
}
330
1F
100
AcDbEntity
  8
DM-VCB
 48
0.1
370
     0
100
AcDbBlockReference
  2
*U23
 10
861.9382209073433
 20
447.2554862747049
 30
0.0
  0
LINE
  5
693
330
1F
100
AcDbEntity
  8
DM-0.4kV-Wire
 48
0.1
100
AcDbLine
 10
861.9382209073433
 20
383.2554862747049
 30
0.0
 11
861.9382209073433
 21
334.255486274705
 31
0.0
  0
INSERT
  5
694
102
{ACAD_XDICTIONARY
360
695
102
}
330
1F
100
AcDbEntity
  8
DM-CT
370
     0
100
AcDbBlockReference
  2
*U16
 10
846.9382209073433
 20
363.2554868835943
 30
0.0
  0
INSERT
  5
69B
102
{ACAD_XDICTIONARY
360
69C
102
}
330
1F
100
AcDbEntity
  8
DM-CT
370
     0
100
AcDbBlockReference
  2
*U16
 10
861.9382209073433
 20
334.255486274705
 30
0.0
  0
INSERT
  5
6A2
102
{ACAD_XDICTIONARY
360
6A3
102
}
330
1F
100
AcDbEntity
  8
DM-CT
370
     0
100
AcDbBlockReference
  2
*U16
 10
846.9382209073433
 20
334.255486274705
 30
0.0
  0
INSERT
  5
6A9
102
{ACAD_XDICTIONARY
360
6AA
102
}
330
1F
100
AcDbEntity
  8
DM-CT
370
     0
100
AcDbBlockReference
  2
*U16
 10
876.9382209073432
 20
333.7889502668797
 30
0.0
  0
LINE
  5
6B0
330
1F
100
AcDbEntity
  8
DM-0.4kV-Wire
100
AcDbLine
 10
886.9382209073433
 20
482.2554862747049
 30
0.0
 11
886.9382209073433
 21
442.2554862747049
 31
0.0
  0
INSERT
  5
6B1
102
{ACAD_XDICTIONARY
360
6B2
102
}
330
1F
100
AcDbEntity
  8
DM-Arrester
370
     0
100
AcDbBlockReference
  2
*U11
 10
886.9382209073433
 20
442.2554862747049
 30
0.0
 41
2.0
 42
2.0
 43
2.0
  0
INSERT
  5
6B8
102
{ACAD_XDICTIONARY
360
6B9
102
}
330
1F
100
AcDbEntity
  8
DM-GND
370
     0
100
AcDbBlockReference
  2
*U27
 10
886.9382209073433
 20
410.2554862747049
 30
0.0
 41
2.0
 42
2.0
 43
2.0
  0
LINE
  5
6BF
330
1F
100
AcDbEntity
  8
DM-0.4kV-Wire
100
AcDbLine
 10
831.9382209073433
 20
482.2554862747049
 30
0.0
 11
831.9382209073433
 21
357.255486274705
 31
0.0
  0
INSERT
  5
6C0
102
{ACAD_XDICTIONARY
360
6C1
102
}
330
1F
100
AcDbEntity
  8
DM-Outgoing Line-180
370
     0
100
AcDbBlockReference
  2
*U21
 10
831.9382209073433
 20
357.255486274705
 30
0.0
 50
180.0
  0
LINE
  5
6C7
330
1F
100
AcDbEntity
  8
DM-0.4kV-Wire
100
AcDbLine
 10
861.9382209073433
 20
310.2554862747049
 30
0.0
 11
861.9382209073433
 21
257.255486274705
 31
0.0
  0
LWPOLYLINE
  5
6C8
330
1F
100
AcDbEntity
  8
DM-Wireframe
  6
ACAD_ISO03W100
370
     0
100
AcDbPolyline
 90
        4
 70
     1
 43
0.0
 10
919.4382209073433
 20
277.2554862747049
 10
804.4382209073432
 20
277.2554862747049
 10
804.4382209073432
 20
497.2554862747049
 10
919.4382209073433
 20
497.2554862747049
  0
MTEXT
  5
6C9
330
1F
100
AcDbEntity
  8
DM-Text
370
     0
100
AcDbMText
 10
919.4382209073433
 20
501.7525137047844
 30
0.0
 40
10.0
 41
51.58707615633011
 46
0.0
 71
     9
 72
     5
  1
D2
 73
     1
 44
1.0
1001
ACAD
1000
ACAD_MTEXT_COLUMN_INFO_BEGIN
1070
    75
1070
     2
1070
    79
1070
     0
1070
    76
1070
     1
1070
    78
1070
     0
1070
    48
1040
51.58707615633011
1070
    49
1040
12.5
1070
    50
1070
     1
1040
0.0
1000
ACAD_MTEXT_COLUMN_INFO_END
  0
LINE
  5
6CA
330
1F
100
AcDbEntity
  8
DM-0.4kV-Cable
370
   200
100
AcDbLine
 10
767.3657409040297
 20
257.2554862746784
 30
0.0
 11
999.3895237420407
 21
257.2554862746795
 31
0.0
  0
LINE
  5
6CB
330
1F
100
AcDbEntity
  8
DM-0.4kV-Wire
100
AcDbLine
 10
886.9382209073433
 20
482.2554862747049
 30
0.0
 11
831.9382209073433
 21
482.2554862747049
 31
0.0
  0
LWPOLYLINE
  5
6CC
330
1F
100
AcDbEntity
  8
DM-Wireframe
  6
ACAD_ISO03W100
370
     0
100
AcDbPolyline
 90
        4
 70
     1
 43
0.0
 10
941.9382209073432
 20
17.25548627467833
 10
781.9382209073433
 20
17.25548627467833
 10
781.9382209073433
 20
237.2554862746783
 10
941.9382209073432
 20
237.2554862746774
  0
LINE
  5
6CD
330
1F
100
AcDbEntity
  8
DM-0.4kV-Wire
100
AcDbLine
 10
861.9382209073433
 20
257.2554862746774
 30
0.0
 11
861.9382209073433
 21
47.25548723429165
 31
0.0
  0
INSERT
  5
6CE
102
{ACAD_XDICTIONARY
360
6CF
102
}
330
1F
100
AcDbEntity
  8
DM-Outgoing Line-180
370
     0
100
AcDbBlockReference
  2
*U21
 10
861.9382209073433
 20
47.25548723429165
 30
0.0
 50
180.0
  0
MTEXT
  5
6D5
330
1F
100
AcDbEntity
  8
DM-Text
370
     0
100
AcDbMText
 10
941.9382209073432
 20
-0.5450036810143502
 30
0.0
 40
10.0
 41
51.58707615633011
 46
0.0
 71
     9
 72
     5
  1
D1-D2
 73
     1
 44
1.0
1001
ACAD
1000
ACAD_MTEXT_COLUMN_INFO_BEGIN
1070
    75
1070
     2
1070
    79
1070
     0
1070
    76
1070
     1
1070
    78
1070
     0
1070
    48
1040
51.58707615633011
1070
    49
1040
12.5
1070
    50
1070
     1
1040
10.21145975443383
1000
ACAD_MTEXT_COLUMN_INFO_END
  0
LINE
  5
6D6
330
1F
100
AcDbEntity
  8
DM-0.4kV-Wire
100
AcDbLine
 10
826.9382209073414
 20
257.2554862746774
 30
0.0
 11
826.9382209073432
 21
47.2554877056491
 31
0.0
  0
INSERT
  5
6D7
102
{ACAD_XDICTIONARY
360
6D8
102
}
330
1F
100
AcDbEntity
  8
DM-Outgoing Line-180
370
     0
100
AcDbBlockReference
  2
*U21
 10
826.9382209073432
 20
47.2554877056491
 30
0.0
 50
180.0
  0
LINE
  5
6DE
330
1F
100
AcDbEntity
  8
DM-0.4kV-Wire
100
AcDbLine
 10
896.9382209073451
 20
257.2554862746774
 30
0.0
 11
896.9382209073433
 21
47.25548723429165
 31
0.0
  0
INSERT
  5
6DF
102
{ACAD_XDICTIONARY
360
6E0
102
}
330
1F
100
AcDbEntity
  8
DM-Outgoing Line-180
370
     0
100
AcDbBlockReference
  2
*U21
 10
896.9382209073433
 20
47.25548723429165
 30
0.0
 50
180.0
  0
LINE
  5
6E6
330
1F
100
AcDbEntity
  8
DM-0.4kV-Wire
100
AcDbLine
 10
861.9382209073433
 20
547.255486274703
 30
0.0
 11
861.9382209073433
 21
447.2554862747049
 31
0.0
  0
MTEXT
  5
6E7
330
1F
100
AcDbEntity
  8
DM-Text
 62
     1
370
     0
100
AcDbMText
 10
158.7264887391957
 20
660.38110269148
 30
0.0
 40
20.0
 41
51.58707615633011
 46
0.0
 71
     5
 72
     5
  1
10kV
 73
     1
 44
1.0
1001
ACAD
1000
ACAD_MTEXT_COLUMN_INFO_BEGIN
1070
    75
1070
     2
1070
    79
1070
     0
1070
    76
1070
     1
1070
    78
1070
     0
1070
    48
1040
51.58707615633011
1070
    49
1040
12.5
1070
    50
1070
     1
1040
0.0
1000
ACAD_MTEXT_COLUMN_INFO_END
  0
MTEXT
  5
6E8
330
1F
100
AcDbEntity
  8
DM-Text
 62
     3
370
     0
100
AcDbMText
 10
717.0210584230135
 20
283.6583454800284
 30
0.0
 40
20.0
 41
51.58707615633011
 46
0.0
 71
     5
 72
     5
  1
0.4kV
 73
     1
 44
1.0
1001
ACAD
1000
ACAD_MTEXT_COLUMN_INFO_BEGIN
1070
    75
1070
     2
1070
    79
1070
     0
1070
    76
1070
     1
1070
    78
1070
     0
1070
    48
1040
51.58707615633011
1070
    49
1040
12.5
1070
    50
1070
     1
1040
0.0
1000
ACAD_MTEXT_COLUMN_INFO_END
  0
MTEXT
  5
6E9
330
1F
100
AcDbEntity
  8
0
370
     0
100
AcDbMText
 10
1677.077462843905
 20
775.881629826882
 30
0.0
 40
10.0
 41
18.25118149904483
 46
0.0
 71
     5
 72
     5
  1
G1
 73
     1
 44
1.0
1001
ACAD
1000
ACAD_MTEXT_COLUMN_INFO_BEGIN
1070
    75
1070
     2
1070
    79
1070
     0
1070
    76
1070
     1
1070
    78
1070
     0
1070
    48
1040
18.25118149904483
1070
    49
1040
12.5
1070
    50
1070
     1
1040
0.0
1000
ACAD_MTEXT_COLUMN_INFO_END
  0
LINE
  5
6EA
330
1F
100
AcDbEntity
  8
0
370
     0
100
AcDbLine
 10
1657.077462843905
 20
760.8816284377262
 30
0.0
 11
1937.077456888142
 21
760.8816284377271
 31
0.0
  0
LINE
  5
6EB
330
1F
100
AcDbEntity
  8
0
370
     0
100
AcDbLine
 10
1657.077462843905
 20
730.8816284377262
 30
0.0
 11
1937.077456888142
 21
730.8816284377262
 31
0.0
  0
LINE
  5
6EC
330
1F
100
AcDbEntity
  8
0
370
     0
100
AcDbLine
 10
1657.077462843905
 20
700.8816284377262
 30
0.0
 11
1937.077456888142
 21
700.8816284377262
 31
0.0
  0
LINE
  5
6ED
330
1F
100
AcDbEntity
  8
0
370
     0
100
AcDbLine
 10
1657.077462843905
 20
670.8816284377262
 30
0.0
 11
1937.077456888142
 21
670.8816284377262
 31
0.0
  0
MTEXT
  5
6EE
330
1F
100
AcDbEntity
  8
0
370
     0
100
AcDbMText
 10
1677.077462843905
 20
745.8816284377244
 30
0.0
 40
10.0
 41
18.25118149904483
 46
0.0
 71
     5
 72
     5
  1
G2
 73
     1
 44
1.0
1001
ACAD
1000
ACAD_MTEXT_COLUMN_INFO_BEGIN
1070
    75
1070
     2
1070
    79
1070
     0
1070
    76
1070
     1
1070
    78
1070
     0
1070
    48
1040
18.25118149904483
1070
    49
1040
12.5
1070
    50
1070
     1
1040
0.0
1000
ACAD_MTEXT_COLUMN_INFO_END
  0
MTEXT
  5
6EF
330
1F
100
AcDbEntity
  8
0
370
     0
100
AcDbMText
 10
1677.077462843903
 20
715.8816284377253
 30
0.0
 40
10.0
 41
18.25118149904483
 46
0.0
 71
     5
 72
     5
  1
G3
 73
     1
 44
1.0
1001
ACAD
1000
ACAD_MTEXT_COLUMN_INFO_BEGIN
1070
    75
1070
     2
1070
    79
1070
     0
1070
    76
1070
     1
1070
    78
1070
     0
1070
    48
1040
18.25118149904483
1070
    49
1040
12.5
1070
    50
1070
     1
1040
0.0
1000
ACAD_MTEXT_COLUMN_INFO_END
  0
MTEXT
  5
6F0
330
1F
100
AcDbEntity
  8
0
370
     0
100
AcDbMText
 10
1677.077462843905
 20
685.881628437728
 30
0.0
 40
10.0
 41
18.25118149904483
 46
0.0
 71
     5
 72
     5
  1
G4
 73
     1
 44
1.0
1001
ACAD
1000
ACAD_MTEXT_COLUMN_INFO_BEGIN
1070
    75
1070
     2
1070
    79
1070
     0
1070
    76
1070
     1
1070
    78
1070
     0
1070
    48
1040
18.25118149904483
1070
    49
1040
12.5
1070
    50
1070
     1
1040
0.0
1000
ACAD_MTEXT_COLUMN_INFO_END
  0
LINE
  5
6F1
330
1F
100
AcDbEntity
  8
0
370
     0
100
AcDbLine
 10
1657.077462843905
 20
790.8816284377262
 30
0.0
 11
1697.077462843905
 21
790.8816284377262
 31
0.0
  0
LINE
  5
6F2
330
1F
100
AcDbEntity
  8
0
370
     0
100
AcDbLine
 10
1697.077462843905
 20
790.8816284377262
 30
0.0
 11
1697.077462843905
 21
670.8816284377262
 31
0.0
  0
MTEXT
  5
6F3
102
{ACAD_XDICTIONARY
360
6F4
102
}
330
1F
100
AcDbEntity
  8
0
370
     0
100
AcDbMText
 10
1747.077462843903
 20
685.3652897435713
 30
0.0
 40
10.0
 41
90.23040669899364
 46
0.0
 71
     5
 72
     5
  1
{\fSimSun|b0|i0|c134|p2;变压器出线柜}
 73
     1
 44
1.0
1001
ACAD
1000
ACAD_MTEXT_COLUMN_INFO_BEGIN
1070
    75
1070
     2
1070
    79
1070
     0
1070
    76
1070
     1
1070
    78
1070
     0
1070
    48
1040
90.23040669899364
1070
    49
1040
12.5
1070
    50
1070
     1
1040
0.0
1000
ACAD_MTEXT_COLUMN_INFO_END
  0
LINE
  5
6F5
330
1F
100
AcDbEntity
  8
0
370
     0
100
AcDbLine
 10
1697.077462843905
 20
790.8816284377262
 30
0.0
 11
1797.077462843905
 21
790.8816284377262
 31
0.0
  0
LINE
  5
6F6
330
1F
100
AcDbEntity
  8
0
370
     0
100
AcDbLine
 10
1797.077462843905
 20
820.8816298268821
 30
0.0
 11
1797.077462843905
 21
670.8816284377262
 31
0.0
  0
LINE
  5
6F7
330
1F
100
AcDbEntity
  8
0
370
     0
100
AcDbLine
 10
1797.077462843905
 20
790.8816284377262
 30
0.0
 11
1837.077462843905
 21
790.8816284377262
 31
0.0
  0
MTEXT
  5
6F8
330
1F
100
AcDbEntity
  8
0
370
     0
100
AcDbMText
 10
1817.077462843897
 20
775.881629826882
 30
0.0
 40
10.0
 41
18.25118149904483
 46
0.0
 71
     5
 72
     5
  1
D1
 73
     1
 44
1.0
1001
ACAD
1000
ACAD_MTEXT_COLUMN_INFO_BEGIN
1070
    75
1070
     2
1070
    79
1070
     0
1070
    76
1070
     1
1070
    78
1070
     0
1070
    48
1040
18.25118149904483
1070
    49
1040
12.5
1070
    50
1070
     1
1040
0.0
1000
ACAD_MTEXT_COLUMN_INFO_END
  0
LINE
  5
6F9
330
1F
100
AcDbEntity
  8
0
370
     0
100
AcDbLine
 10
1837.077462843905
 20
790.8816284377262
 30
0.0
 11
1837.077462843905
 21
670.8816284377262
 31
0.0
  0
LINE
  5
6FA
330
1F
100
AcDbEntity
  8
0
370
     0
100
AcDbLine
 10
1837.077456888144
 20
790.8816284377262
 30
0.0
 11
1937.077456888144
 21
790.8816284377262
 31
0.0
  0
LINE
  5
6FB
330
1F
100
AcDbEntity
  8
0
370
     0
100
AcDbLine
 10
1937.077456888144
 20
820.8816298268821
 30
0.0
 11
1937.077456888144
 21
670.8816284377262
 31
0.0
  0
LINE
  5
6FC
330
1F
100
AcDbEntity
  8
0
370
     0
100
AcDbLine
 10
1657.077462843905
 20
820.8816298268821
 30
0.0
 11
1797.077462843905
 21
820.8816298268821
 31
0.0
  0
LINE
  5
6FD
330
1F
100
AcDbEntity
  8
0
370
     0
100
AcDbLine
 10
1797.077462843905
 20
820.8816298268821
 30
0.0
 11
1937.077456888144
 21
820.8816298268821
 31
0.0
  0
MTEXT
  5
6FE
102
{ACAD_XDICTIONARY
360
6FF
102
}
330
1F
100
AcDbEntity
  8
0
370
     0
100
AcDbMText
 10
1727.077462843905
 20
805.881629826883
 30
0.0
 40
10.0
 41
94.41753695478656
 46
0.0
 71
     5
 72
     5
  1
高压开关柜
 73
     1
 44
1.0
1001
ACAD
1000
ACAD_MTEXT_COLUMN_INFO_BEGIN
1070
    75
1070
     2
1070
    79
1070
     0
1070
    76
1070
     1
1070
    78
1070
     0
1070
    48
1040
94.41753695478656
1070
    49
1040
12.5
1070
    50
1070
     1
1040
0.0
1000
ACAD_MTEXT_COLUMN_INFO_END
  0
MTEXT
  5
700
102
{ACAD_XDICTIONARY
360
701
102
}
330
1F
100
AcDbEntity
  8
0
370
     0
100
AcDbMText
 10
1874.776330767276
 20
805.8816298268821
 30
0.0
 40
10.0
 41
94.41753695478656
 46
0.0
 71
     5
 72
     5
  1
低压开关柜
 73
     1
 44
1.0
1001
ACAD
1000
ACAD_MTEXT_COLUMN_INFO_BEGIN
1070
    75
1070
     2
1070
    79
1070
     0
1070
    76
1070
     1
1070
    78
1070
     0
1070
    48
1040
94.41753695478656
1070
    49
1040
12.5
1070
    50
1070
     1
1040
0.0
1000
ACAD_MTEXT_COLUMN_INFO_END
  0
LINE
  5
702
330
1F
100
AcDbEntity
  8
0
370
     0
100
AcDbLine
 10
1657.077462843905
 20
820.8816298268821
 30
0.0
 11
1657.077462843905
 21
670.8816284377262
 31
0.0
  0
MTEXT
  5
703
330
1F
100
AcDbEntity
  8
0
370
     0
100
AcDbMText
 10
1817.077462843897
 20
745.881629826882
 30
0.0
 40
10.0
 41
18.25118149904483
 46
0.0
 71
     5
 72
     5
  1
D2
 73
     1
 44
1.0
1001
ACAD
1000
ACAD_MTEXT_COLUMN_INFO_BEGIN
1070
    75
1070
     2
1070
    79
1070
     0
1070
    76
1070
     1
1070
    78
1070
     0
1070
    48
1040
18.25118149904483
1070
    49
1040
12.5
1070
    50
1070
     1
1040
0.0
1000
ACAD_MTEXT_COLUMN_INFO_END
  0
MTEXT
  5
704
330
1F
100
AcDbEntity
  8
0
370
     0
100
AcDbMText
 10
1817.077462843897
 20
715.8816298268821
 30
0.0
 40
10.0
 41
18.25118149904483
 46
0.0
 71
     5
 72
     5
  1
D3
 73
     1
 44
1.0
1001
ACAD
1000
ACAD_MTEXT_COLUMN_INFO_BEGIN
1070
    75
1070
     2
1070
    79
1070
     0
1070
    76
1070
     1
1070
    78
1070
     0
1070
    48
1040
18.25118149904483
1070
    49
1040
12.5
1070
    50
1070
     1
1040
0.0
1000
ACAD_MTEXT_COLUMN_INFO_END
  0
MTEXT
  5
705
330
1F
100
AcDbEntity
  8
0
370
     0
100
AcDbMText
 10
1817.077462843897
 20
685.8816298268821
 30
0.0
 40
10.0
 41
18.25118149904483
 46
0.0
 71
     5
 72
     5
  1
D4
 73
     1
 44
1.0
1001
ACAD
1000
ACAD_MTEXT_COLUMN_INFO_BEGIN
1070
    75
1070
     2
1070
    79
1070
     0
1070
    76
1070
     1
1070
    78
1070
     0
1070
    48
1040
18.25118149904483
1070
    49
1040
12.5
1070
    50
1070
     1
1040
0.0
1000
ACAD_MTEXT_COLUMN_INFO_END
  0
MTEXT
  5
706
102
{ACAD_XDICTIONARY
360
707
102
}
330
1F
100
AcDbEntity
  8
0
370
     0
100
AcDbMText
 10
1887.077462843903
 20
775.8816298268811
 30
0.0
 40
10.0
 41
82.55903798110376
 46
0.0
 71
     5
 72
     5
  1
{\fSimSun|b0|i0|c134|p2;计量柜}
 73
     1
 44
1.0
1001
ACAD
1000
ACAD_MTEXT_COLUMN_INFO_BEGIN
1070
    75
1070
     2
1070
    79
1070
     0
1070
    76
1070
     1
1070
    78
1070
     0
1070
    48
1040
82.55903798110376
1070
    49
1040
12.5
1070
    50
1070
     1
1040
0.0
1000
ACAD_MTEXT_COLUMN_INFO_END
  0
MTEXT
  5
708
102
{ACAD_XDICTIONARY
360
709
102
}
330
1F
100
AcDbEntity
  8
0
370
     0
100
AcDbMText
 10
1887.077462843903
 20
745.8816298268811
 30
0.0
 40
10.0
 41
49.08315300982213
 46
0.0
 71
     5
 72
     5
  1
{\fSimSun|b0|i0|c134|p2;进线柜}
 73
     1
 44
1.0
1001
ACAD
1000
ACAD_MTEXT_COLUMN_INFO_BEGIN
1070
    75
1070
     2
1070
    79
1070
     0
1070
    76
1070
     1
1070
    78
1070
     0
1070
    48
1040
49.08315300982213
1070
    49
1040
12.5
1070
    50
1070
     1
1040
0.0
1000
ACAD_MTEXT_COLUMN_INFO_END
  0
MTEXT
  5
70A
102
{ACAD_XDICTIONARY
360
70B
102
}
330
1F
100
AcDbEntity
  8
0
370
     0
100
AcDbMText
 10
1747.077462843903
 20
775.3652897435713
 30
0.0
 40
10.0
 41
71.5964643894531
 46
0.0
 71
     5
 72
     5
  1
{\fSimSun|b0|i0|c134|p2;1#进线柜}
 73
     1
 44
1.0
1001
ACAD
1000
ACAD_MTEXT_COLUMN_INFO_BEGIN
1070
    75
1070
     2
1070
    79
1070
     0
1070
    76
1070
     1
1070
    78
1070
     0
1070
    48
1040
71.5964643894531
1070
    49
1040
12.5
1070
    50
1070
     1
1040
0.0
1000
ACAD_MTEXT_COLUMN_INFO_END
  0
MTEXT
  5
70C
102
{ACAD_XDICTIONARY
360
70D
102
}
330
1F
100
AcDbEntity
  8
0
370
     0
100
AcDbMText
 10
1747.077462843903
 20
715.3652897435713
 30
0.0
 40
10.0
 41
76.28950243141935
 46
0.0
 71
     5
 72
     5
  1
{\fSimSun|b0|i0|c134|p2;备用出线柜}
 73
     1
 44
1.0
1001
ACAD
1000
ACAD_MTEXT_COLUMN_INFO_BEGIN
1070
    75
1070
     2
1070
    79
1070
     0
1070
    76
1070
     1
1070
    78
1070
     0
1070
    48
1040
76.28950243141935
1070
    49
1040
12.5
1070
    50
1070
     1
1040
0.0
1000
ACAD_MTEXT_COLUMN_INFO_END
  0
MTEXT
  5
70E
102
{ACAD_XDICTIONARY
360
70F
102
}
330
1F
100
AcDbEntity
  8
0
370
     0
100
AcDbMText
 10
1887.077462843903
 20
715.8816298268812
 30
0.0
 40
10.0
 41
49.08315300982213
 46
0.0
 71
     5
 72
     5
  1
{\fSimSun|b0|i0|c134|p2;出线柜}
 73
     1
 44
1.0
1001
ACAD
1000
ACAD_MTEXT_COLUMN_INFO_BEGIN
1070
    75
1070
     2
1070
    79
1070
     0
1070
    76
1070
     1
1070
    78
1070
     0
1070
    48
1040
49.08315300982213
1070
    49
1040
12.5
1070
    50
1070
     1
1040
0.0
1000
ACAD_MTEXT_COLUMN_INFO_END
  0
MTEXT
  5
710
102
{ACAD_XDICTIONARY
360
711
102
}
330
1F
100
AcDbEntity
  8
0
370
     0
100
AcDbMText
 10
1887.077456888142
 20
685.8816298268802
 30
0.0
 40
10.0
 41
67.44409132037254
 46
0.0
 71
     5
 72
     5
  1
{\fSimSun|b0|i0|c134|p2;电容柜}
 73
     1
 44
1.0
1001
ACAD
1000
ACAD_MTEXT_COLUMN_INFO_BEGIN
1070
    75
1070
     2
1070
    79
1070
     0
1070
    76
1070
     1
1070
    78
1070
     0
1070
    48
1040
67.44409132037254
1070
    49
1040
12.5
1070
    50
1070
     1
1040
0.0
1000
ACAD_MTEXT_COLUMN_INFO_END
  0
INSERT
  5
712
102
{ACAD_XDICTIONARY
360
713
102
}
330
1F
100
AcDbEntity
  8
DM-ZCT
 48
0.1
370
     0
100
AcDbBlockReference
  2
*U9
 10
961.9382207387426
 20
966.2554866119045
 30
0.0
 50
180.0
  0
INSERT
  5
719
102
{ACAD_XDICTIONARY
360
71A
102
}
330
1F
100
AcDbEntity
  8
DM-Outgoing Line-180
370
     0
100
AcDbBlockReference
  2
*U21
 10
961.9382207387426
 20
951.2554866119044
 30
0.0
  0
LINE
  5
720
330
1F
100
AcDbEntity
  8
DM-10kV-Wire
 48
0.1
100
AcDbLine
 10
961.9382207387426
 20
951.2554866119044
 30
0.0
 11
961.9382207387426
 21
821.2554866119043
 31
0.0
  0
LINE
  5
721
330
1F
100
AcDbEntity
  8
DM-10kV-Wire
 48
0.1
100
AcDbLine
 10
961.9382207387426
 20
757.2554866119044
 30
0.0
 11
961.9382207387426
 21
687.2554866119044
 31
0.0
  0
LINE
  5
722
330
1F
100
AcDbEntity
  8
DM-10kV-Wire
 48
0.1
100
AcDbLine
 10
961.9382207387426
 20
990.2554866119045
 30
0.0
 11
961.9382207387426
 21
1060.255486611904
 31
0.0
  0
LWPOLYLINE
  5
723
330
1F
100
AcDbEntity
  8
DM-Wireframe
  6
ACAD_ISO03W100
370
     0
100
AcDbPolyline
 90
        4
 70
     1
 43
0.0
 10
891.9382207387425
 20
1020.255486611904
 10
1031.938220738742
 20
1020.255486611904
 10
1031.938220738742
 20
727.2554866119044
 10
891.9382207387334
 20
727.2554866119044
  0
MTEXT
  5
724
330
1F
100
AcDbEntity
  8
DM-Text
370
     0
100
AcDbMText
 10
1031.938220738742
 20
1024.745606306886
 30
0.0
 40
10.0
 41
51.58707615633011
 46
0.0
 71
     9
 72
     5
  1
G2
 73
     1
 44
1.0
1001
ACAD
1000
ACAD_MTEXT_COLUMN_INFO_BEGIN
1070
    75
1070
     2
1070
    79
1070
     0
1070
    76
1070
     1
1070
    78
1070
     0
1070
    48
1040
51.58707615633011
1070
    49
1040
12.5
1070
    50
1070
     1
1040
0.0
1000
ACAD_MTEXT_COLUMN_INFO_END
  0
LINE
  5
725
330
1F
100
AcDbEntity
  8
DM-10kV-Wire
100
AcDbLine
 10
961.9382207387426
 20
1060.255486611904
 30
0.0
 11
861.9382207387426
 21
1060.255486611904
 31
0.0
  0
LINE
  5
726
330
1F
100
AcDbEntity
  8
DM-10kV-Wire
100
AcDbLine
 10
861.9382207387426
 20
1060.255486611904
 30
0.0
 11
861.9382207387426
 21
617.2554866119043
 31
0.0
  0
INSERT
  5
727
102
{ACAD_XDICTIONARY
360
728
102
}
330
1F
100
AcDbEntity
  8
DM-Earthing Switch-90
370
     0
100
AcDbBlockReference
  2
*U29
 10
981.9382207387425
 20
936.2554866119044
 30
0.0
 50
89.99999999999998
  0
INSERT
  5
72E
102
{ACAD_XDICTIONARY
360
72F
102
}
330
1F
100
AcDbEntity
  8
DM-Arrester-270
370
     0
100
AcDbBlockReference
  2
*U11
 10
941.9382207387425
 20
936.2554866119044
 30
0.0
 41
2.0
 42
2.0
 43
2.0
 50
270.0
  0
INSERT
  5
735
102
{ACAD_XDICTIONARY
360
736
102
}
330
1F
100
AcDbEntity
  8
DM-GND-270
370
     0
100
AcDbBlockReference
  2
*U27
 10
909.9382207387424
 20
936.2554866119044
 30
0.0
 41
2.0
 42
2.0
 43
2.0
 50
270.0
  0
LINE
  5
73C
330
1F
100
AcDbEntity
  8
DM-10kV-Wire
 48
0.1
100
AcDbLine
 10
961.9382207387426
 20
916.2554866119045
 30
0.0
 11
941.9382207387425
 21
916.2554866119045
 31
0.0
  0
LINE
  5
73D
330
1F
100
AcDbEntity
  8
DM-10kV-Wire
 48
0.1
100
AcDbLine
 10
981.9382207387425
 20
936.2554866119044
 30
0.0
 11
941.9382207387425
 21
936.2554866119044
 31
0.0
  0
INSERT
  5
73E
102
{ACAD_XDICTIONARY
360
73F
102
}
330
1F
100
AcDbEntity
  8
DM-DXN-T-270
370
     0
100
AcDbBlockReference
  2
*U22
 10
941.9382207387425
 20
916.2554866119045
 30
0.0
 41
2.0
 42
2.0
 43
2.0
 50
270.0
  0
INSERT
  5
745
102
{ACAD_XDICTIONARY
360
746
102
}
330
1F
100
AcDbEntity
  8
DM-GND-270
370
     0
100
AcDbBlockReference
  2
*U27
 10
909.9382207387424
 20
916.2554866119045
 30
0.0
 41
2.0
 42
2.0
 43
2.0
 50
270.0
  0
INSERT
  5
74C
102
{ACAD_XDICTIONARY
360
74D
102
}
330
1F
100
AcDbEntity
  8
DM-CT
370
     0
100
AcDbBlockReference
  2
*U16
 10
946.9382207387425
 20
906.2554866119043
 30
0.0
  0
INSERT
  5
753
102
{ACAD_XDICTIONARY
360
754
102
}
330
1F
100
AcDbEntity
  8
DM-CT
370
     0
100
AcDbBlockReference
  2
*U16
 10
946.9382207387425
 20
877.2554866119044
 30
0.0
  0
INSERT
  5
75A
102
{ACAD_XDICTIONARY
360
75B
102
}
330
1F
100
AcDbEntity
  8
DM-CT
370
     0
100
AcDbBlockReference
  2
*U16
 10
976.9382207387424
 20
906.2554866119043
 30
0.0
  0
INSERT
  5
761
102
{ACAD_XDICTIONARY
360
762
102
}
330
1F
100
AcDbEntity
  8
DM-CT
370
     0
100
AcDbBlockReference
  2
*U16
 10
976.9382207387424
 20
877.2554866119044
 30
0.0
  0
INSERT
  5
768
102
{ACAD_XDICTIONARY
360
769
102
}
330
1F
100
AcDbEntity
  8
DM-VCB
 48
0.1
370
     0
100
AcDbBlockReference
  2
*U23
 10
961.9382207387426
 20
821.2554866119043
 30
0.0
  0
INSERT
  5
76F
102
{ACAD_XDICTIONARY
360
770
102
}
330
1F
100
AcDbEntity
  8
DM-ZCT
 48
0.1
370
     0
100
AcDbBlockReference
  2
*U9
 10
1313.641407454644
 20
966.2554866119045
 30
0.0
 50
180.0
  0
INSERT
  5
776
102
{ACAD_XDICTIONARY
360
777
102
}
330
1F
100
AcDbEntity
  8
DM-Outgoing Line-180
370
     0
100
AcDbBlockReference
  2
*U21
 10
1313.641407454644
 20
951.2554866119044
 30
0.0
  0
LINE
  5
77D
330
1F
100
AcDbEntity
  8
DM-10kV-Wire
 48
0.1
100
AcDbLine
 10
1313.641407454644
 20
951.2554866119044
 30
0.0
 11
1313.641407454644
 21
821.2554866119043
 31
0.0
  0
LINE
  5
77E
330
1F
100
AcDbEntity
  8
DM-10kV-Wire
 48
0.1
100
AcDbLine
 10
1313.641407454644
 20
757.2554866119044
 30
0.0
 11
1313.641407454644
 21
687.2554866119044
 31
0.0
  0
LINE
  5
77F
330
1F
100
AcDbEntity
  8
DM-10kV-Wire
 48
0.1
100
AcDbLine
 10
1313.641407454644
 20
990.2554866119045
 30
0.0
 11
1313.641407454644
 21
1060.255486611904
 31
0.0
  0
LWPOLYLINE
  5
780
330
1F
100
AcDbEntity
  8
DM-Wireframe
  6
ACAD_ISO03W100
370
     0
100
AcDbPolyline
 90
        4
 70
     1
 43
0.0
 10
1243.641407454644
 20
1020.255486611904
 10
1383.641407454645
 20
1020.255486611904
 10
1383.641407454645
 20
727.2554866119044
 10
1243.641407454635
 20
727.2554866119044
  0
MTEXT
  5
781
330
1F
100
AcDbEntity
  8
DM-Text
370
     0
100
AcDbMText
 10
1383.641407454645
 20
1024.745606306886
 30
0.0
 40
10.0
 41
51.58707615633011
 46
0.0
 71
     9
 72
     5
  1
G1
 73
     1
 44
1.0
1001
ACAD
1000
ACAD_MTEXT_COLUMN_INFO_BEGIN
1070
    75
1070
     2
1070
    79
1070
     0
1070
    76
1070
     1
1070
    78
1070
     0
1070
    48
1040
51.58707615633011
1070
    49
1040
12.5
1070
    50
1070
     1
1040
0.0
1000
ACAD_MTEXT_COLUMN_INFO_END
  0
INSERT
  5
782
102
{ACAD_XDICTIONARY
360
783
102
}
330
1F
100
AcDbEntity
  8
DM-Earthing Switch-90
370
     0
100
AcDbBlockReference
  2
*U29
 10
1333.641407454644
 20
936.2554866119044
 30
0.0
 50
89.99999999999998
  0
INSERT
  5
789
102
{ACAD_XDICTIONARY
360
78A
102
}
330
1F
100
AcDbEntity
  8
DM-Arrester-270
370
     0
100
AcDbBlockReference
  2
*U11
 10
1293.641407454644
 20
936.2554866119044
 30
0.0
 41
2.0
 42
2.0
 43
2.0
 50
270.0
  0
INSERT
  5
790
102
{ACAD_XDICTIONARY
360
791
102
}
330
1F
100
AcDbEntity
  8
DM-GND-270
370
     0
100
AcDbBlockReference
  2
*U27
 10
1261.641407454644
 20
936.2554866119044
 30
0.0
 41
2.0
 42
2.0
 43
2.0
 50
270.0
  0
LINE
  5
797
330
1F
100
AcDbEntity
  8
DM-10kV-Wire
 48
0.1
100
AcDbLine
 10
1313.641407454644
 20
916.2554866119045
 30
0.0
 11
1293.641407454644
 21
916.2554866119045
 31
0.0
  0
LINE
  5
798
330
1F
100
AcDbEntity
  8
DM-10kV-Wire
 48
0.1
100
AcDbLine
 10
1333.641407454644
 20
936.2554866119044
 30
0.0
 11
1293.641407454644
 21
936.2554866119044
 31
0.0
  0
INSERT
  5
799
102
{ACAD_XDICTIONARY
360
79A
102
}
330
1F
100
AcDbEntity
  8
DM-DXN-T-270
370
     0
100
AcDbBlockReference
  2
*U22
 10
1293.641407454644
 20
916.2554866119045
 30
0.0
 41
2.0
 42
2.0
 43
2.0
 50
270.0
  0
INSERT
  5
7A0
102
{ACAD_XDICTIONARY
360
7A1
102
}
330
1F
100
AcDbEntity
  8
DM-GND-270
370
     0
100
AcDbBlockReference
  2
*U27
 10
1261.641407454644
 20
916.2554866119045
 30
0.0
 41
2.0
 42
2.0
 43
2.0
 50
270.0
  0
INSERT
  5
7A7
102
{ACAD_XDICTIONARY
360
7A8
102
}
330
1F
100
AcDbEntity
  8
DM-CT
370
     0
100
AcDbBlockReference
  2
*U16
 10
1298.641407454645
 20
906.2554866119043
 30
0.0
  0
INSERT
  5
7AE
102
{ACAD_XDICTIONARY
360
7AF
102
}
330
1F
100
AcDbEntity
  8
DM-CT
370
     0
100
AcDbBlockReference
  2
*U16
 10
1298.641407454645
 20
877.2554866119044
 30
0.0
  0
INSERT
  5
7B5
102
{ACAD_XDICTIONARY
360
7B6
102
}
330
1F
100
AcDbEntity
  8
DM-CT
370
     0
100
AcDbBlockReference
  2
*U16
 10
1328.641407454644
 20
906.2554866119043
 30
0.0
  0
INSERT
  5
7BC
102
{ACAD_XDICTIONARY
360
7BD
102
}
330
1F
100
AcDbEntity
  8
DM-CT
370
     0
100
AcDbBlockReference
  2
*U16
 10
1328.641407454644
 20
877.2554866119044
 30
0.0
  0
INSERT
  5
7C3
102
{ACAD_XDICTIONARY
360
7C4
102
}
330
1F
100
AcDbEntity
  8
DM-VCB
 48
0.1
370
     0
100
AcDbBlockReference
  2
*U23
 10
1313.641407454644
 20
821.2554866119043
 30
0.0
  0
INSERT
  5
7CA
102
{ACAD_XDICTIONARY
360
7CB
102
}
330
1F
100
AcDbEntity
  8
DM-HV FUSE
100
AcDbBlockReference
  2
*U20
 10
593.9341394472848
 20
842.0554866793491
 30
0.0
 41
1.199999999999999
 42
1.199999999999999
 43
1.199999999999999
  0
LINE
  5
7D1
330
1F
100
AcDbEntity
  8
DM-10kV-Wire
 48
0.1
100
AcDbLine
 10
593.9341424548029
 20
893.6554859495954
 30
0.0
 11
593.9341454623217
 21
963.2554852198419
 31
0.0
  0
LINE
  5
7D2
330
1F
100
AcDbEntity
  8
DM-10kV-Wire
100
AcDbLine
 10
593.9341394472848
 20
687.2554862746765
 30
0.0
 11
593.9341394472848
 21
795.2554866793489
 31
0.0
  0
INSERT
  5
7D3
102
{ACAD_XDICTIONARY
360
7D4
102
}
330
1F
100
AcDbEntity
  8
DM-Outgoing Line
370
     0
100
AcDbBlockReference
  2
*U21
 10
593.9341454623217
 20
963.2554852198419
 30
0.0
 41
1.199999999999999
 42
1.199999999999999
 43
1.199999999999999
  0
LINE
  5
7DA
330
1F
100
AcDbEntity
  8
DM-10kV-Wire
100
AcDbLine
 10
593.9341439067084
 20
891.2554852198418
 30
0.0
 11
563.9341439067083
 21
891.2554852198418
 31
0.0
  0
LINE
  5
7DB
330
1F
100
AcDbEntity
  8
DM-10kV-Wire
100
AcDbLine
 10
593.9341394472848
 20
824.0554866793491
 30
0.0
 11
593.9341394472848
 21
842.0554866793491
 31
0.0
  0
INSERT
  5
7DC
102
{ACAD_XDICTIONARY
360
7DD
102
}
330
1F
100
AcDbEntity
  8
DM-Earthing Switch-90
370
     0
100
AcDbBlockReference
  2
*U29
 10
605.9341439067083
 20
891.2554852198418
 30
0.0
 41
1.199999999999999
 42
1.199999999999999
 43
1.199999999999999
 50
89.99999999999998
  0
LINE
  5
7E3
330
1F
100
AcDbEntity
  8
DM-10kV-Wire
100
AcDbLine
 10
593.9341439067084
 20
891.2554852198418
 30
0.0
 11
593.9341394472848
 21
870.8554866793493
 31
0.0
  0
LINE
  5
7E4
330
1F
100
AcDbEntity
  8
DM-Ctrl-Wire
  6
DASHED
100
AcDbLine
 10
589.1341394472846
 20
856.4554866793487
 30
0.0
 11
577.1341394472847
 21
856.4554866793487
 31
0.0
  0
LINE
  5
7E5
330
1F
100
AcDbEntity
  8
DM-Ctrl-Wire
  6
DASHED
100
AcDbLine
 10
577.1341394472847
 20
856.4554866793487
 30
0.0
 11
577.1341394472847
 21
818.0554866793491
 31
0.0
  0
LINE
  5
7E6
330
1F
100
AcDbEntity
  8
DM-Ctrl-Wire
  6
DASHED
100
AcDbLine
 10
577.1341394472847
 20
818.0554866793491
 30
0.0
 11
620.334143906708
 21
818.0554866793491
 31
0.0
  0
LINE
  5
7E7
330
1F
100
AcDbEntity
  8
DM-10kV-Wire
100
AcDbLine
 10
593.9341439067084
 20
891.2554852198418
 30
0.0
 11
605.9341439067083
 21
891.2554852198418
 31
0.0
  0
LINE
  5
7E8
330
1F
100
AcDbEntity
  8
DM-Ctrl-Wire
  6
DASHED
100
AcDbLine
 10
620.334143906708
 20
818.0554866793491
 30
0.0
 11
620.334143906708
 21
885.7697711906276
 31
0.0
  0
INSERT
  5
7E9
102
{ACAD_XDICTIONARY
360
7EA
102
}
330
1F
100
AcDbEntity
  8
DM-DXN-T-180
370
     0
100
AcDbBlockReference
  2
*U22
 10
563.9341439067083
 20
897.2554852198419
 30
0.0
 41
2.399999999999999
 42
2.399999999999999
 43
2.399999999999999
 50
180.0
  0
INSERT
  5
7F0
102
{ACAD_XDICTIONARY
360
7F1
102
}
330
1F
100
AcDbEntity
  8
DM-GND-180
370
     0
100
AcDbBlockReference
  2
*U27
 10
563.9341439067083
 20
935.6554852198414
 30
0.0
 41
2.399999999999999
 42
2.399999999999999
 43
2.399999999999999
 50
180.0
  0
LINE
  5
7F7
330
1F
100
AcDbEntity
  8
DM-10kV-Wire
100
AcDbLine
 10
563.9341439067083
 20
891.2554852198418
 30
0.0
 11
563.9341439067083
 21
897.2554852198419
 31
0.0
  0
INSERT
  5
7F8
330
1F
100
AcDbEntity
  8
DM-Knife Switch
100
AcDbBlockReference
  2
DM-Knife Switch
 10
-1544.105764330918
 20
444.6794531826708
 30
0.0
 41
1.199999999999999
 42
1.199999999999999
 43
1.199999999999999
  0
INSERT
  5
7F9
102
{ACAD_XDICTIONARY
360
7FA
102
}
330
1F
100
AcDbEntity
  8
DM-GND-270
370
     0
100
AcDbBlockReference
  2
*U27
 10
578.3341394472863
 20
813.2554866793489
 30
0.0
 41
2.399999999999999
 42
2.399999999999999
 43
2.399999999999999
 50
270.0
  0
LINE
  5
800
330
1F
100
AcDbEntity
  8
DM-10kV-Wire
 48
0.1
100
AcDbLine
 10
593.9341454623217
 20
981.2554852198418
 30
0.0
 11
593.9341454623217
 21
1065.255485219843
 31
0.0
  0
LWPOLYLINE
  5
801
330
1F
100
AcDbEntity
  8
DM-Wireframe
  6
ACAD_ISO03W100
370
     0
100
AcDbPolyline
 90
        4
 70
     1
 43
0.0
 10
523.9341394472849
 20
1020.255486274676
 10
663.9341394472848
 20
1020.255486274676
 10
663.9341394472848
 20
727.2554862746765
 10
523.9341394472758
 20
727.2554862746765
  0
INSERT
  5
802
102
{ACAD_XDICTIONARY
360
803
102
}
330
1F
100
AcDbEntity
  8
DM-HV FUSE
100
AcDbBlockReference
  2
*U20
 10
264.7490404901964
 20
842.0554866793494
 30
0.0
 41
1.199999999999999
 42
1.199999999999999
 43
1.199999999999999
  0
LINE
  5
809
330
1F
100
AcDbEntity
  8
DM-10kV-Wire
 48
0.1
100
AcDbLine
 10
264.7490434977144
 20
893.6554859495959
 30
0.0
 11
264.7490465052333
 21
963.2554852198422
 31
0.0
  0
LINE
  5
80A
330
1F
100
AcDbEntity
  8
DM-10kV-Wire
100
AcDbLine
 10
264.7490404901964
 20
687.255486274677
 30
0.0
 11
264.7490404901964
 21
795.2554866793493
 31
0.0
  0
INSERT
  5
80B
102
{ACAD_XDICTIONARY
360
80C
102
}
330
1F
100
AcDbEntity
  8
DM-Outgoing Line
370
     0
100
AcDbBlockReference
  2
*U21
 10
264.7490465052333
 20
963.2554852198422
 30
0.0
 41
1.199999999999999
 42
1.199999999999999
 43
1.199999999999999
  0
LINE
  5
812
330
1F
100
AcDbEntity
  8
DM-10kV-Wire
100
AcDbLine
 10
264.7490449496199
 20
891.2554852198423
 30
0.0
 11
234.7490449496199
 21
891.2554852198423
 31
0.0
  0
LINE
  5
813
330
1F
100
AcDbEntity
  8
DM-10kV-Wire
100
AcDbLine
 10
264.7490404901964
 20
824.0554866793495
 30
0.0
 11
264.7490404901964
 21
842.0554866793494
 31
0.0
  0
INSERT
  5
814
102
{ACAD_XDICTIONARY
360
815
102
}
330
1F
100
AcDbEntity
  8
DM-Earthing Switch-90
370
     0
100
AcDbBlockReference
  2
*U29
 10
276.7490449496199
 20
891.2554852198423
 30
0.0
 41
1.199999999999999
 42
1.199999999999999
 43
1.199999999999999
 50
89.99999999999998
  0
LINE
  5
81B
330
1F
100
AcDbEntity
  8
DM-10kV-Wire
100
AcDbLine
 10
264.7490449496199
 20
891.2554852198423
 30
0.0
 11
264.7490404901964
 21
870.8554866793496
 31
0.0
  0
LINE
  5
81C
330
1F
100
AcDbEntity
  8
DM-Ctrl-Wire
  6
DASHED
100
AcDbLine
 10
259.9490404901962
 20
856.4554866793491
 30
0.0
 11
247.9490404901962
 21
856.4554866793491
 31
0.0
  0
LINE
  5
81D
330
1F
100
AcDbEntity
  8
DM-Ctrl-Wire
  6
DASHED
100
AcDbLine
 10
247.9490404901962
 20
856.4554866793491
 30
0.0
 11
247.9490404901962
 21
818.0554866793496
 31
0.0
  0
LINE
  5
81E
330
1F
100
AcDbEntity
  8
DM-Ctrl-Wire
  6
DASHED
100
AcDbLine
 10
247.9490404901962
 20
818.0554866793496
 30
0.0
 11
291.1490449496195
 21
818.0554866793496
 31
0.0
  0
LINE
  5
81F
330
1F
100
AcDbEntity
  8
DM-10kV-Wire
100
AcDbLine
 10
264.7490449496199
 20
891.2554852198423
 30
0.0
 11
276.7490449496199
 21
891.2554852198423
 31
0.0
  0
LINE
  5
820
330
1F
100
AcDbEntity
  8
DM-Ctrl-Wire
  6
DASHED
100
AcDbLine
 10
291.1490449496195
 20
818.0554866793496
 30
0.0
 11
291.1490449496195
 21
885.7697711906281
 31
0.0
  0
INSERT
  5
821
102
{ACAD_XDICTIONARY
360
822
102
}
330
1F
100
AcDbEntity
  8
DM-DXN-T-180
370
     0
100
AcDbBlockReference
  2
*U22
 10
234.7490449496199
 20
897.2554852198422
 30
0.0
 41
2.399999999999999
 42
2.399999999999999
 43
2.399999999999999
 50
180.0
  0
INSERT
  5
828
102
{ACAD_XDICTIONARY
360
829
102
}
330
1F
100
AcDbEntity
  8
DM-GND-180
370
     0
100
AcDbBlockReference
  2
*U27
 10
234.7490449496199
 20
935.6554852198419
 30
0.0
 41
2.399999999999999
 42
2.399999999999999
 43
2.399999999999999
 50
180.0
  0
LINE
  5
82F
330
1F
100
AcDbEntity
  8
DM-10kV-Wire
100
AcDbLine
 10
234.7490449496199
 20
891.2554852198423
 30
0.0
 11
234.7490449496199
 21
897.2554852198422
 31
0.0
  0
INSERT
  5
830
330
1F
100
AcDbEntity
  8
DM-Knife Switch
100
AcDbBlockReference
  2
DM-Knife Switch
 10
-1873.290863288007
 20
444.6794531826713
 30
0.0
 41
1.199999999999999
 42
1.199999999999999
 43
1.199999999999999
  0
INSERT
  5
831
102
{ACAD_XDICTIONARY
360
832
102
}
330
1F
100
AcDbEntity
  8
DM-GND-270
370
     0
100
AcDbBlockReference
  2
*U27
 10
249.1490404901979
 20
813.2554866793494
 30
0.0
 41
2.399999999999999
 42
2.399999999999999
 43
2.399999999999999
 50
270.0
  0
LINE
  5
838
330
1F
100
AcDbEntity
  8
DM-10kV-Wire
 48
0.1
100
AcDbLine
 10
264.7490465052333
 20
981.2554852198422
 30
0.0
 11
264.7490465052333
 21
1065.255485219843
 31
0.0
  0
LWPOLYLINE
  5
839
330
1F
100
AcDbEntity
  8
DM-Wireframe
  6
ACAD_ISO03W100
370
     0
100
AcDbPolyline
 90
        4
 70
     1
 43
0.0
 10
194.7490404901964
 20
1020.255486274677
 10
334.7490404901964
 20
1020.255486274677
 10
334.7490404901964
 20
727.2554862746769
 10
194.7490404901873
 20
727.2554862746769
  0
MTEXT
  5
83A
330
1F
100
AcDbEntity
  8
DM-Text
370
     0
100
AcDbMText
 10
663.9341394472848
 20
1024.745605969658
 30
0.0
 40
10.0
 41
51.58707615633011
 46
0.0
 71
     9
 72
     5
  1
G3
 73
     1
 44
1.0
1001
ACAD
1000
ACAD_MTEXT_COLUMN_INFO_BEGIN
1070
    75
1070
     2
1070
    79
1070
     0
1070
    76
1070
     1
1070
    78
1070
     0
1070
    48
1040
51.58707615633011
1070
    49
1040
12.5
1070
    50
1070
     1
1040
0.0
1000
ACAD_MTEXT_COLUMN_INFO_END
  0
MTEXT
  5
83B
330
1F
100
AcDbEntity
  8
DM-Text
370
     0
100
AcDbMText
 10
334.7490404901964
 20
1024.745605969658
 30
0.0
 40
10.0
 41
51.58707615633011
 46
0.0
 71
     9
 72
     5
  1
G4
 73
     1
 44
1.0
1001
ACAD
1000
ACAD_MTEXT_COLUMN_INFO_BEGIN
1070
    75
1070
     2
1070
    79
1070
     0
1070
    76
1070
     1
1070
    78
1070
     0
1070
    48
1040
51.58707615633011
1070
    49
1040
12.5
1070
    50
1070
     1
1040
0.0
1000
ACAD_MTEXT_COLUMN_INFO_END
  0
MTEXT
  5
83C
102
{ACAD_XDICTIONARY
360
83D
102
}
330
1F
100
AcDbEntity
  8
0
370
     0
100
AcDbMText
 10
1747.077462843903
 20
745.3652897435713
 30
0.0
 40
10.0
 41
71.5964643894531
 46
0.0
 71
     5
 72
     5
  1
{\fSimSun|b0|i0|c134|p2;2#进线柜}
 73
     1
 44
1.0
1001
ACAD
1000
ACAD_MTEXT_COLUMN_INFO_BEGIN
1070
    75
1070
     2
1070
    79
1070
     0
1070
    76
1070
     1
1070
    78
1070
     0
1070
    48
1040
71.5964643894531
1070
    49
1040
12.5
1070
    50
1070
     1
1040
0.0
1000
ACAD_MTEXT_COLUMN_INFO_END
  0
MTEXT
  5
83E
330
1F
100
AcDbEntity
  8
DM-0.4kV-Cable
100
AcDbMText
 10
1668.865816870077
 20
343.5700969246891
 30
0.0
 40
20.0
 41
608.1610215842665
 46
0.0
 71
     1
 72
     5
  1
{\fSimSun|b0|i0|c134|p2;注：现场柜子名称与柜子实际用途存在差异，如G4柜现场名称为变压器出线柜，实际为进线柜，G2柜现场名称为2#进线柜，实际为出线柜}
 73
     1
 44
1.0
1001
ACAD
1000
ACAD_MTEXT_COLUMN_INFO_BEGIN
1070
    75
1070
     2
1070
    79
1070
     0
1070
    76
1070
     1
1070
    78
1070
     0
1070
    48
1040
608.1610215842665
1070
    49
1040
100.0
1070
    50
1070
     1
1040
0.0
1000
ACAD_MTEXT_COLUMN_INFO_END
  0
ENDSEC
  0
SECTION
  2
OBJECTS
  0
DICTIONARY
  5
C
330
0
100
AcDbDictionary
281
     1
  3
ACAD_CIP_PREVIOUS_PRODUCT_INFO
350
216
  3
ACAD_COLOR
350
6B
  3
ACAD_DETAILVIEWSTYLE
350
21B
  3
ACAD_GROUP
350
D
  3
ACAD_LAYOUT
350
1A
  3
ACAD_MATERIAL
350
6A
  3
ACAD_MLEADERSTYLE
350
12D
  3
ACAD_MLINESTYLE
350
17
  3
ACAD_PLOTSETTINGS
350
19
  3
ACAD_PLOTSTYLENAME
350
E
  3
ACAD_SCALELIST
350
10C
  3
ACAD_SECTIONVIEWSTYLE
350
219
  3
ACAD_TABLESTYLE
350
7E
  3
ACAD_VISUALSTYLE
350
EF
  3
ACDB_RECOMPOSE_DATA
350
840
  3
AcDbVariableDictionary
350
5E
  3
AcDsDecomposeData
350
846
  0
DICTIONARY
  5
1FF
330
2
100
AcDbDictionary
280
     1
281
     1
  3
ACAD_LAYERSTATES
360
200
  0
DICTIONARY
  5
13C
330
10
100
AcDbDictionary
280
     1
281
     1
  0
DICTIONARY
  5
1CE
330
1F
100
AcDbDictionary
280
     1
281
     1
  0
DICTIONARY
  5
25F
330
25E
100
AcDbDictionary
280
     1
281
     1
  3
ACAD_ENHANCEDBLOCK
360
260
  3
AcDbDynamicBlockRoundTripPurgePreventer
360
262
  0
DICTIONARY
  5
26D
330
26C
100
AcDbDictionary
280
     1
281
     1
  3
ACAD_ENHANCEDBLOCK
360
26E
  3
AcDbDynamicBlockRoundTripPurgePreventer
360
270
  0
DICTIONARY
  5
279
330
278
100
AcDbDictionary
280
     1
281
     1
  3
ACAD_ENHANCEDBLOCK
360
27A
  3
AcDbDynamicBlockRoundTripPurgePreventer
360
27C
  0
DICTIONARY
  5
289
330
288
100
AcDbDictionary
280
     1
281
     1
  3
ACAD_ENHANCEDBLOCK
360
28A
  3
AcDbDynamicBlockRoundTripPurgePreventer
360
28C
  0
DICTIONARY
  5
295
330
294
100
AcDbDictionary
280
     1
281
     1
  3
ACAD_ENHANCEDBLOCK
360
296
  3
ACAD_SORTENTS
360
298
  3
AcDbDynamicBlockRoundTripPurgePreventer
360
299
  0
DICTIONARY
  5
2A9
330
2A8
100
AcDbDictionary
280
     1
281
     1
  3
ACAD_ENHANCEDBLOCK
360
2AA
  3
AcDbDynamicBlockRoundTripPurgePreventer
360
2AC
  0
DICTIONARY
  5
2C0
330
2BF
100
AcDbDictionary
280
     1
281
     1
  3
ACAD_ENHANCEDBLOCK
360
2C1
  3
AcDbDynamicBlockRoundTripPurgePreventer
360
2C3
  0
DICTIONARY
  5
2D7
330
2D6
100
AcDbDictionary
280
     1
281
     1
  3
ACAD_ENHANCEDBLOCK
360
2D8
  3
AcDbDynamicBlockRoundTripPurgePreventer
360
2DA
  0
DICTIONARY
  5
2E3
330
2E2
100
AcDbDictionary
280
     1
281
     1
  0
DICTIONARY
  5
2EE
330
2ED
100
AcDbDictionary
280
     1
281
     1
  0
DICTIONARY
  5
2F7
330
2F6
100
AcDbDictionary
280
     1
281
     1
  3
ACAD_SORTENTS
360
2F8
  0
DICTIONARY
  5
308
330
307
100
AcDbDictionary
280
     1
281
     1
  0
DICTIONARY
  5
31C
330
31B
100
AcDbDictionary
280
     1
281
     1
  0
DICTIONARY
  5
325
330
324
100
AcDbDictionary
280
     1
281
     1
  0
DICTIONARY
  5
32E
330
32D
100
AcDbDictionary
280
     1
281
     1
  0
DICTIONARY
  5
337
330
336
100
AcDbDictionary
280
     1
281
     1
  0
DICTIONARY
  5
340
330
33F
100
AcDbDictionary
280
     1
281
     1
  3
ACAD_ENHANCEDBLOCK
360
341
  3
AcDbDynamicBlockRoundTripPurgePreventer
360
343
  0
DICTIONARY
  5
34F
330
34E
100
AcDbDictionary
280
     1
281
     1
  0
DICTIONARY
  5
358
330
357
100
AcDbDictionary
280
     1
281
     1
  3
ACAD_ENHANCEDBLOCK
360
359
  3
AcDbDynamicBlockRoundTripPurgePreventer
360
35B
  0
DICTIONARY
  5
363
330
362
100
AcDbDictionary
280
     1
281
     1
  0
DICTIONARY
  5
36B
330
36A
100
AcDbDictionary
280
     1
281
     1
  0
DICTIONARY
  5
374
330
373
100
AcDbDictionary
280
     1
281
     1
  0
DICTIONARY
  5
388
330
387
100
AcDbDictionary
280
     1
281
     1
  0
DICTIONARY
  5
39C
330
39B
100
AcDbDictionary
280
     1
281
     1
  0
DICTIONARY
  5
3A5
330
3A4
100
AcDbDictionary
280
     1
281
     1
  0
DICTIONARY
  5
3AE
330
3AD
100
AcDbDictionary
280
     1
281
     1
  0
DICTIONARY
  5
3B7
330
3B6
100
AcDbDictionary
280
     1
281
     1
  0
DICTIONARY
  5
3C0
330
3BF
100
AcDbDictionary
280
     1
281
     1
  0
DICTIONARY
  5
3CD
330
3CC
100
AcDbDictionary
280
     1
281
     1
  0
DICTIONARY
  5
3DA
330
3D9
100
AcDbDictionary
280
     1
281
     1
  0
DICTIONARY
  5
3E6
330
3E5
100
AcDbDictionary
280
     1
281
     1
  0
DICTIONARY
  5
3EF
330
3EE
100
AcDbDictionary
280
     1
281
     1
  0
DICTIONARY
  5
3F8
330
3F7
100
AcDbDictionary
280
     1
281
     1
  0
DICTIONARY
  5
40C
330
40B
100
AcDbDictionary
280
     1
281
     1
  0
DICTIONARY
  5
415
330
414
100
AcDbDictionary
280
     1
281
     1
  0
DICTIONARY
  5
41E
330
41D
100
AcDbDictionary
280
     1
281
     1
  0
DICTIONARY
  5
427
330
426
100
AcDbDictionary
280
     1
281
     1
  0
DICTIONARY
  5
430
330
42F
100
AcDbDictionary
280
     1
281
     1
  3
ACAD_SORTENTS
360
431
  0
DICTIONARY
  5
441
330
440
100
AcDbDictionary
280
     1
281
     1
  0
DICTIONARY
  5
44A
330
449
100
AcDbDictionary
280
     1
281
     1
  0
DICTIONARY
  5
453
330
452
100
AcDbDictionary
280
     1
281
     1
  0
DICTIONARY
  5
45C
330
45B
100
AcDbDictionary
280
     1
281
     1
  0
DICTIONARY
  5
465
330
464
100
AcDbDictionary
280
     1
281
     1
  0
DICTIONARY
  5
677
330
676
100
AcDbDictionary
280
     1
281
     1
  3
AcDbBlockRepresentation
360
678
  0
DICTIONARY
  5
67E
330
67D
100
AcDbDictionary
280
     1
281
     1
  3
AcDbBlockRepresentation
360
67F
  0
DICTIONARY
  5
685
330
684
100
AcDbDictionary
280
     1
281
     1
  3
AcDbBlockRepresentation
360
686
  0
DICTIONARY
  5
68D
330
68C
100
AcDbDictionary
280
     1
281
     1
  3
AcDbBlockRepresentation
360
68E
  0
DICTIONARY
  5
695
330
694
100
AcDbDictionary
280
     1
281
     1
  3
AcDbBlockRepresentation
360
696
  0
DICTIONARY
  5
69C
330
69B
100
AcDbDictionary
280
     1
281
     1
  3
AcDbBlockRepresentation
360
69D
  0
DICTIONARY
  5
6A3
330
6A2
100
AcDbDictionary
280
     1
281
     1
  3
AcDbBlockRepresentation
360
6A4
  0
DICTIONARY
  5
6AA
330
6A9
100
AcDbDictionary
280
     1
281
     1
  3
AcDbBlockRepresentation
360
6AB
  0
DICTIONARY
  5
6B2
330
6B1
100
AcDbDictionary
280
     1
281
     1
  3
AcDbBlockRepresentation
360
6B3
  0
DICTIONARY
  5
6B9
330
6B8
100
AcDbDictionary
280
     1
281
     1
  3
AcDbBlockRepresentation
360
6BA
  0
DICTIONARY
  5
6C1
330
6C0
100
AcDbDictionary
280
     1
281
     1
  3
AcDbBlockRepresentation
360
6C2
  0
DICTIONARY
  5
6CF
330
6CE
100
AcDbDictionary
280
     1
281
     1
  3
AcDbBlockRepresentation
360
6D0
  0
DICTIONARY
  5
6D8
330
6D7
100
AcDbDictionary
280
     1
281
     1
  3
AcDbBlockRepresentation
360
6D9
  0
DICTIONARY
  5
6E0
330
6DF
100
AcDbDictionary
280
     1
281
     1
  3
AcDbBlockRepresentation
360
6E1
  0
DICTIONARY
  5
6F4
330
6F3
100
AcDbDictionary
280
     1
281
     1
  0
DICTIONARY
  5
6FF
330
6FE
100
AcDbDictionary
280
     1
281
     1
  0
DICTIONARY
  5
701
330
700
100
AcDbDictionary
280
     1
281
     1
  0
DICTIONARY
  5
707
330
706
100
AcDbDictionary
280
     1
281
     1
  0
DICTIONARY
  5
709
330
708
100
AcDbDictionary
280
     1
281
     1
  0
DICTIONARY
  5
70B
330
70A
100
AcDbDictionary
280
     1
281
     1
  0
DICTIONARY
  5
70D
330
70C
100
AcDbDictionary
280
     1
281
     1
  0
DICTIONARY
  5
70F
330
70E
100
AcDbDictionary
280
     1
281
     1
  0
DICTIONARY
  5
711
330
710
100
AcDbDictionary
280
     1
281
     1
  0
DICTIONARY
  5
713
330
712
100
AcDbDictionary
280
     1
281
     1
  3
AcDbBlockRepresentation
360
714
  0
DICTIONARY
  5
71A
330
719
100
AcDbDictionary
280
     1
281
     1
  3
AcDbBlockRepresentation
360
71B
  0
DICTIONARY
  5
728
330
727
100
AcDbDictionary
280
     1
281
     1
  3
AcDbBlockRepresentation
360
729
  0
DICTIONARY
  5
72F
330
72E
100
AcDbDictionary
280
     1
281
     1
  3
AcDbBlockRepresentation
360
730
  0
DICTIONARY
  5
736
330
735
100
AcDbDictionary
280
     1
281
     1
  3
AcDbBlockRepresentation
360
737
  0
DICTIONARY
  5
73F
330
73E
100
AcDbDictionary
280
     1
281
     1
  3
AcDbBlockRepresentation
360
740
  0
DICTIONARY
  5
746
330
745
100
AcDbDictionary
280
     1
281
     1
  3
AcDbBlockRepresentation
360
747
  0
DICTIONARY
  5
74D
330
74C
100
AcDbDictionary
280
     1
281
     1
  3
AcDbBlockRepresentation
360
74E
  0
DICTIONARY
  5
754
330
753
100
AcDbDictionary
280
     1
281
     1
  3
AcDbBlockRepresentation
360
755
  0
DICTIONARY
  5
75B
330
75A
100
AcDbDictionary
280
     1
281
     1
  3
AcDbBlockRepresentation
360
75C
  0
DICTIONARY
  5
762
330
761
100
AcDbDictionary
280
     1
281
     1
  3
AcDbBlockRepresentation
360
763
  0
DICTIONARY
  5
769
330
768
100
AcDbDictionary
280
     1
281
     1
  3
AcDbBlockRepresentation
360
76A
  0
DICTIONARY
  5
770
330
76F
100
AcDbDictionary
280
     1
281
     1
  3
AcDbBlockRepresentation
360
771
  0
DICTIONARY
  5
777
330
776
100
AcDbDictionary
280
     1
281
     1
  3
AcDbBlockRepresentation
360
778
  0
DICTIONARY
  5
783
330
782
100
AcDbDictionary
280
     1
281
     1
  3
AcDbBlockRepresentation
360
784
  0
DICTIONARY
  5
78A
330
789
100
AcDbDictionary
280
     1
281
     1
  3
AcDbBlockRepresentation
360
78B
  0
DICTIONARY
  5
791
330
790
100
AcDbDictionary
280
     1
281
     1
  3
AcDbBlockRepresentation
360
792
  0
DICTIONARY
  5
79A
330
799
100
AcDbDictionary
280
     1
281
     1
  3
AcDbBlockRepresentation
360
79B
  0
DICTIONARY
  5
7A1
330
7A0
100
AcDbDictionary
280
     1
281
     1
  3
AcDbBlockRepresentation
360
7A2
  0
DICTIONARY
  5
7A8
330
7A7
100
AcDbDictionary
280
     1
281
     1
  3
AcDbBlockRepresentation
360
7A9
  0
DICTIONARY
  5
7AF
330
7AE
100
AcDbDictionary
280
     1
281
     1
  3
AcDbBlockRepresentation
360
7B0
  0
DICTIONARY
  5
7B6
330
7B5
100
AcDbDictionary
280
     1
281
     1
  3
AcDbBlockRepresentation
360
7B7
  0
DICTIONARY
  5
7BD
330
7BC
100
AcDbDictionary
280
     1
281
     1
  3
AcDbBlockRepresentation
360
7BE
  0
DICTIONARY
  5
7C4
330
7C3
100
AcDbDictionary
280
     1
281
     1
  3
AcDbBlockRepresentation
360
7C5
  0
DICTIONARY
  5
7CB
330
7CA
100
AcDbDictionary
280
     1
281
     1
  3
AcDbBlockRepresentation
360
7CC
  0
DICTIONARY
  5
7D4
330
7D3
100
AcDbDictionary
280
     1
281
     1
  3
AcDbBlockRepresentation
360
7D5
  0
DICTIONARY
  5
7DD
330
7DC
100
AcDbDictionary
280
     1
281
     1
  3
AcDbBlockRepresentation
360
7DE
  0
DICTIONARY
  5
7EA
330
7E9
100
AcDbDictionary
280
     1
281
     1
  3
AcDbBlockRepresentation
360
7EB
  0
DICTIONARY
  5
7F1
330
7F0
100
AcDbDictionary
280
     1
281
     1
  3
AcDbBlockRepresentation
360
7F2
  0
DICTIONARY
  5
7FA
330
7F9
100
AcDbDictionary
280
     1
281
     1
  3
AcDbBlockRepresentation
360
7FB
  0
DICTIONARY
  5
803
330
802
100
AcDbDictionary
280
     1
281
     1
  3
AcDbBlockRepresentation
360
804
  0
DICTIONARY
  5
80C
330
80B
100
AcDbDictionary
280
     1
281
     1
  3
AcDbBlockRepresentation
360
80D
  0
DICTIONARY
  5
815
330
814
100
AcDbDictionary
280
     1
281
     1
  3
AcDbBlockRepresentation
360
816
  0
DICTIONARY
  5
822
330
821
100
AcDbDictionary
280
     1
281
     1
  3
AcDbBlockRepresentation
360
823
  0
DICTIONARY
  5
829
330
828
100
AcDbDictionary
280
     1
281
     1
  3
AcDbBlockRepresentation
360
82A
  0
DICTIONARY
  5
832
330
831
100
AcDbDictionary
280
     1
281
     1
  3
AcDbBlockRepresentation
360
833
  0
DICTIONARY
  5
83D
330
83C
100
AcDbDictionary
280
     1
281
     1
  0
XRECORD
  5
216
102
{ACAD_REACTORS
330
C
102
}
330
C
100
AcDbXrecord
280
     1
300
ACD
300
2016
300
ACD_F_S
  0
DICTIONARY
  5
6B
102
{ACAD_REACTORS
330
C
102
}
330
C
100
AcDbDictionary
281
     1
  0
DICTIONARY
  5
21B
102
{ACAD_REACTORS
330
C
102
}
330
C
100
AcDbDictionary
281
     1
  3
Metric50
350
21C
  0
DICTIONARY
  5
D
102
{ACAD_REACTORS
330
C
102
}
330
C
100
AcDbDictionary
281
     1
  0
DICTIONARY
  5
1A
102
{ACAD_REACTORS
330
C
102
}
330
C
100
AcDbDictionary
281
     1
  3
Model
350
22
  3
布局1
350
D3
  3
布局2
350
D7
  0
DICTIONARY
  5
6A
102
{ACAD_REACTORS
330
C
102
}
330
C
100
AcDbDictionary
281
     1
  3
ByBlock
350
ED
  3
ByLayer
350
EC
  3
Global
350
EE
  0
DICTIONARY
  5
12D
102
{ACAD_REACTORS
330
C
102
}
330
C
100
AcDbDictionary
281
     1
  3
Annotative
350
13B
  3
Standard
350
12E
  0
DICTIONARY
  5
17
102
{ACAD_REACTORS
330
C
102
}
330
C
100
AcDbDictionary
281
     1
  3
Standard
350
18
  0
DICTIONARY
  5
19
102
{ACAD_REACTORS
330
C
102
}
330
C
100
AcDbDictionary
281
     1
  0
ACDBDICTIONARYWDFLT
  5
E
102
{ACAD_REACTORS
330
C
102
}
330
C
100
AcDbDictionary
281
     1
  3
Normal
350
F
100
AcDbDictionaryWithDefault
340
F
  0
DICTIONARY
  5
10C
102
{ACAD_REACTORS
330
C
102
}
330
C
100
AcDbDictionary
281
     1
  3
A0
350
10D
  3
A1
350
1BE
  3
A2
350
1BF
  3
A3
350
1C0
  3
A4
350
1C1
  3
A5
350
1C2
  3
A6
350
1C3
  3
A7
350
1C4
  3
A8
350
1C5
  3
A9
350
1C6
  3
B0
350
1C7
  3
B1
350
1C8
  3
B2
350
1C9
  3
B3
350
1CA
  3
B4
350
1CB
  3
B5
350
1CC
  3
B6
350
1CD
  0
DICTIONARY
  5
219
102
{ACAD_REACTORS
330
C
102
}
330
C
100
AcDbDictionary
281
     1
  3
Metric50
350
21A
  0
DICTIONARY
  5
7E
102
{ACAD_REACTORS
330
C
102
}
330
C
100
AcDbDictionary
281
     1
  3
Standard
350
7F
  0
DICTIONARY
  5
EF
102
{ACAD_REACTORS
330
C
102
}
330
C
100
AcDbDictionary
281
     1
  3
2dWireframe
350
F5
  3
Basic
350
F4
  3
Brighten
350
FB
  3
ColorChange
350
FF
  3
Conceptual
350
F8
  3
Dim
350
FA
  3
EdgeColorOff
350
1E6
  3
Facepattern
350
FE
  3
Flat
350
F0
  3
FlatWithEdges
350
F1
  3
Gouraud
350
F2
  3
GouraudWithEdges
350
F3
  3
Hidden
350
F7
  3
JitterOff
350
1E4
  3
Linepattern
350
FD
  3
OverhangOff
350
1E5
  3
Realistic
350
F9
  3
Shaded
350
1F3
  3
Shaded with edges
350
1F2
  3
Shades of Gray
350
1EF
  3
Sketchy
350
1F0
  3
Thicken
350
FC
  3
Wireframe
350
F6
  3
X-Ray
350
1F1
  0
XRECORD
  5
840
102
{ACAD_REACTORS
330
C
102
}
330
C
100
AcDbXrecord
280
     1
 90
        1
330
7F
330
672
330
673
330
68B
330
6C9
330
6D5
330
6E7
330
6E8
330
6E9
330
6EE
330
6EF
330
6F0
330
6F3
330
6F8
330
6FE
330
700
330
703
330
704
330
705
330
706
330
708
330
70A
330
70C
330
70E
330
710
330
724
330
781
330
83A
330
83B
330
83C
330
83E
  0
DICTIONARY
  5
5E
102
{ACAD_REACTORS
330
C
102
}
330
C
100
AcDbDictionary
281
     1
  3
CANNOSCALE
350
146
  3
CMLEADERSTYLE
350
145
  3
CTABLESTYLE
350
84
  3
CVIEWDETAILSTYLE
350
227
  3
CVIEWSECTIONSTYLE
350
228
  3
DIMASSOC
350
5F
  3
HIDETEXT
350
63
  3
LAYEREVAL
350
1AE
  3
LAYERNOTIFY
350
1AF
  0
DICTIONARY
  5
846
102
{ACAD_REACTORS
330
C
102
}
330
C
100
AcDbDictionary
281
     1
  3
AcDsRecords
350
848
  3
AcDsSchemas
350
847
1001
ACAD
1070
     2
  0
DICTIONARY
  5
200
102
{ACAD_REACTORS
330
1FF
102
}
330
1FF
100
AcDbDictionary
281
     1
  0
ACAD_EVALUATION_GRAPH
  5
260
102
{ACAD_REACTORS
330
25F
102
}
330
25F
100
AcDbEvalGraph
 96
        1
 97
        1
 91
        0
 93
       32
 95
        1
360
261
 92
       -1
 92
       -1
 92
       -1
 92
       -1
  0
ACDB_DYNAMICBLOCKPURGEPREVENTER_VERSION
  5
262
102
{ACAD_REACTORS
330
25F
102
}
330
25F
100
AcDbDynamicBlockPurgePreventer
 70
     1
  0
ACAD_EVALUATION_GRAPH
  5
26E
102
{ACAD_REACTORS
330
26D
102
}
330
26D
100
AcDbEvalGraph
 96
        3
 97
        3
 91
        0
 93
       32
 95
        3
360
26F
 92
       -1
 92
       -1
 92
       -1
 92
       -1
  0
ACDB_DYNAMICBLOCKPURGEPREVENTER_VERSION
  5
270
102
{ACAD_REACTORS
330
26D
102
}
330
26D
100
AcDbDynamicBlockPurgePreventer
 70
     1
  0
ACAD_EVALUATION_GRAPH
  5
27A
102
{ACAD_REACTORS
330
279
102
}
330
279
100
AcDbEvalGraph
 96
        1
 97
        1
 91
        0
 93
       32
 95
        1
360
27B
 92
       -1
 92
       -1
 92
       -1
 92
       -1
  0
ACDB_DYNAMICBLOCKPURGEPREVENTER_VERSION
  5
27C
102
{ACAD_REACTORS
330
279
102
}
330
279
100
AcDbDynamicBlockPurgePreventer
 70
     1
  0
ACAD_EVALUATION_GRAPH
  5
28A
102
{ACAD_REACTORS
330
289
102
}
330
289
100
AcDbEvalGraph
 96
        1
 97
        1
 91
        0
 93
       32
 95
        1
360
28B
 92
       -1
 92
       -1
 92
       -1
 92
       -1
  0
ACDB_DYNAMICBLOCKPURGEPREVENTER_VERSION
  5
28C
102
{ACAD_REACTORS
330
289
102
}
330
289
100
AcDbDynamicBlockPurgePreventer
 70
     1
  0
ACAD_EVALUATION_GRAPH
  5
296
102
{ACAD_REACTORS
330
295
102
}
330
295
100
AcDbEvalGraph
 96
        2
 97
        2
 91
        0
 93
       32
 95
        2
360
297
 92
       -1
 92
       -1
 92
       -1
 92
       -1
  0
SORTENTSTABLE
  5
298
102
{ACAD_REACTORS
330
295
102
}
330
295
100
AcDbSortentsTable
330
294
  0
ACDB_DYNAMICBLOCKPURGEPREVENTER_VERSION
  5
299
102
{ACAD_REACTORS
330
295
102
}
330
295
100
AcDbDynamicBlockPurgePreventer
 70
     1
  0
ACAD_EVALUATION_GRAPH
  5
2AA
102
{ACAD_REACTORS
330
2A9
102
}
330
2A9
100
AcDbEvalGraph
 96
        2
 97
        2
 91
        0
 93
       32
 95
        2
360
2AB
 92
       -1
 92
       -1
 92
       -1
 92
       -1
  0
ACDB_DYNAMICBLOCKPURGEPREVENTER_VERSION
  5
2AC
102
{ACAD_REACTORS
330
2A9
102
}
330
2A9
100
AcDbDynamicBlockPurgePreventer
 70
     1
  0
ACAD_EVALUATION_GRAPH
  5
2C1
102
{ACAD_REACTORS
330
2C0
102
}
330
2C0
100
AcDbEvalGraph
 96
        1
 97
        1
 91
        0
 93
       32
 95
        1
360
2C2
 92
       -1
 92
       -1
 92
       -1
 92
       -1
  0
ACDB_DYNAMICBLOCKPURGEPREVENTER_VERSION
  5
2C3
102
{ACAD_REACTORS
330
2C0
102
}
330
2C0
100
AcDbDynamicBlockPurgePreventer
 70
     1
  0
ACAD_EVALUATION_GRAPH
  5
2D8
102
{ACAD_REACTORS
330
2D7
102
}
330
2D7
100
AcDbEvalGraph
 96
        1
 97
        1
 91
        0
 93
       32
 95
        1
360
2D9
 92
       -1
 92
       -1
 92
       -1
 92
       -1
  0
ACDB_DYNAMICBLOCKPURGEPREVENTER_VERSION
  5
2DA
102
{ACAD_REACTORS
330
2D7
102
}
330
2D7
100
AcDbDynamicBlockPurgePreventer
 70
     1
  0
SORTENTSTABLE
  5
2F8
102
{ACAD_REACTORS
330
2F7
102
}
330
2F7
100
AcDbSortentsTable
330
2F6
  0
ACAD_EVALUATION_GRAPH
  5
341
102
{ACAD_REACTORS
330
340
102
}
330
340
100
AcDbEvalGraph
 96
        1
 97
        1
 91
        0
 93
       32
 95
        1
360
342
 92
       -1
 92
       -1
 92
       -1
 92
       -1
  0
ACDB_DYNAMICBLOCKPURGEPREVENTER_VERSION
  5
343
102
{ACAD_REACTORS
330
340
102
}
330
340
100
AcDbDynamicBlockPurgePreventer
 70
     1
  0
ACAD_EVALUATION_GRAPH
  5
359
102
{ACAD_REACTORS
330
358
102
}
330
358
100
AcDbEvalGraph
 96
        1
 97
        1
 91
        0
 93
       32
 95
        1
360
35A
 92
       -1
 92
       -1
 92
       -1
 92
       -1
  0
ACDB_DYNAMICBLOCKPURGEPREVENTER_VERSION
  5
35B
102
{ACAD_REACTORS
330
358
102
}
330
358
100
AcDbDynamicBlockPurgePreventer
 70
     1
  0
SORTENTSTABLE
  5
431
102
{ACAD_REACTORS
330
430
102
}
330
430
100
AcDbSortentsTable
330
42F
  0
DICTIONARY
  5
678
102
{ACAD_REACTORS
330
677
102
}
330
677
100
AcDbDictionary
280
     1
281
     1
  3
AcDbRepData
360
679
  3
AppDataCache
360
67A
  0
DICTIONARY
  5
67F
102
{ACAD_REACTORS
330
67E
102
}
330
67E
100
AcDbDictionary
280
     1
281
     1
  3
AcDbRepData
360
680
  3
AppDataCache
360
681
  0
DICTIONARY
  5
686
102
{ACAD_REACTORS
330
685
102
}
330
685
100
AcDbDictionary
280
     1
281
     1
  3
AcDbRepData
360
687
  3
AppDataCache
360
688
  0
DICTIONARY
  5
68E
102
{ACAD_REACTORS
330
68D
102
}
330
68D
100
AcDbDictionary
280
     1
281
     1
  3
AcDbRepData
360
68F
  3
AppDataCache
360
690
  0
DICTIONARY
  5
696
102
{ACAD_REACTORS
330
695
102
}
330
695
100
AcDbDictionary
280
     1
281
     1
  3
AcDbRepData
360
697
  3
AppDataCache
360
698
  0
DICTIONARY
  5
69D
102
{ACAD_REACTORS
330
69C
102
}
330
69C
100
AcDbDictionary
280
     1
281
     1
  3
AcDbRepData
360
69E
  3
AppDataCache
360
69F
  0
DICTIONARY
  5
6A4
102
{ACAD_REACTORS
330
6A3
102
}
330
6A3
100
AcDbDictionary
280
     1
281
     1
  3
AcDbRepData
360
6A5
  3
AppDataCache
360
6A6
  0
DICTIONARY
  5
6AB
102
{ACAD_REACTORS
330
6AA
102
}
330
6AA
100
AcDbDictionary
280
     1
281
     1
  3
AcDbRepData
360
6AC
  3
AppDataCache
360
6AD
  0
DICTIONARY
  5
6B3
102
{ACAD_REACTORS
330
6B2
102
}
330
6B2
100
AcDbDictionary
280
     1
281
     1
  3
AcDbRepData
360
6B4
  3
AppDataCache
360
6B5
  0
DICTIONARY
  5
6BA
102
{ACAD_REACTORS
330
6B9
102
}
330
6B9
100
AcDbDictionary
280
     1
281
     1
  3
AcDbRepData
360
6BB
  3
AppDataCache
360
6BC
  0
DICTIONARY
  5
6C2
102
{ACAD_REACTORS
330
6C1
102
}
330
6C1
100
AcDbDictionary
280
     1
281
     1
  3
AcDbRepData
360
6C3
  3
AppDataCache
360
6C4
  0
DICTIONARY
  5
6D0
102
{ACAD_REACTORS
330
6CF
102
}
330
6CF
100
AcDbDictionary
280
     1
281
     1
  3
AcDbRepData
360
6D1
  3
AppDataCache
360
6D2
  0
DICTIONARY
  5
6D9
102
{ACAD_REACTORS
330
6D8
102
}
330
6D8
100
AcDbDictionary
280
     1
281
     1
  3
AcDbRepData
360
6DA
  3
AppDataCache
360
6DB
  0
DICTIONARY
  5
6E1
102
{ACAD_REACTORS
330
6E0
102
}
330
6E0
100
AcDbDictionary
280
     1
281
     1
  3
AcDbRepData
360
6E2
  3
AppDataCache
360
6E3
  0
DICTIONARY
  5
714
102
{ACAD_REACTORS
330
713
102
}
330
713
100
AcDbDictionary
280
     1
281
     1
  3
AcDbRepData
360
715
  3
AppDataCache
360
716
  0
DICTIONARY
  5
71B
102
{ACAD_REACTORS
330
71A
102
}
330
71A
100
AcDbDictionary
280
     1
281
     1
  3
AcDbRepData
360
71C
  3
AppDataCache
360
71D
  0
DICTIONARY
  5
729
102
{ACAD_REACTORS
330
728
102
}
330
728
100
AcDbDictionary
280
     1
281
     1
  3
AcDbRepData
360
72A
  3
AppDataCache
360
72B
  0
DICTIONARY
  5
730
102
{ACAD_REACTORS
330
72F
102
}
330
72F
100
AcDbDictionary
280
     1
281
     1
  3
AcDbRepData
360
731
  3
AppDataCache
360
732
  0
DICTIONARY
  5
737
102
{ACAD_REACTORS
330
736
102
}
330
736
100
AcDbDictionary
280
     1
281
     1
  3
AcDbRepData
360
738
  3
AppDataCache
360
739
  0
DICTIONARY
  5
740
102
{ACAD_REACTORS
330
73F
102
}
330
73F
100
AcDbDictionary
280
     1
281
     1
  3
AcDbRepData
360
741
  3
AppDataCache
360
742
  0
DICTIONARY
  5
747
102
{ACAD_REACTORS
330
746
102
}
330
746
100
AcDbDictionary
280
     1
281
     1
  3
AcDbRepData
360
748
  3
AppDataCache
360
749
  0
DICTIONARY
  5
74E
102
{ACAD_REACTORS
330
74D
102
}
330
74D
100
AcDbDictionary
280
     1
281
     1
  3
AcDbRepData
360
74F
  3
AppDataCache
360
750
  0
DICTIONARY
  5
755
102
{ACAD_REACTORS
330
754
102
}
330
754
100
AcDbDictionary
280
     1
281
     1
  3
AcDbRepData
360
756
  3
AppDataCache
360
757
  0
DICTIONARY
  5
75C
102
{ACAD_REACTORS
330
75B
102
}
330
75B
100
AcDbDictionary
280
     1
281
     1
  3
AcDbRepData
360
75D
  3
AppDataCache
360
75E
  0
DICTIONARY
  5
763
102
{ACAD_REACTORS
330
762
102
}
330
762
100
AcDbDictionary
280
     1
281
     1
  3
AcDbRepData
360
764
  3
AppDataCache
360
765
  0
DICTIONARY
  5
76A
102
{ACAD_REACTORS
330
769
102
}
330
769
100
AcDbDictionary
280
     1
281
     1
  3
AcDbRepData
360
76B
  3
AppDataCache
360
76C
  0
DICTIONARY
  5
771
102
{ACAD_REACTORS
330
770
102
}
330
770
100
AcDbDictionary
280
     1
281
     1
  3
AcDbRepData
360
772
  3
AppDataCache
360
773
  0
DICTIONARY
  5
778
102
{ACAD_REACTORS
330
777
102
}
330
777
100
AcDbDictionary
280
     1
281
     1
  3
AcDbRepData
360
779
  3
AppDataCache
360
77A
  0
DICTIONARY
  5
784
102
{ACAD_REACTORS
330
783
102
}
330
783
100
AcDbDictionary
280
     1
281
     1
  3
AcDbRepData
360
785
  3
AppDataCache
360
786
  0
DICTIONARY
  5
78B
102
{ACAD_REACTORS
330
78A
102
}
330
78A
100
AcDbDictionary
280
     1
281
     1
  3
AcDbRepData
360
78C
  3
AppDataCache
360
78D
  0
DICTIONARY
  5
792
102
{ACAD_REACTORS
330
791
102
}
330
791
100
AcDbDictionary
280
     1
281
     1
  3
AcDbRepData
360
793
  3
AppDataCache
360
794
  0
DICTIONARY
  5
79B
102
{ACAD_REACTORS
330
79A
102
}
330
79A
100
AcDbDictionary
280
     1
281
     1
  3
AcDbRepData
360
79C
  3
AppDataCache
360
79D
  0
DICTIONARY
  5
7A2
102
{ACAD_REACTORS
330
7A1
102
}
330
7A1
100
AcDbDictionary
280
     1
281
     1
  3
AcDbRepData
360
7A3
  3
AppDataCache
360
7A4
  0
DICTIONARY
  5
7A9
102
{ACAD_REACTORS
330
7A8
102
}
330
7A8
100
AcDbDictionary
280
     1
281
     1
  3
AcDbRepData
360
7AA
  3
AppDataCache
360
7AB
  0
DICTIONARY
  5
7B0
102
{ACAD_REACTORS
330
7AF
102
}
330
7AF
100
AcDbDictionary
280
     1
281
     1
  3
AcDbRepData
360
7B1
  3
AppDataCache
360
7B2
  0
DICTIONARY
  5
7B7
102
{ACAD_REACTORS
330
7B6
102
}
330
7B6
100
AcDbDictionary
280
     1
281
     1
  3
AcDbRepData
360
7B8
  3
AppDataCache
360
7B9
  0
DICTIONARY
  5
7BE
102
{ACAD_REACTORS
330
7BD
102
}
330
7BD
100
AcDbDictionary
280
     1
281
     1
  3
AcDbRepData
360
7BF
  3
AppDataCache
360
7C0
  0
DICTIONARY
  5
7C5
102
{ACAD_REACTORS
330
7C4
102
}
330
7C4
100
AcDbDictionary
280
     1
281
     1
  3
AcDbRepData
360
7C6
  3
AppDataCache
360
7C7
  0
DICTIONARY
  5
7CC
102
{ACAD_REACTORS
330
7CB
102
}
330
7CB
100
AcDbDictionary
280
     1
281
     1
  3
AcDbRepData
360
7CD
  3
AppDataCache
360
7CE
  0
DICTIONARY
  5
7D5
102
{ACAD_REACTORS
330
7D4
102
}
330
7D4
100
AcDbDictionary
280
     1
281
     1
  3
AcDbRepData
360
7D6
  3
AppDataCache
360
7D7
  0
DICTIONARY
  5
7DE
102
{ACAD_REACTORS
330
7DD
102
}
330
7DD
100
AcDbDictionary
280
     1
281
     1
  3
AcDbRepData
360
7DF
  3
AppDataCache
360
7E0
  0
DICTIONARY
  5
7EB
102
{ACAD_REACTORS
330
7EA
102
}
330
7EA
100
AcDbDictionary
280
     1
281
     1
  3
AcDbRepData
360
7EC
  3
AppDataCache
360
7ED
  0
DICTIONARY
  5
7F2
102
{ACAD_REACTORS
330
7F1
102
}
330
7F1
100
AcDbDictionary
280
     1
281
     1
  3
AcDbRepData
360
7F3
  3
AppDataCache
360
7F4
  0
DICTIONARY
  5
7FB
102
{ACAD_REACTORS
330
7FA
102
}
330
7FA
100
AcDbDictionary
280
     1
281
     1
  3
AcDbRepData
360
7FC
  3
AppDataCache
360
7FD
  0
DICTIONARY
  5
804
102
{ACAD_REACTORS
330
803
102
}
330
803
100
AcDbDictionary
280
     1
281
     1
  3
AcDbRepData
360
805
  3
AppDataCache
360
806
  0
DICTIONARY
  5
80D
102
{ACAD_REACTORS
330
80C
102
}
330
80C
100
AcDbDictionary
280
     1
281
     1
  3
AcDbRepData
360
80E
  3
AppDataCache
360
80F
  0
DICTIONARY
  5
816
102
{ACAD_REACTORS
330
815
102
}
330
815
100
AcDbDictionary
280
     1
281
     1
  3
AcDbRepData
360
817
  3
AppDataCache
360
818
  0
DICTIONARY
  5
823
102
{ACAD_REACTORS
330
822
102
}
330
822
100
AcDbDictionary
280
     1
281
     1
  3
AcDbRepData
360
824
  3
AppDataCache
360
825
  0
DICTIONARY
  5
82A
102
{ACAD_REACTORS
330
829
102
}
330
829
100
AcDbDictionary
280
     1
281
     1
  3
AcDbRepData
360
82B
  3
AppDataCache
360
82C
  0
DICTIONARY
  5
833
102
{ACAD_REACTORS
330
832
102
}
330
832
100
AcDbDictionary
280
     1
281
     1
  3
AcDbRepData
360
834
  3
AppDataCache
360
835
  0
ACDBDETAILVIEWSTYLE
  5
21C
102
{ACAD_XDICTIONARY
360
236
102
}
102
{ACAD_REACTORS
330
21B
102
}
330
21B
100
AcDbModelDocViewStyle
 70
     0
  3
Metric50
290
     0
100
AcDbDetailViewStyle
 70
     0
 71
     0
 90
        3
 71
     1
340
11
 62
   256
 40
5.0
340
0
 62
   256
 40
5.0
300

 40
0.0
280
     1
 71
     2
340
16
 90
       25
 62
   256
 71
     3
340
11
 62
   256
 40
5.0
 90
        0
 40
15.0
 90
        1
300
%<\AcVar ViewDetailId>% (%<\AcVar ViewScale \f "%sn">%)
 71
     4
340
16
 90
       25
 62
   256
340
16
 90
       25
 62
   256
280
     0
  0
LAYOUT
  5
22
102
{ACAD_XDICTIONARY
360
205
102
}
102
{ACAD_REACTORS
330
1A
102
}
330
1A
100
AcDbPlotSettings
  1

  2
none_device
  4
ISO_A4_(210.00_x_297.00_MM)
  6

 40
7.5
 41
20.0
 42
7.5
 43
20.0
 44
210.0
 45
297.0
 46
11.54999923706054
 47
-13.65000009536743
 48
0.0
 49
0.0
140
0.0
141
0.0
142
1.0
143
8.704084754739808
 70
 11952
 72
     1
 73
     0
 74
     0
  7

 75
     0
147
0.1148885871608098
 76
     0
 77
     2
 78
   300
148
0.0
149
0.0
100
AcDbLayout
  1
Model
 70
     1
 71
     0
 10
0.0
 20
0.0
 11
12.0
 21
9.0
 12
0.0
 22
0.0
 32
0.0
 14
0.0
 24
0.0
 34
0.0
 15
0.0
 25
0.0
 35
0.0
146
0.0
 13
0.0
 23
0.0
 33
0.0
 16
1.0
 26
0.0
 36
0.0
 17
0.0
 27
1.0
 37
0.0
 76
     0
330
1F
331
EA
1001
ACAD_PSEXT
1000
None
1000
None
1000
Not applicable
1000
The layout will not be plotted unless a new plotter configuration name is selected.
1070
     0
  0
LAYOUT
  5
D3
102
{ACAD_REACTORS
330
1A
102
}
330
1A
100
AcDbPlotSettings
  1

  2
C:\Documents and Settings\basas\Application Data\Autodesk\AutoCAD 2005\R16.1\enu\plotters\Default Windows System Printer.pc3
  4

  6

 40
0.0
 41
0.0
 42
0.0
 43
0.0
 44
0.0
 45
0.0
 46
0.0
 47
0.0
 48
0.0
 49
0.0
140
0.0
141
0.0
142
1.0
143
1.0
 70
   688
 72
     0
 73
     0
 74
     5
  7

 75
    16
147
1.0
 76
     0
 77
     2
 78
   300
148
0.0
149
0.0
100
AcDbLayout
  1
布局1
 70
     1
 71
     1
 10
0.0
 20
0.0
 11
12.0
 21
9.0
 12
0.0
 22
0.0
 32
0.0
 14
0.0
 24
0.0
 34
0.0
 15
0.0
 25
0.0
 35
0.0
146
0.0
 13
0.0
 23
0.0
 33
0.0
 16
1.0
 26
0.0
 36
0.0
 17
0.0
 27
1.0
 37
0.0
 76
     0
330
D2
  0
LAYOUT
  5
D7
102
{ACAD_REACTORS
330
1A
102
}
330
1A
100
AcDbPlotSettings
  1

  2
C:\Documents and Settings\basas\Application Data\Autodesk\AutoCAD 2005\R16.1\enu\plotters\Default Windows System Printer.pc3
  4

  6

 40
0.0
 41
0.0
 42
0.0
 43
0.0
 44
0.0
 45
0.0
 46
0.0
 47
0.0
 48
0.0
 49
0.0
140
0.0
141
0.0
142
1.0
143
1.0
 70
   688
 72
     0
 73
     0
 74
     5
  7

 75
    16
147
1.0
 76
     0
 77
     2
 78
   300
148
0.0
149
0.0
100
AcDbLayout
  1
布局2
 70
     1
 71
     2
 10
0.0
 20
0.0
 11
12.0
 21
9.0
 12
0.0
 22
0.0
 32
0.0
 14
0.0
 24
0.0
 34
0.0
 15
0.0
 25
0.0
 35
0.0
146
0.0
 13
0.0
 23
0.0
 33
0.0
 16
1.0
 26
0.0
 36
0.0
 17
0.0
 27
1.0
 37
0.0
 76
     0
330
D6
  0
MATERIAL
  5
ED
102
{ACAD_XDICTIONARY
360
1F9
102
}
102
{ACAD_REACTORS
330
6A
102
}
330
6A
100
AcDbMaterial
  1
ByBlock
 94
       63
  0
MATERIAL
  5
EC
102
{ACAD_XDICTIONARY
360
1F7
102
}
102
{ACAD_REACTORS
330
6A
102
}
330
6A
100
AcDbMaterial
  1
ByLayer
 94
       63
  0
MATERIAL
  5
EE
102
{ACAD_XDICTIONARY
360
173
102
}
102
{ACAD_REACTORS
330
6A
102
}
330
6A
100
AcDbMaterial
  1
Global
 43
0.0007999999797903
 43
0.0
 43
0.0
 43
0.0
 43
0.0
 43
0.0007999999797903
 43
0.0
 43
0.0
 43
0.0
 43
0.0
 43
1.0
 43
0.0
 43
0.0
 43
0.0
 43
0.0
 43
1.0
 49
0.0007999999797903
 49
0.0
 49
0.0
 49
0.0
 49
0.0
 49
0.0007999999797903
 49
0.0
 49
0.0
 49
0.0
 49
0.0
 49
1.0
 49
0.0
 49
0.0
 49
0.0
 49
0.0
 49
1.0
142
0.0007999999797903
142
0.0
142
0.0
142
0.0
142
0.0
142
0.0007999999797903
142
0.0
142
0.0
142
0.0
142
0.0
142
1.0
142
0.0
142
0.0
142
0.0
142
0.0
142
1.0
144
0.0007999999797903
144
0.0
144
0.0
144
0.0
144
0.0
144
0.0007999999797903
144
0.0
144
0.0
144
0.0
144
0.0
144
1.0
144
0.0
144
0.0
144
0.0
144
0.0
144
1.0
 94
       63
1001
ACAD
1070
    -1
1070
     3
1070
     0
1000

1071
        0
1070
     0
  0
MLEADERSTYLE
  5
13B
102
{ACAD_REACTORS
330
12D
102
}
330
12D
100
AcDbMLeaderStyle
179
     2
170
     2
171
     1
172
     0
 90
        2
 40
0.0
 41
0.0
173
     1
 91
-1056964608
340
14
 92
       -2
290
     1
 42
2.0
291
     1
 43
8.0
  3
Standard
 44
4.0
300

342
11
174
     1
178
     1
175
     1
176
     0
 93
-1056964608
 45
4.0
292
     0
297
     0
 46
4.0
 94
-1056964608
 47
1.0
 49
1.0
140
1.0
293
     1
141
0.0
294
     1
177
     0
142
1.0
295
     0
296
     1
143
3.75
271
     0
272
     9
273
     9
  0
MLEADERSTYLE
  5
12E
102
{ACAD_REACTORS
330
12D
102
}
330
12D
100
AcDbMLeaderStyle
179
     2
170
     2
171
     1
172
     0
 90
        2
 40
0.0
 41
0.0
173
     1
 91
-1056964608
340
14
 92
       -2
290
     1
 42
2.0
291
     1
 43
8.0
  3
Standard
 44
4.0
300

342
11
174
     1
178
     1
175
     1
176
     0
 93
-1056964608
 45
4.0
292
     0
297
     0
 46
4.0
 94
-1056964608
 47
1.0
 49
1.0
140
1.0
293
     1
141
0.0
294
     1
177
     0
142
1.0
295
     0
296
     0
143
3.75
271
     0
272
     9
273
     9
  0
MLINESTYLE
  5
18
102
{ACAD_REACTORS
330
17
102
}
330
17
100
AcDbMlineStyle
  2
STANDARD
 70
     0
  3

 62
   256
 51
90.0
 52
90.0
 71
     2
 49
0.5
 62
   256
  6
BYLAYER
 49
-0.5
 62
   256
  6
BYLAYER
  0
ACDBPLACEHOLDER
  5
F
102
{ACAD_REACTORS
330
E
102
}
330
E
  0
SCALE
  5
10D
102
{ACAD_REACTORS
330
10C
102
}
330
10C
100
AcDbScale
 70
     0
300
1:1
140
1.0
141
1.0
290
     1
  0
SCALE
  5
1BE
102
{ACAD_REACTORS
330
10C
102
}
330
10C
100
AcDbScale
 70
     0
300
1:2
140
1.0
141
2.0
290
     0
  0
SCALE
  5
1BF
102
{ACAD_REACTORS
330
10C
102
}
330
10C
100
AcDbScale
 70
     0
300
1:4
140
1.0
141
4.0
290
     0
  0
SCALE
  5
1C0
102
{ACAD_REACTORS
330
10C
102
}
330
10C
100
AcDbScale
 70
     0
300
1:5
140
1.0
141
5.0
290
     0
  0
SCALE
  5
1C1
102
{ACAD_REACTORS
330
10C
102
}
330
10C
100
AcDbScale
 70
     0
300
1:8
140
1.0
141
8.0
290
     0
  0
SCALE
  5
1C2
102
{ACAD_REACTORS
330
10C
102
}
330
10C
100
AcDbScale
 70
     0
300
1:10
140
1.0
141
10.0
290
     0
  0
SCALE
  5
1C3
102
{ACAD_REACTORS
330
10C
102
}
330
10C
100
AcDbScale
 70
     0
300
1:16
140
1.0
141
16.0
290
     0
  0
SCALE
  5
1C4
102
{ACAD_REACTORS
330
10C
102
}
330
10C
100
AcDbScale
 70
     0
300
1:20
140
1.0
141
20.0
290
     0
  0
SCALE
  5
1C5
102
{ACAD_REACTORS
330
10C
102
}
330
10C
100
AcDbScale
 70
     0
300
1:30
140
1.0
141
30.0
290
     0
  0
SCALE
  5
1C6
102
{ACAD_REACTORS
330
10C
102
}
330
10C
100
AcDbScale
 70
     0
300
1:40
140
1.0
141
40.0
290
     0
  0
SCALE
  5
1C7
102
{ACAD_REACTORS
330
10C
102
}
330
10C
100
AcDbScale
 70
     0
300
1:50
140
1.0
141
50.0
290
     0
  0
SCALE
  5
1C8
102
{ACAD_REACTORS
330
10C
102
}
330
10C
100
AcDbScale
 70
     0
300
1:100
140
1.0
141
100.0
290
     0
  0
SCALE
  5
1C9
102
{ACAD_REACTORS
330
10C
102
}
330
10C
100
AcDbScale
 70
     0
300
2:1
140
2.0
141
1.0
290
     0
  0
SCALE
  5
1CA
102
{ACAD_REACTORS
330
10C
102
}
330
10C
100
AcDbScale
 70
     0
300
4:1
140
4.0
141
1.0
290
     0
  0
SCALE
  5
1CB
102
{ACAD_REACTORS
330
10C
102
}
330
10C
100
AcDbScale
 70
     0
300
8:1
140
8.0
141
1.0
290
     0
  0
SCALE
  5
1CC
102
{ACAD_REACTORS
330
10C
102
}
330
10C
100
AcDbScale
 70
     0
300
10:1
140
10.0
141
1.0
290
     0
  0
SCALE
  5
1CD
102
{ACAD_REACTORS
330
10C
102
}
330
10C
100
AcDbScale
 70
     0
300
100:1
140
100.0
141
1.0
290
     0
  0
ACDBSECTIONVIEWSTYLE
  5
21A
102
{ACAD_XDICTIONARY
360
234
102
}
102
{ACAD_REACTORS
330
219
102
}
330
219
100
AcDbModelDocViewStyle
 70
     0
  3
Metric50
290
     0
100
AcDbSectionViewStyle
 70
     0
 71
     0
 90
      102
 71
     1
340
11
 62
   256
 40
5.0
340
0
340
0
 62
   256
 40
5.0
300
I, O, Q, S, X, Z
 40
10.0
 90
        0
 40
2.5
 90
        0
 71
     2
340
16
 90
       25
 62
   256
340
16
 90
       50
 62
   256
 40
5.0
 40
2.5
 40
5.0
 71
     3
340
11
 62
   256
 40
5.0
 90
        0
 40
15.0
 90
        1
300
%<\AcVar ViewSectionStartId>%-%<\AcVar ViewSectionEndId>% (%<\AcVar ViewScale \f "%sn">%)
 71
     4
 62
   256
 62
   257
300
ANSI31
 40
1.0
 90
        0
290
     0
290
     0
 90
        6
 40
0.0
 40
1.570796326794896
 40
0.2617993877991494
 40
1.308996938995747
 40
-0.2617993877991494
 40
1.832595714594046
  0
TABLESTYLE
  5
7F
102
{ACAD_XDICTIONARY
360
162
102
}
102
{ACAD_REACTORS
330
7E
102
}
330
7E
100
AcDbTableStyle
280
     0
  3
Standard
 70
     0
 71
     0
 40
1.5
 41
1.5
280
     0
281
     0
  7
Standard
140
4.5
170
     2
 62
     0
 63
     7
283
     0
 90
      512
 91
        0
  1

274
    -2
284
     1
 64
     0
275
    -2
285
     1
 65
     0
276
    -2
286
     1
 66
     0
277
    -2
287
     1
 67
     0
278
    -2
288
     1
 68
     0
279
    -2
289
     1
 69
     0
  7
Standard
140
6.0
170
     5
 62
     0
 63
     7
283
     0
 90
      512
 91
        0
  1

274
    -2
284
     1
 64
     0
275
    -2
285
     1
 65
     0
276
    -2
286
     1
 66
     0
277
    -2
287
     1
 67
     0
278
    -2
288
     1
 68
     0
279
    -2
289
     1
 69
     0
  7
Standard
140
4.5
170
     5
 62
     0
 63
     7
283
     0
 90
      512
 91
        0
  1

274
    -2
284
     1
 64
     0
275
    -2
285
     1
 65
     0
276
    -2
286
     1
 66
     0
277
    -2
287
     1
 67
     0
278
    -2
288
     1
 68
     0
279
    -2
289
     1
 69
     0
  0
VISUALSTYLE
  5
F5
102
{ACAD_XDICTIONARY
360
853
102
}
102
{ACAD_REACTORS
330
EF
102
}
330
EF
100
AcDbVisualStyle
  2
2dWireframe
 70
     4
177
     2
291
     0
 71
     0
176
     1
 72
     2
176
     1
 73
     1
176
     1
 90
        0
176
     1
 40
0.6
176
     1
 41
30.0
176
     1
 63
     7
421
 16777215
176
     1
 74
     1
176
     1
 91
        4
176
     1
 64
     7
176
     1
 65
   257
176
     1
 75
     1
176
     1
175
     1
176
     1
 42
1.0
176
     1
 92
        0
176
     1
 66
   257
176
     1
 43
1.0
176
     1
 76
     1
176
     1
 77
     6
176
     1
 78
     2
176
     1
 67
     7
176
     1
 79
     5
176
     1
170
     0
176
     1
171
     0
176
     1
290
     0
176
     1
 93
        1
176
     1
 44
0.0
176
     1
173
     0
176
     1
1001
ACAD
1000
AcDbSavedByObjectVersion
1070
     0
  0
VISUALSTYLE
  5
F4
102
{ACAD_XDICTIONARY
360
851
102
}
102
{ACAD_REACTORS
330
EF
102
}
330
EF
100
AcDbVisualStyle
  2
Basic
 70
     7
177
     2
291
     1
 71
     1
176
     1
 72
     0
176
     1
 73
     1
176
     1
 90
        0
176
     1
 40
0.6
176
     1
 41
30.0
176
     1
 63
     7
421
 16777215
176
     1
 74
     0
176
     1
 91
        4
176
     1
 64
     7
176
     1
 65
   257
176
     1
 75
     1
176
     1
175
     1
176
     1
 42
1.0
176
     1
 92
        8
176
     1
 66
     7
176
     1
 43
1.0
176
     1
 76
     1
176
     1
 77
     6
176
     1
 78
     2
176
     1
 67
     7
176
     1
 79
     5
176
     1
170
     0
176
     1
171
     0
176
     1
290
     0
176
     1
 93
        1
176
     1
 44
0.0
176
     1
173
     0
176
     1
1001
ACAD
1000
AcDbSavedByObjectVersion
1070
     0
  0
VISUALSTYLE
  5
FB
102
{ACAD_XDICTIONARY
360
85F
102
}
102
{ACAD_REACTORS
330
EF
102
}
330
EF
100
AcDbVisualStyle
  2
Brighten
 70
    12
177
     2
291
     1
 71
     2
176
     1
 72
     2
176
     1
 73
     1
176
     1
 90
        0
176
     1
 40
0.6
176
     1
 41
30.0
176
     1
 63
     7
421
 16777215
176
     1
 74
     1
176
     1
 91
        4
176
     1
 64
     7
176
     1
 65
   257
176
     1
 75
     1
176
     1
175
     1
176
     1
 42
1.0
176
     1
 92
        8
176
     1
 66
     7
176
     1
 43
1.0
176
     1
 76
     1
176
     1
 77
     6
176
     1
 78
     2
176
     1
 67
     7
176
     1
 79
     5
176
     1
170
     0
176
     1
171
     0
176
     1
290
     0
176
     1
 93
        1
176
     1
 44
50.0
176
     1
173
     0
176
     1
1001
ACAD
1000
AcDbSavedByObjectVersion
1070
     0
  0
VISUALSTYLE
  5
FF
102
{ACAD_XDICTIONARY
360
867
102
}
102
{ACAD_REACTORS
330
EF
102
}
330
EF
100
AcDbVisualStyle
  2
ColorChange
 70
    16
177
     2
291
     1
 71
     2
176
     1
 72
     2
176
     1
 73
     3
176
     1
 90
        0
176
     1
 40
0.6
176
     1
 41
30.0
176
     1
 63
     8
421
  8421504
176
     1
 74
     1
176
     1
 91
        4
176
     1
 64
     7
176
     1
 65
   257
176
     1
 75
     1
176
     1
175
     1
176
     1
 42
1.0
176
     1
 92
        8
176
     1
 66
     8
424
  8421504
176
     1
 43
1.0
176
     1
 76
     1
176
     1
 77
     6
176
     1
 78
     2
176
     1
 67
     7
176
     1
 79
     5
176
     1
170
     0
176
     1
171
     0
176
     1
290
     0
176
     1
 93
        1
176
     1
 44
0.0
176
     1
173
     0
176
     1
1001
ACAD
1000
AcDbSavedByObjectVersion
1070
     0
  0
VISUALSTYLE
  5
F8
102
{ACAD_XDICTIONARY
360
859
102
}
102
{ACAD_REACTORS
330
EF
102
}
330
EF
100
AcDbVisualStyle
  2
Conceptual
 70
     9
177
     2
291
     0
 71
     3
176
     1
 72
     2
176
     1
 73
     1
176
     1
 90
        0
176
     1
 40
0.6
176
     1
 41
30.0
176
     1
 63
     7
421
 16777215
176
     1
 74
     2
176
     1
 91
        2
176
     1
 64
     7
176
     1
 65
   257
176
     1
 75
     1
176
     1
175
     1
176
     1
 42
40.0
176
     1
 92
        8
176
     1
 66
     7
176
     1
 43
1.0
176
     1
 76
     1
176
     1
 77
     6
176
     1
 78
     2
176
     1
 67
     7
176
     1
 79
     3
176
     1
170
     0
176
     1
171
     0
176
     1
290
     0
176
     1
 93
        1
176
     1
 44
0.0
176
     1
173
     0
176
     1
1001
ACAD
1000
AcDbSavedByObjectVersion
1070
     0
  0
VISUALSTYLE
  5
FA
102
{ACAD_XDICTIONARY
360
85D
102
}
102
{ACAD_REACTORS
330
EF
102
}
330
EF
100
AcDbVisualStyle
  2
Dim
 70
    11
177
     2
291
     1
 71
     2
176
     1
 72
     2
176
     1
 73
     1
176
     1
 90
        0
176
     1
 40
0.6
176
     1
 41
30.0
176
     1
 63
     7
421
 16777215
176
     1
 74
     1
176
     1
 91
        4
176
     1
 64
     7
176
     1
 65
   257
176
     1
 75
     1
176
     1
175
     1
176
     1
 42
1.0
176
     1
 92
        8
176
     1
 66
     7
176
     1
 43
1.0
176
     1
 76
     1
176
     1
 77
     6
176
     1
 78
     2
176
     1
 67
     7
176
     1
 79
     5
176
     1
170
     0
176
     1
171
     0
176
     1
290
     0
176
     1
 93
        1
176
     1
 44
-50.0
176
     1
173
     0
176
     1
1001
ACAD
1000
AcDbSavedByObjectVersion
1070
     0
  0
VISUALSTYLE
  5
1E6
102
{ACAD_XDICTIONARY
360
86D
102
}
102
{ACAD_REACTORS
330
EF
102
}
330
EF
100
AcDbVisualStyle
  2
EdgeColorOff
 70
    22
177
     2
291
     1
 71
     2
176
     0
 72
     2
176
     0
 73
     0
176
     0
 90
        0
176
     0
 40
0.6
176
     0
 41
30.0
176
     0
 63
     7
421
 16777215
176
     0
 74
     1
176
     0
 91
        4
176
     0
 64
     7
176
     0
 65
   257
176
     0
 75
     1
176
     0
175
     1
176
     0
 42
1.0
176
     0
 92
        8
176
     2
 66
     7
176
     0
 43
1.0
176
     0
 76
     1
176
     0
 77
     6
176
     0
 78
     2
176
     0
 67
     7
176
     0
 79
     5
176
     0
170
     0
176
     0
171
     0
176
     0
290
     0
176
     0
 93
        1
176
     0
 44
0.0
176
     0
173
     0
176
     0
1001
ACAD
1000
AcDbSavedByObjectVersion
1070
     0
  0
VISUALSTYLE
  5
FE
102
{ACAD_XDICTIONARY
360
865
102
}
102
{ACAD_REACTORS
330
EF
102
}
330
EF
100
AcDbVisualStyle
  2
Facepattern
 70
    15
177
     2
291
     1
 71
     2
176
     1
 72
     2
176
     1
 73
     1
176
     1
 90
        0
176
     1
 40
0.6
176
     1
 41
30.0
176
     1
 63
     7
421
 16777215
176
     1
 74
     1
176
     1
 91
        4
176
     1
 64
     7
176
     1
 65
   257
176
     1
 75
     1
176
     1
175
     1
176
     1
 42
1.0
176
     1
 92
        8
176
     1
 66
     7
176
     1
 43
1.0
176
     1
 76
     1
176
     1
 77
     6
176
     1
 78
     2
176
     1
 67
     7
176
     1
 79
     5
176
     1
170
     0
176
     1
171
     0
176
     1
290
     0
176
     1
 93
        1
176
     1
 44
0.0
176
     1
173
     0
176
     1
1001
ACAD
1000
AcDbSavedByObjectVersion
1070
     0
  0
VISUALSTYLE
  5
F0
102
{ACAD_XDICTIONARY
360
849
102
}
102
{ACAD_REACTORS
330
EF
102
}
330
EF
100
AcDbVisualStyle
  2
Flat
 70
     0
177
     2
291
     1
 71
     2
176
     1
 72
     1
176
     1
 73
     1
176
     1
 90
        2
176
     1
 40
0.6
176
     1
 41
30.0
176
     1
 63
     7
421
 16777215
176
     1
 74
     0
176
     1
 91
        0
176
     1
 64
     7
176
     1
 65
   257
176
     1
 75
     1
176
     1
175
     1
176
     1
 42
1.0
176
     1
 92
        8
176
     1
 66
     7
176
     1
 43
1.0
176
     1
 76
     1
176
     1
 77
     6
176
     1
 78
     2
176
     1
 67
     7
176
     1
 79
     5
176
     1
170
     0
176
     1
171
     0
176
     1
290
     0
176
     1
 93
       13
176
     1
 44
0.0
176
     1
173
     0
176
     1
1001
ACAD
1000
AcDbSavedByObjectVersion
1070
     0
  0
VISUALSTYLE
  5
F1
102
{ACAD_XDICTIONARY
360
84B
102
}
102
{ACAD_REACTORS
330
EF
102
}
330
EF
100
AcDbVisualStyle
  2
FlatWithEdges
 70
     1
177
     2
291
     1
 71
     2
176
     1
 72
     1
176
     1
 73
     1
176
     1
 90
        2
176
     1
 40
0.6
176
     1
 41
30.0
176
     1
 63
     7
421
 16777215
176
     1
 74
     1
176
     1
 91
        0
176
     1
 64
     7
176
     1
 65
   257
176
     1
 75
     1
176
     1
175
     1
176
     1
 42
1.0
176
     1
 92
        0
176
     1
 66
   257
176
     1
 43
1.0
176
     1
 76
     1
176
     1
 77
     6
176
     1
 78
     2
176
     1
 67
     7
176
     1
 79
     5
176
     1
170
     0
176
     1
171
     0
176
     1
290
     0
176
     1
 93
       13
176
     1
 44
0.0
176
     1
173
     0
176
     1
1001
ACAD
1000
AcDbSavedByObjectVersion
1070
     0
  0
VISUALSTYLE
  5
F2
102
{ACAD_XDICTIONARY
360
84D
102
}
102
{ACAD_REACTORS
330
EF
102
}
330
EF
100
AcDbVisualStyle
  2
Gouraud
 70
     2
177
     2
291
     1
 71
     2
176
     1
 72
     2
176
     1
 73
     1
176
     1
 90
        2
176
     1
 40
0.6
176
     1
 41
30.0
176
     1
 63
     7
421
 16777215
176
     1
 74
     0
176
     1
 91
        0
176
     1
 64
     7
176
     1
 65
   257
176
     1
 75
     1
176
     1
175
     1
176
     1
 42
1.0
176
     1
 92
        0
176
     1
 66
     7
176
     1
 43
1.0
176
     1
 76
     1
176
     1
 77
     6
176
     1
 78
     2
176
     1
 67
     7
176
     1
 79
     5
176
     1
170
     0
176
     1
171
     0
176
     1
290
     0
176
     1
 93
       13
176
     1
 44
0.0
176
     1
173
     0
176
     1
1001
ACAD
1000
AcDbSavedByObjectVersion
1070
     0
  0
VISUALSTYLE
  5
F3
102
{ACAD_XDICTIONARY
360
84F
102
}
102
{ACAD_REACTORS
330
EF
102
}
330
EF
100
AcDbVisualStyle
  2
GouraudWithEdges
 70
     3
177
     2
291
     1
 71
     2
176
     1
 72
     2
176
     1
 73
     1
176
     1
 90
        2
176
     1
 40
0.6
176
     1
 41
30.0
176
     1
 63
     7
421
 16777215
176
     1
 74
     1
176
     1
 91
        0
176
     1
 64
     7
176
     1
 65
   257
176
     1
 75
     1
176
     1
175
     1
176
     1
 42
1.0
176
     1
 92
        0
176
     1
 66
   257
176
     1
 43
1.0
176
     1
 76
     1
176
     1
 77
     6
176
     1
 78
     2
176
     1
 67
     7
176
     1
 79
     5
176
     1
170
     0
176
     1
171
     0
176
     1
290
     0
176
     1
 93
       13
176
     1
 44
0.0
176
     1
173
     0
176
     1
1001
ACAD
1000
AcDbSavedByObjectVersion
1070
     0
  0
VISUALSTYLE
  5
F7
102
{ACAD_XDICTIONARY
360
857
102
}
102
{ACAD_REACTORS
330
EF
102
}
330
EF
100
AcDbVisualStyle
  2
Hidden
 70
     6
177
     2
291
     0
 71
     1
176
     1
 72
     2
176
     1
 73
     2
176
     1
 90
        0
176
     1
 40
0.6
176
     1
 41
30.0
176
     1
 63
     7
421
 16777215
176
     1
 74
     2
176
     1
 91
        2
176
     1
 64
     7
176
     1
 65
   257
176
     1
 75
     2
176
     1
175
     1
176
     1
 42
40.0
176
     1
 92
        0
176
     1
 66
   257
176
     1
 43
1.0
176
     1
 76
     1
176
     1
 77
     6
176
     1
 78
     2
176
     1
 67
     7
176
     1
 79
     3
176
     1
170
     0
176
     1
171
     0
176
     1
290
     0
176
     1
 93
        1
176
     1
 44
0.0
176
     1
173
     0
176
     1
1001
ACAD
1000
AcDbSavedByObjectVersion
1070
     0
  0
VISUALSTYLE
  5
1E4
102
{ACAD_XDICTIONARY
360
869
102
}
102
{ACAD_REACTORS
330
EF
102
}
330
EF
100
AcDbVisualStyle
  2
JitterOff
 70
    20
177
     2
291
     1
 71
     2
176
     0
 72
     2
176
     0
 73
     0
176
     0
 90
        0
176
     0
 40
0.6
176
     0
 41
30.0
176
     0
 63
     7
421
 16777215
176
     0
 74
     1
176
     0
 91
        4
176
     0
 64
     7
176
     0
 65
   257
176
     0
 75
     1
176
     0
175
     1
176
     0
 42
1.0
176
     0
 92
       10
176
     2
 66
     7
176
     0
 43
1.0
176
     0
 76
     1
176
     0
 77
     6
176
     0
 78
     2
176
     0
 67
     7
176
     0
 79
     5
176
     0
170
     0
176
     0
171
     0
176
     0
290
     0
176
     0
 93
        1
176
     0
 44
0.0
176
     0
173
     0
176
     0
1001
ACAD
1000
AcDbSavedByObjectVersion
1070
     0
  0
VISUALSTYLE
  5
FD
102
{ACAD_XDICTIONARY
360
863
102
}
102
{ACAD_REACTORS
330
EF
102
}
330
EF
100
AcDbVisualStyle
  2
Linepattern
 70
    14
177
     2
291
     1
 71
     2
176
     1
 72
     2
176
     1
 73
     1
176
     1
 90
        0
176
     1
 40
0.6
176
     1
 41
30.0
176
     1
 63
     7
421
 16777215
176
     1
 74
     1
176
     1
 91
        4
176
     1
 64
     7
176
     1
 65
   257
176
     1
 75
     7
176
     1
175
     7
176
     1
 42
1.0
176
     1
 92
        8
176
     1
 66
     7
176
     1
 43
1.0
176
     1
 76
     1
176
     1
 77
     6
176
     1
 78
     2
176
     1
 67
     7
176
     1
 79
     5
176
     1
170
     0
176
     1
171
     0
176
     1
290
     0
176
     1
 93
        1
176
     1
 44
0.0
176
     1
173
     0
176
     1
1001
ACAD
1000
AcDbSavedByObjectVersion
1070
     0
  0
VISUALSTYLE
  5
1E5
102
{ACAD_XDICTIONARY
360
86B
102
}
102
{ACAD_REACTORS
330
EF
102
}
330
EF
100
AcDbVisualStyle
  2
OverhangOff
 70
    21
177
     2
291
     1
 71
     2
176
     0
 72
     2
176
     0
 73
     0
176
     0
 90
        0
176
     0
 40
0.6
176
     0
 41
30.0
176
     0
 63
     7
421
 16777215
176
     0
 74
     1
176
     0
 91
        4
176
     0
 64
     7
176
     0
 65
   257
176
     0
 75
     1
176
     0
175
     1
176
     0
 42
1.0
176
     0
 92
        9
176
     2
 66
     7
176
     0
 43
1.0
176
     0
 76
     1
176
     0
 77
     6
176
     0
 78
     2
176
     0
 67
     7
176
     0
 79
     5
176
     0
170
     0
176
     0
171
     0
176
     0
290
     0
176
     0
 93
        1
176
     0
 44
0.0
176
     0
173
     0
176
     0
1001
ACAD
1000
AcDbSavedByObjectVersion
1070
     0
  0
VISUALSTYLE
  5
F9
102
{ACAD_XDICTIONARY
360
85B
102
}
102
{ACAD_REACTORS
330
EF
102
}
330
EF
100
AcDbVisualStyle
  2
Realistic
 70
     8
177
     2
291
     0
 71
     2
176
     1
 72
     3
176
     1
 73
     0
176
     1
 90
        2
176
     1
 40
0.6
176
     1
 41
30.0
176
     1
 63
     7
421
 16777215
176
     1
 74
     0
176
     1
 91
        0
176
     1
 64
     7
176
     1
 65
   257
176
     1
 75
     1
176
     1
175
     1
176
     1
 42
1.0
176
     1
 92
        8
176
     1
 66
   257
176
     1
 43
1.0
176
     1
 76
     1
176
     1
 77
     6
176
     1
 78
     2
176
     1
 67
     7
176
     1
 79
     3
176
     1
170
     0
176
     1
171
     0
176
     1
290
     0
176
     1
 93
       13
176
     1
 44
0.0
176
     1
173
     0
176
     1
1001
ACAD
1000
AcDbSavedByObjectVersion
1070
     0
  0
VISUALSTYLE
  5
1F3
102
{ACAD_XDICTIONARY
360
877
102
}
102
{ACAD_REACTORS
330
EF
102
}
330
EF
100
AcDbVisualStyle
  2
Shaded
 70
    27
177
     2
291
     0
 71
     2
176
     1
 72
     2
176
     1
 73
     1
176
     1
 90
        2
176
     1
 40
0.6
176
     1
 41
30.0
176
     1
 63
     7
421
 16777215
176
     1
 74
     0
176
     1
 91
        4
176
     1
 64
     7
176
     1
 65
   257
176
     1
 75
     1
176
     1
175
     1
176
     1
 42
1.0
176
     1
 92
        8
176
     1
 66
   257
176
     1
 43
1.0
176
     1
 76
     1
176
     1
 77
     6
176
     1
 78
     2
176
     1
 67
     8
425
  7895160
176
     1
 79
     3
176
     1
170
     0
176
     1
171
     0
176
     1
290
     0
176
     1
 93
        5
176
     1
 44
0.0
176
     1
173
     0
176
     1
1001
ACAD
1000
AcDbSavedByObjectVersion
1070
     0
  0
VISUALSTYLE
  5
1F2
102
{ACAD_XDICTIONARY
360
875
102
}
102
{ACAD_REACTORS
330
EF
102
}
330
EF
100
AcDbVisualStyle
  2
Shaded with edges
 70
    26
177
     2
291
     0
 71
     2
176
     1
 72
     2
176
     1
 73
     1
176
     1
 90
        2
176
     1
 40
0.6
176
     1
 41
30.0
176
     1
 63
     7
421
 16777215
176
     1
 74
     1
176
     1
 91
       10
176
     1
 64
     7
176
     1
 65
   257
176
     1
 75
     2
176
     1
175
     1
176
     1
 42
1.0
176
     1
 92
        8
176
     1
 66
   257
176
     1
 43
1.0
176
     1
 76
     1
176
     1
 77
     6
176
     1
 78
     2
176
     1
 67
     7
176
     1
 79
     3
176
     1
170
     0
176
     1
171
     0
176
     1
290
     0
176
     1
 93
        5
176
     1
 44
0.0
176
     1
173
     0
176
     1
1001
ACAD
1000
AcDbSavedByObjectVersion
1070
     0
  0
VISUALSTYLE
  5
1EF
102
{ACAD_XDICTIONARY
360
86F
102
}
102
{ACAD_REACTORS
330
EF
102
}
330
EF
100
AcDbVisualStyle
  2
Shades of Gray
 70
    23
177
     2
291
     0
 71
     2
176
     1
 72
     2
176
     1
 73
     3
176
     1
 90
        0
176
     1
 40
0.6
176
     1
 41
30.0
176
     1
 63
     7
421
 16777215
176
     1
 74
     2
176
     1
 91
        2
176
     1
 64
     7
176
     1
 65
     7
176
     1
 75
     1
176
     1
175
     1
176
     1
 42
40.0
176
     1
 92
        8
176
     1
 66
     7
176
     1
 43
1.0
176
     1
 76
     1
176
     1
 77
     6
176
     1
 78
     2
176
     1
 67
     7
176
     1
 79
     3
176
     1
170
     0
176
     1
171
     0
176
     1
290
     0
176
     1
 93
        1
176
     1
 44
0.0
176
     1
173
     0
176
     1
1001
ACAD
1000
AcDbSavedByObjectVersion
1070
     0
  0
VISUALSTYLE
  5
1F0
102
{ACAD_XDICTIONARY
360
871
102
}
102
{ACAD_REACTORS
330
EF
102
}
330
EF
100
AcDbVisualStyle
  2
Sketchy
 70
    24
177
     2
291
     0
 71
     1
176
     1
 72
     2
176
     1
 73
     2
176
     1
 90
        0
176
     1
 40
0.6
176
     1
 41
30.0
176
     1
 63
     7
421
 16777215
176
     1
 74
     2
176
     1
 91
        2
176
     1
 64
     7
176
     1
 65
     7
176
     1
 75
     1
176
     1
175
     1
176
     1
 42
40.0
176
     1
 92
       11
176
     1
 66
     7
176
     1
 43
1.0
176
     1
 76
     1
176
     1
 77
     6
176
     1
 78
     2
176
     1
 67
     7
176
     1
 79
     6
176
     1
170
     0
176
     1
171
     0
176
     1
290
     0
176
     1
 93
        1
176
     1
 44
0.0
176
     1
173
     0
176
     1
1001
ACAD
1000
AcDbSavedByObjectVersion
1070
     0
  0
VISUALSTYLE
  5
FC
102
{ACAD_XDICTIONARY
360
861
102
}
102
{ACAD_REACTORS
330
EF
102
}
330
EF
100
AcDbVisualStyle
  2
Thicken
 70
    13
177
     2
291
     1
 71
     2
176
     1
 72
     2
176
     1
 73
     1
176
     1
 90
        0
176
     1
 40
0.6
176
     1
 41
30.0
176
     1
 63
     7
421
 16777215
176
     1
 74
     1
176
     1
 91
        4
176
     1
 64
     7
176
     1
 65
   257
176
     1
 75
     1
176
     1
175
     1
176
     1
 42
1.0
176
     1
 92
       12
176
     1
 66
     7
176
     1
 43
1.0
176
     1
 76
     1
176
     1
 77
     6
176
     1
 78
     2
176
     1
 67
     7
176
     1
 79
     5
176
     1
170
     0
176
     1
171
     0
176
     1
290
     0
176
     1
 93
        1
176
     1
 44
0.0
176
     1
173
     0
176
     1
1001
ACAD
1000
AcDbSavedByObjectVersion
1070
     0
  0
VISUALSTYLE
  5
F6
102
{ACAD_XDICTIONARY
360
855
102
}
102
{ACAD_REACTORS
330
EF
102
}
330
EF
100
AcDbVisualStyle
  2
Wireframe
 70
     5
177
     2
291
     0
 71
     0
176
     1
 72
     2
176
     1
 73
     0
176
     1
 90
        0
176
     1
 40
0.6
176
     1
 41
30.0
176
     1
 63
     7
421
 16777215
176
     1
 74
     1
176
     1
 91
        4
176
     1
 64
     7
176
     1
 65
   257
176
     1
 75
     1
176
     1
175
     1
176
     1
 42
1.0
176
     1
 92
        0
176
     1
 66
   257
176
     1
 43
1.0
176
     1
 76
     1
176
     1
 77
     6
176
     1
 78
     2
176
     1
 67
     7
176
     1
 79
     3
176
     1
170
     0
176
     1
171
     0
176
     1
290
     0
176
     1
 93
        1
176
     1
 44
0.0
176
     1
173
     0
176
     1
1001
ACAD
1000
AcDbSavedByObjectVersion
1070
     0
  0
VISUALSTYLE
  5
1F1
102
{ACAD_XDICTIONARY
360
873
102
}
102
{ACAD_REACTORS
330
EF
102
}
330
EF
100
AcDbVisualStyle
  2
X-Ray
 70
    25
177
     2
291
     0
 71
     2
176
     1
 72
     2
176
     1
 73
     1
176
     1
 90
        1
176
     1
 40
0.5
176
     1
 41
30.0
176
     1
 63
     7
421
 16777215
176
     1
 74
     1
176
     1
 91
        0
176
     1
 64
     7
176
     1
 65
   257
176
     1
 75
     1
176
     1
175
     1
176
     1
 42
1.0
176
     1
 92
        8
176
     1
 66
     7
176
     1
 43
1.0
176
     1
 76
     1
176
     1
 77
     6
176
     1
 78
     2
176
     1
 67
     7
176
     1
 79
     3
176
     1
170
     0
176
     1
171
     0
176
     1
290
     0
176
     1
 93
       13
176
     1
 44
0.0
176
     1
173
     0
176
     1
1001
ACAD
1000
AcDbSavedByObjectVersion
1070
     0
  0
DICTIONARYVAR
  5
146
102
{ACAD_REACTORS
330
5E
102
}
330
5E
100
DictionaryVariables
280
     0
  1
1:1
  0
DICTIONARYVAR
  5
145
102
{ACAD_REACTORS
330
5E
102
}
330
5E
100
DictionaryVariables
280
     0
  1
STANDARD
  0
DICTIONARYVAR
  5
84
102
{ACAD_REACTORS
330
5E
102
}
330
5E
100
DictionaryVariables
280
     0
  1
STANDARD
  0
DICTIONARYVAR
  5
227
102
{ACAD_REACTORS
330
5E
102
}
330
5E
100
DictionaryVariables
280
     0
  1
Metric50
  0
DICTIONARYVAR
  5
228
102
{ACAD_REACTORS
330
5E
102
}
330
5E
100
DictionaryVariables
280
     0
  1
Metric50
  0
DICTIONARYVAR
  5
5F
102
{ACAD_REACTORS
330
5E
102
}
330
5E
100
DictionaryVariables
280
     0
  1
2
  0
DICTIONARYVAR
  5
63
102
{ACAD_REACTORS
330
5E
102
}
330
5E
100
DictionaryVariables
280
     0
  1
1
  0
DICTIONARYVAR
  5
1AE
102
{ACAD_REACTORS
330
5E
102
}
330
5E
100
DictionaryVariables
280
     0
  1
0
  0
DICTIONARYVAR
  5
1AF
102
{ACAD_REACTORS
330
5E
102
}
330
5E
100
DictionaryVariables
280
     0
  1
0
  0
DICTIONARY
  5
848
102
{ACAD_REACTORS
330
846
102
}
330
846
100
AcDbDictionary
281
     1
  0
DICTIONARY
  5
847
102
{ACAD_REACTORS
330
846
102
}
330
846
100
AcDbDictionary
281
     1
  3
140699008082320
350
841
  3
140699008082336
350
842
  3
140699008082352
350
843
  3
140699008082368
350
844
  3
140699008082384
350
845
  0
BLOCKBASEPOINTPARAMETER
  5
261
330
260
100
AcDbEvalExpr
 90
        1
 98
       31
 99
      105
100
AcDbBlockElement
300
基点
 98
       31
 99
      105
1071
        0
100
AcDbBlockParameter
280
     1
281
     0
100
AcDbBlock1PtParameter
1010
574.0
1020
-16.0
1030
0.0
 93
        0
170
     0
171
     0
100
AcDbBlockBasepointParameter
1011
0.0
1021
0.0
1031
0.0
1012
0.0
1022
0.0
1032
0.0
  0
BLOCKBASEPOINTPARAMETER
  5
26F
330
26E
100
AcDbEvalExpr
 90
        3
 98
       31
 99
      105
100
AcDbBlockElement
300
基点
 98
       31
 99
      105
1071
        0
100
AcDbBlockParameter
280
     1
281
     0
100
AcDbBlock1PtParameter
1010
10.0
1020
8.0
1030
0.0
 93
        0
170
     0
171
     0
100
AcDbBlockBasepointParameter
1011
0.0
1021
0.0
1031
0.0
1012
0.0
1022
0.0
1032
0.0
  0
BLOCKBASEPOINTPARAMETER
  5
27B
330
27A
100
AcDbEvalExpr
 90
        1
 98
       31
 99
      105
100
AcDbBlockElement
300
基点
 98
       31
 99
      105
1071
        0
100
AcDbBlockParameter
280
     1
281
     0
100
AcDbBlock1PtParameter
1010
526.0
1020
-12.0
1030
0.0
 93
        0
170
     0
171
     0
100
AcDbBlockBasepointParameter
1011
0.0
1021
0.0
1031
0.0
1012
0.0
1022
0.0
1032
0.0
  0
BLOCKBASEPOINTPARAMETER
  5
28B
330
28A
100
AcDbEvalExpr
 90
        1
 98
       31
 99
      105
100
AcDbBlockElement
300
基点
 98
       31
 99
      105
1071
        0
100
AcDbBlockParameter
280
     1
281
     0
100
AcDbBlock1PtParameter
1010
760.2617187069327
1020
180.0000006787022
1030
0.0
 93
        0
170
     0
171
     0
100
AcDbBlockBasepointParameter
1011
0.0
1021
0.0
1031
0.0
1012
0.0
1022
0.0
1032
0.0
  0
BLOCKBASEPOINTPARAMETER
  5
297
330
296
100
AcDbEvalExpr
 90
        2
 98
       31
 99
      105
100
AcDbBlockElement
300
基点
 98
       31
 99
      105
1071
        0
100
AcDbBlockParameter
280
     1
281
     0
100
AcDbBlock1PtParameter
1010
8.0
1020
20.0
1030
0.0
 93
        0
170
     0
171
     0
100
AcDbBlockBasepointParameter
1011
0.0
1021
0.0
1031
0.0
1012
0.0
1022
0.0
1032
0.0
  0
BLOCKBASEPOINTPARAMETER
  5
2AB
330
2AA
100
AcDbEvalExpr
 90
        2
 98
       31
 99
      105
100
AcDbBlockElement
300
基点
 98
       31
 99
      105
1071
        0
100
AcDbBlockParameter
280
     1
281
     0
100
AcDbBlock1PtParameter
1010
38.0
1020
26.0
1030
0.0
 93
        0
170
     0
171
     0
100
AcDbBlockBasepointParameter
1011
0.0
1021
0.0
1031
0.0
1012
0.0
1022
0.0
1032
0.0
  0
BLOCKBASEPOINTPARAMETER
  5
2C2
330
2C1
100
AcDbEvalExpr
 90
        1
 98
       31
 99
      105
100
AcDbBlockElement
300
基点
 98
       31
 99
      105
1071
        0
100
AcDbBlockParameter
280
     1
281
     0
100
AcDbBlock1PtParameter
1010
831.8544171006832
1020
329.1974957089185
1030
0.0
 93
        0
170
     0
171
     0
100
AcDbBlockBasepointParameter
1011
0.0
1021
0.0
1031
0.0
1012
0.0
1022
0.0
1032
0.0
  0
BLOCKBASEPOINTPARAMETER
  5
2D9
330
2D8
100
AcDbEvalExpr
 90
        1
 98
       31
 99
      105
100
AcDbBlockElement
300
基点
 98
       31
 99
      105
1071
        0
100
AcDbBlockParameter
280
     1
281
     0
100
AcDbBlock1PtParameter
1010
574.0
1020
-16.0
1030
0.0
 93
        0
170
     0
171
     0
100
AcDbBlockBasepointParameter
1011
0.0
1021
0.0
1031
0.0
1012
0.0
1022
0.0
1032
0.0
  0
BLOCKBASEPOINTPARAMETER
  5
342
330
341
100
AcDbEvalExpr
 90
        1
 98
       31
 99
      105
100
AcDbBlockElement
300
基点
 98
       31
 99
      105
1071
        0
100
AcDbBlockParameter
280
     1
281
     0
100
AcDbBlock1PtParameter
1010
428.0
1020
-8.0
1030
0.0
 93
        0
170
     0
171
     0
100
AcDbBlockBasepointParameter
1011
0.0
1021
0.0
1031
0.0
1012
0.0
1022
0.0
1032
0.0
  0
BLOCKBASEPOINTPARAMETER
  5
35A
330
359
100
AcDbEvalExpr
 90
        1
 98
       31
 99
      105
100
AcDbBlockElement
300
基点
 98
       31
 99
      105
1071
        0
100
AcDbBlockParameter
280
     1
281
     0
100
AcDbBlock1PtParameter
1010
9341.869952604467
1020
961.1197016149736
1030
0.0
 93
        0
170
     0
171
     0
100
AcDbBlockBasepointParameter
1011
0.0
1021
0.0
1031
0.0
1012
0.0
1022
0.0
1032
0.0
  0
ACDB_BLOCKREPRESENTATION_DATA
  5
679
102
{ACAD_REACTORS
330
678
102
}
330
678
100
AcDbBlockRepresentationData
 70
     1
340
33F
  0
DICTIONARY
  5
67A
102
{ACAD_REACTORS
330
678
102
}
330
678
100
AcDbDictionary
280
     1
281
     1
  3
ACAD_ENHANCEDBLOCKDATA
360
67B
  0
ACDB_BLOCKREPRESENTATION_DATA
  5
680
102
{ACAD_REACTORS
330
67F
102
}
330
67F
100
AcDbBlockRepresentationData
 70
     1
340
288
  0
DICTIONARY
  5
681
102
{ACAD_REACTORS
330
67F
102
}
330
67F
100
AcDbDictionary
280
     1
281
     1
  3
ACAD_ENHANCEDBLOCKDATA
360
682
  0
ACDB_BLOCKREPRESENTATION_DATA
  5
687
102
{ACAD_REACTORS
330
686
102
}
330
686
100
AcDbBlockRepresentationData
 70
     1
340
288
  0
DICTIONARY
  5
688
102
{ACAD_REACTORS
330
686
102
}
330
686
100
AcDbDictionary
280
     1
281
     1
  3
ACAD_ENHANCEDBLOCKDATA
360
689
  0
ACDB_BLOCKREPRESENTATION_DATA
  5
68F
102
{ACAD_REACTORS
330
68E
102
}
330
68E
100
AcDbBlockRepresentationData
 70
     1
340
2BF
  0
DICTIONARY
  5
690
102
{ACAD_REACTORS
330
68E
102
}
330
68E
100
AcDbDictionary
280
     1
281
     1
  3
ACAD_ENHANCEDBLOCKDATA
360
691
  0
ACDB_BLOCKREPRESENTATION_DATA
  5
697
102
{ACAD_REACTORS
330
696
102
}
330
696
100
AcDbBlockRepresentationData
 70
     1
340
2D6
  0
DICTIONARY
  5
698
102
{ACAD_REACTORS
330
696
102
}
330
696
100
AcDbDictionary
280
     1
281
     1
  3
ACAD_ENHANCEDBLOCKDATA
360
699
  0
ACDB_BLOCKREPRESENTATION_DATA
  5
69E
102
{ACAD_REACTORS
330
69D
102
}
330
69D
100
AcDbBlockRepresentationData
 70
     1
340
2D6
  0
DICTIONARY
  5
69F
102
{ACAD_REACTORS
330
69D
102
}
330
69D
100
AcDbDictionary
280
     1
281
     1
  3
ACAD_ENHANCEDBLOCKDATA
360
6A0
  0
ACDB_BLOCKREPRESENTATION_DATA
  5
6A5
102
{ACAD_REACTORS
330
6A4
102
}
330
6A4
100
AcDbBlockRepresentationData
 70
     1
340
2D6
  0
DICTIONARY
  5
6A6
102
{ACAD_REACTORS
330
6A4
102
}
330
6A4
100
AcDbDictionary
280
     1
281
     1
  3
ACAD_ENHANCEDBLOCKDATA
360
6A7
  0
ACDB_BLOCKREPRESENTATION_DATA
  5
6AC
102
{ACAD_REACTORS
330
6AB
102
}
330
6AB
100
AcDbBlockRepresentationData
 70
     1
340
2D6
  0
DICTIONARY
  5
6AD
102
{ACAD_REACTORS
330
6AB
102
}
330
6AB
100
AcDbDictionary
280
     1
281
     1
  3
ACAD_ENHANCEDBLOCKDATA
360
6AE
  0
ACDB_BLOCKREPRESENTATION_DATA
  5
6B4
102
{ACAD_REACTORS
330
6B3
102
}
330
6B3
100
AcDbBlockRepresentationData
 70
     1
340
294
  0
DICTIONARY
  5
6B5
102
{ACAD_REACTORS
330
6B3
102
}
330
6B3
100
AcDbDictionary
280
     1
281
     1
  3
ACAD_ENHANCEDBLOCKDATA
360
6B6
  0
ACDB_BLOCKREPRESENTATION_DATA
  5
6BB
102
{ACAD_REACTORS
330
6BA
102
}
330
6BA
100
AcDbBlockRepresentationData
 70
     1
340
26C
  0
DICTIONARY
  5
6BC
102
{ACAD_REACTORS
330
6BA
102
}
330
6BA
100
AcDbDictionary
280
     1
281
     1
  3
ACAD_ENHANCEDBLOCKDATA
360
6BD
  0
ACDB_BLOCKREPRESENTATION_DATA
  5
6C3
102
{ACAD_REACTORS
330
6C2
102
}
330
6C2
100
AcDbBlockRepresentationData
 70
     1
340
288
  0
DICTIONARY
  5
6C4
102
{ACAD_REACTORS
330
6C2
102
}
330
6C2
100
AcDbDictionary
280
     1
281
     1
  3
ACAD_ENHANCEDBLOCKDATA
360
6C5
  0
ACDB_BLOCKREPRESENTATION_DATA
  5
6D1
102
{ACAD_REACTORS
330
6D0
102
}
330
6D0
100
AcDbBlockRepresentationData
 70
     1
340
288
  0
DICTIONARY
  5
6D2
102
{ACAD_REACTORS
330
6D0
102
}
330
6D0
100
AcDbDictionary
280
     1
281
     1
  3
ACAD_ENHANCEDBLOCKDATA
360
6D3
  0
ACDB_BLOCKREPRESENTATION_DATA
  5
6DA
102
{ACAD_REACTORS
330
6D9
102
}
330
6D9
100
AcDbBlockRepresentationData
 70
     1
340
288
  0
DICTIONARY
  5
6DB
102
{ACAD_REACTORS
330
6D9
102
}
330
6D9
100
AcDbDictionary
280
     1
281
     1
  3
ACAD_ENHANCEDBLOCKDATA
360
6DC
  0
ACDB_BLOCKREPRESENTATION_DATA
  5
6E2
102
{ACAD_REACTORS
330
6E1
102
}
330
6E1
100
AcDbBlockRepresentationData
 70
     1
340
288
  0
DICTIONARY
  5
6E3
102
{ACAD_REACTORS
330
6E1
102
}
330
6E1
100
AcDbDictionary
280
     1
281
     1
  3
ACAD_ENHANCEDBLOCKDATA
360
6E4
  0
ACDB_BLOCKREPRESENTATION_DATA
  5
715
102
{ACAD_REACTORS
330
714
102
}
330
714
100
AcDbBlockRepresentationData
 70
     1
340
25E
  0
DICTIONARY
  5
716
102
{ACAD_REACTORS
330
714
102
}
330
714
100
AcDbDictionary
280
     1
281
     1
  3
ACAD_ENHANCEDBLOCKDATA
360
717
  0
ACDB_BLOCKREPRESENTATION_DATA
  5
71C
102
{ACAD_REACTORS
330
71B
102
}
330
71B
100
AcDbBlockRepresentationData
 70
     1
340
288
  0
DICTIONARY
  5
71D
102
{ACAD_REACTORS
330
71B
102
}
330
71B
100
AcDbDictionary
280
     1
281
     1
  3
ACAD_ENHANCEDBLOCKDATA
360
71E
  0
ACDB_BLOCKREPRESENTATION_DATA
  5
72A
102
{ACAD_REACTORS
330
729
102
}
330
729
100
AcDbBlockRepresentationData
 70
     1
340
278
  0
DICTIONARY
  5
72B
102
{ACAD_REACTORS
330
729
102
}
330
729
100
AcDbDictionary
280
     1
281
     1
  3
ACAD_ENHANCEDBLOCKDATA
360
72C
  0
ACDB_BLOCKREPRESENTATION_DATA
  5
731
102
{ACAD_REACTORS
330
730
102
}
330
730
100
AcDbBlockRepresentationData
 70
     1
340
294
  0
DICTIONARY
  5
732
102
{ACAD_REACTORS
330
730
102
}
330
730
100
AcDbDictionary
280
     1
281
     1
  3
ACAD_ENHANCEDBLOCKDATA
360
733
  0
ACDB_BLOCKREPRESENTATION_DATA
  5
738
102
{ACAD_REACTORS
330
737
102
}
330
737
100
AcDbBlockRepresentationData
 70
     1
340
26C
  0
DICTIONARY
  5
739
102
{ACAD_REACTORS
330
737
102
}
330
737
100
AcDbDictionary
280
     1
281
     1
  3
ACAD_ENHANCEDBLOCKDATA
360
73A
  0
ACDB_BLOCKREPRESENTATION_DATA
  5
741
102
{ACAD_REACTORS
330
740
102
}
330
740
100
AcDbBlockRepresentationData
 70
     1
340
2A8
  0
DICTIONARY
  5
742
102
{ACAD_REACTORS
330
740
102
}
330
740
100
AcDbDictionary
280
     1
281
     1
  3
ACAD_ENHANCEDBLOCKDATA
360
743
  0
ACDB_BLOCKREPRESENTATION_DATA
  5
748
102
{ACAD_REACTORS
330
747
102
}
330
747
100
AcDbBlockRepresentationData
 70
     1
340
26C
  0
DICTIONARY
  5
749
102
{ACAD_REACTORS
330
747
102
}
330
747
100
AcDbDictionary
280
     1
281
     1
  3
ACAD_ENHANCEDBLOCKDATA
360
74A
  0
ACDB_BLOCKREPRESENTATION_DATA
  5
74F
102
{ACAD_REACTORS
330
74E
102
}
330
74E
100
AcDbBlockRepresentationData
 70
     1
340
2D6
  0
DICTIONARY
  5
750
102
{ACAD_REACTORS
330
74E
102
}
330
74E
100
AcDbDictionary
280
     1
281
     1
  3
ACAD_ENHANCEDBLOCKDATA
360
751
  0
ACDB_BLOCKREPRESENTATION_DATA
  5
756
102
{ACAD_REACTORS
330
755
102
}
330
755
100
AcDbBlockRepresentationData
 70
     1
340
2D6
  0
DICTIONARY
  5
757
102
{ACAD_REACTORS
330
755
102
}
330
755
100
AcDbDictionary
280
     1
281
     1
  3
ACAD_ENHANCEDBLOCKDATA
360
758
  0
ACDB_BLOCKREPRESENTATION_DATA
  5
75D
102
{ACAD_REACTORS
330
75C
102
}
330
75C
100
AcDbBlockRepresentationData
 70
     1
340
2D6
  0
DICTIONARY
  5
75E
102
{ACAD_REACTORS
330
75C
102
}
330
75C
100
AcDbDictionary
280
     1
281
     1
  3
ACAD_ENHANCEDBLOCKDATA
360
75F
  0
ACDB_BLOCKREPRESENTATION_DATA
  5
764
102
{ACAD_REACTORS
330
763
102
}
330
763
100
AcDbBlockRepresentationData
 70
     1
340
2D6
  0
DICTIONARY
  5
765
102
{ACAD_REACTORS
330
763
102
}
330
763
100
AcDbDictionary
280
     1
281
     1
  3
ACAD_ENHANCEDBLOCKDATA
360
766
  0
ACDB_BLOCKREPRESENTATION_DATA
  5
76B
102
{ACAD_REACTORS
330
76A
102
}
330
76A
100
AcDbBlockRepresentationData
 70
     1
340
2BF
  0
DICTIONARY
  5
76C
102
{ACAD_REACTORS
330
76A
102
}
330
76A
100
AcDbDictionary
280
     1
281
     1
  3
ACAD_ENHANCEDBLOCKDATA
360
76D
  0
ACDB_BLOCKREPRESENTATION_DATA
  5
772
102
{ACAD_REACTORS
330
771
102
}
330
771
100
AcDbBlockRepresentationData
 70
     1
340
25E
  0
DICTIONARY
  5
773
102
{ACAD_REACTORS
330
771
102
}
330
771
100
AcDbDictionary
280
     1
281
     1
  3
ACAD_ENHANCEDBLOCKDATA
360
774
  0
ACDB_BLOCKREPRESENTATION_DATA
  5
779
102
{ACAD_REACTORS
330
778
102
}
330
778
100
AcDbBlockRepresentationData
 70
     1
340
288
  0
DICTIONARY
  5
77A
102
{ACAD_REACTORS
330
778
102
}
330
778
100
AcDbDictionary
280
     1
281
     1
  3
ACAD_ENHANCEDBLOCKDATA
360
77B
  0
ACDB_BLOCKREPRESENTATION_DATA
  5
785
102
{ACAD_REACTORS
330
784
102
}
330
784
100
AcDbBlockRepresentationData
 70
     1
340
278
  0
DICTIONARY
  5
786
102
{ACAD_REACTORS
330
784
102
}
330
784
100
AcDbDictionary
280
     1
281
     1
  3
ACAD_ENHANCEDBLOCKDATA
360
787
  0
ACDB_BLOCKREPRESENTATION_DATA
  5
78C
102
{ACAD_REACTORS
330
78B
102
}
330
78B
100
AcDbBlockRepresentationData
 70
     1
340
294
  0
DICTIONARY
  5
78D
102
{ACAD_REACTORS
330
78B
102
}
330
78B
100
AcDbDictionary
280
     1
281
     1
  3
ACAD_ENHANCEDBLOCKDATA
360
78E
  0
ACDB_BLOCKREPRESENTATION_DATA
  5
793
102
{ACAD_REACTORS
330
792
102
}
330
792
100
AcDbBlockRepresentationData
 70
     1
340
26C
  0
DICTIONARY
  5
794
102
{ACAD_REACTORS
330
792
102
}
330
792
100
AcDbDictionary
280
     1
281
     1
  3
ACAD_ENHANCEDBLOCKDATA
360
795
  0
ACDB_BLOCKREPRESENTATION_DATA
  5
79C
102
{ACAD_REACTORS
330
79B
102
}
330
79B
100
AcDbBlockRepresentationData
 70
     1
340
2A8
  0
DICTIONARY
  5
79D
102
{ACAD_REACTORS
330
79B
102
}
330
79B
100
AcDbDictionary
280
     1
281
     1
  3
ACAD_ENHANCEDBLOCKDATA
360
79E
  0
ACDB_BLOCKREPRESENTATION_DATA
  5
7A3
102
{ACAD_REACTORS
330
7A2
102
}
330
7A2
100
AcDbBlockRepresentationData
 70
     1
340
26C
  0
DICTIONARY
  5
7A4
102
{ACAD_REACTORS
330
7A2
102
}
330
7A2
100
AcDbDictionary
280
     1
281
     1
  3
ACAD_ENHANCEDBLOCKDATA
360
7A5
  0
ACDB_BLOCKREPRESENTATION_DATA
  5
7AA
102
{ACAD_REACTORS
330
7A9
102
}
330
7A9
100
AcDbBlockRepresentationData
 70
     1
340
2D6
  0
DICTIONARY
  5
7AB
102
{ACAD_REACTORS
330
7A9
102
}
330
7A9
100
AcDbDictionary
280
     1
281
     1
  3
ACAD_ENHANCEDBLOCKDATA
360
7AC
  0
ACDB_BLOCKREPRESENTATION_DATA
  5
7B1
102
{ACAD_REACTORS
330
7B0
102
}
330
7B0
100
AcDbBlockRepresentationData
 70
     1
340
2D6
  0
DICTIONARY
  5
7B2
102
{ACAD_REACTORS
330
7B0
102
}
330
7B0
100
AcDbDictionary
280
     1
281
     1
  3
ACAD_ENHANCEDBLOCKDATA
360
7B3
  0
ACDB_BLOCKREPRESENTATION_DATA
  5
7B8
102
{ACAD_REACTORS
330
7B7
102
}
330
7B7
100
AcDbBlockRepresentationData
 70
     1
340
2D6
  0
DICTIONARY
  5
7B9
102
{ACAD_REACTORS
330
7B7
102
}
330
7B7
100
AcDbDictionary
280
     1
281
     1
  3
ACAD_ENHANCEDBLOCKDATA
360
7BA
  0
ACDB_BLOCKREPRESENTATION_DATA
  5
7BF
102
{ACAD_REACTORS
330
7BE
102
}
330
7BE
100
AcDbBlockRepresentationData
 70
     1
340
2D6
  0
DICTIONARY
  5
7C0
102
{ACAD_REACTORS
330
7BE
102
}
330
7BE
100
AcDbDictionary
280
     1
281
     1
  3
ACAD_ENHANCEDBLOCKDATA
360
7C1
  0
ACDB_BLOCKREPRESENTATION_DATA
  5
7C6
102
{ACAD_REACTORS
330
7C5
102
}
330
7C5
100
AcDbBlockRepresentationData
 70
     1
340
2BF
  0
DICTIONARY
  5
7C7
102
{ACAD_REACTORS
330
7C5
102
}
330
7C5
100
AcDbDictionary
280
     1
281
     1
  3
ACAD_ENHANCEDBLOCKDATA
360
7C8
  0
ACDB_BLOCKREPRESENTATION_DATA
  5
7CD
102
{ACAD_REACTORS
330
7CC
102
}
330
7CC
100
AcDbBlockRepresentationData
 70
     1
340
357
  0
DICTIONARY
  5
7CE
102
{ACAD_REACTORS
330
7CC
102
}
330
7CC
100
AcDbDictionary
280
     1
281
     1
  3
ACAD_ENHANCEDBLOCKDATA
360
7CF
  0
ACDB_BLOCKREPRESENTATION_DATA
  5
7D6
102
{ACAD_REACTORS
330
7D5
102
}
330
7D5
100
AcDbBlockRepresentationData
 70
     1
340
288
  0
DICTIONARY
  5
7D7
102
{ACAD_REACTORS
330
7D5
102
}
330
7D5
100
AcDbDictionary
280
     1
281
     1
  3
ACAD_ENHANCEDBLOCKDATA
360
7D8
  0
ACDB_BLOCKREPRESENTATION_DATA
  5
7DF
102
{ACAD_REACTORS
330
7DE
102
}
330
7DE
100
AcDbBlockRepresentationData
 70
     1
340
278
  0
DICTIONARY
  5
7E0
102
{ACAD_REACTORS
330
7DE
102
}
330
7DE
100
AcDbDictionary
280
     1
281
     1
  3
ACAD_ENHANCEDBLOCKDATA
360
7E1
  0
ACDB_BLOCKREPRESENTATION_DATA
  5
7EC
102
{ACAD_REACTORS
330
7EB
102
}
330
7EB
100
AcDbBlockRepresentationData
 70
     1
340
2A8
  0
DICTIONARY
  5
7ED
102
{ACAD_REACTORS
330
7EB
102
}
330
7EB
100
AcDbDictionary
280
     1
281
     1
  3
ACAD_ENHANCEDBLOCKDATA
360
7EE
  0
ACDB_BLOCKREPRESENTATION_DATA
  5
7F3
102
{ACAD_REACTORS
330
7F2
102
}
330
7F2
100
AcDbBlockRepresentationData
 70
     1
340
26C
  0
DICTIONARY
  5
7F4
102
{ACAD_REACTORS
330
7F2
102
}
330
7F2
100
AcDbDictionary
280
     1
281
     1
  3
ACAD_ENHANCEDBLOCKDATA
360
7F5
  0
ACDB_BLOCKREPRESENTATION_DATA
  5
7FC
102
{ACAD_REACTORS
330
7FB
102
}
330
7FB
100
AcDbBlockRepresentationData
 70
     1
340
26C
  0
DICTIONARY
  5
7FD
102
{ACAD_REACTORS
330
7FB
102
}
330
7FB
100
AcDbDictionary
280
     1
281
     1
  3
ACAD_ENHANCEDBLOCKDATA
360
7FE
  0
ACDB_BLOCKREPRESENTATION_DATA
  5
805
102
{ACAD_REACTORS
330
804
102
}
330
804
100
AcDbBlockRepresentationData
 70
     1
340
357
  0
DICTIONARY
  5
806
102
{ACAD_REACTORS
330
804
102
}
330
804
100
AcDbDictionary
280
     1
281
     1
  3
ACAD_ENHANCEDBLOCKDATA
360
807
  0
ACDB_BLOCKREPRESENTATION_DATA
  5
80E
102
{ACAD_REACTORS
330
80D
102
}
330
80D
100
AcDbBlockRepresentationData
 70
     1
340
288
  0
DICTIONARY
  5
80F
102
{ACAD_REACTORS
330
80D
102
}
330
80D
100
AcDbDictionary
280
     1
281
     1
  3
ACAD_ENHANCEDBLOCKDATA
360
810
  0
ACDB_BLOCKREPRESENTATION_DATA
  5
817
102
{ACAD_REACTORS
330
816
102
}
330
816
100
AcDbBlockRepresentationData
 70
     1
340
278
  0
DICTIONARY
  5
818
102
{ACAD_REACTORS
330
816
102
}
330
816
100
AcDbDictionary
280
     1
281
     1
  3
ACAD_ENHANCEDBLOCKDATA
360
819
  0
ACDB_BLOCKREPRESENTATION_DATA
  5
824
102
{ACAD_REACTORS
330
823
102
}
330
823
100
AcDbBlockRepresentationData
 70
     1
340
2A8
  0
DICTIONARY
  5
825
102
{ACAD_REACTORS
330
823
102
}
330
823
100
AcDbDictionary
280
     1
281
     1
  3
ACAD_ENHANCEDBLOCKDATA
360
826
  0
ACDB_BLOCKREPRESENTATION_DATA
  5
82B
102
{ACAD_REACTORS
330
82A
102
}
330
82A
100
AcDbBlockRepresentationData
 70
     1
340
26C
  0
DICTIONARY
  5
82C
102
{ACAD_REACTORS
330
82A
102
}
330
82A
100
AcDbDictionary
280
     1
281
     1
  3
ACAD_ENHANCEDBLOCKDATA
360
82D
  0
ACDB_BLOCKREPRESENTATION_DATA
  5
834
102
{ACAD_REACTORS
330
833
102
}
330
833
100
AcDbBlockRepresentationData
 70
     1
340
26C
  0
DICTIONARY
  5
835
102
{ACAD_REACTORS
330
833
102
}
330
833
100
AcDbDictionary
280
     1
281
     1
  3
ACAD_ENHANCEDBLOCKDATA
360
836
  0
DICTIONARY
  5
236
330
21C
100
AcDbDictionary
280
     1
281
     1
  3
ACAD_XREC_ROUNDTRIP
360
87A
  0
DICTIONARY
  5
205
330
22
100
AcDbDictionary
280
     1
281
     1
  0
DICTIONARY
  5
1F9
330
ED
100
AcDbDictionary
280
     1
281
     1
  3
FBXASSET
360
1FA
  0
DICTIONARY
  5
1F7
330
EC
100
AcDbDictionary
280
     1
281
     1
  3
FBXASSET
360
1F8
  0
DICTIONARY
  5
173
330
EE
100
AcDbDictionary
280
     1
281
     1
  3
BUMPTILE
360
175
  3
DIFFUSETILE
360
174
  3
FBXASSET
360
1FB
  3
OPACITYTILE
360
176
  3
REFLECTIONTILE
360
177
  0
DICTIONARY
  5
234
330
21A
100
AcDbDictionary
280
     1
281
     1
  3
ACAD_XREC_ROUNDTRIP
360
879
  0
DICTIONARY
  5
162
330
7F
100
AcDbDictionary
280
     1
281
     1
  3
ACAD_ROUNDTRIP_2008_TABLESTYLE_CELLSTYLEMAP
360
83F
  0
DICTIONARY
  5
853
330
F5
100
AcDbDictionary
280
     1
281
     1
  3
ACAD_XREC_ROUNDTRIP
360
854
  0
DICTIONARY
  5
851
330
F4
100
AcDbDictionary
280
     1
281
     1
  3
ACAD_XREC_ROUNDTRIP
360
852
  0
DICTIONARY
  5
85F
330
FB
100
AcDbDictionary
280
     1
281
     1
  3
ACAD_XREC_ROUNDTRIP
360
860
  0
DICTIONARY
  5
867
330
FF
100
AcDbDictionary
280
     1
281
     1
  3
ACAD_XREC_ROUNDTRIP
360
868
  0
DICTIONARY
  5
859
330
F8
100
AcDbDictionary
280
     1
281
     1
  3
ACAD_XREC_ROUNDTRIP
360
85A
  0
DICTIONARY
  5
85D
330
FA
100
AcDbDictionary
280
     1
281
     1
  3
ACAD_XREC_ROUNDTRIP
360
85E
  0
DICTIONARY
  5
86D
330
1E6
100
AcDbDictionary
280
     1
281
     1
  3
ACAD_XREC_ROUNDTRIP
360
86E
  0
DICTIONARY
  5
865
330
FE
100
AcDbDictionary
280
     1
281
     1
  3
ACAD_XREC_ROUNDTRIP
360
866
  0
DICTIONARY
  5
849
330
F0
100
AcDbDictionary
280
     1
281
     1
  3
ACAD_XREC_ROUNDTRIP
360
84A
  0
DICTIONARY
  5
84B
330
F1
100
AcDbDictionary
280
     1
281
     1
  3
ACAD_XREC_ROUNDTRIP
360
84C
  0
DICTIONARY
  5
84D
330
F2
100
AcDbDictionary
280
     1
281
     1
  3
ACAD_XREC_ROUNDTRIP
360
84E
  0
DICTIONARY
  5
84F
330
F3
100
AcDbDictionary
280
     1
281
     1
  3
ACAD_XREC_ROUNDTRIP
360
850
  0
DICTIONARY
  5
857
330
F7
100
AcDbDictionary
280
     1
281
     1
  3
ACAD_XREC_ROUNDTRIP
360
858
  0
DICTIONARY
  5
869
330
1E4
100
AcDbDictionary
280
     1
281
     1
  3
ACAD_XREC_ROUNDTRIP
360
86A
  0
DICTIONARY
  5
863
330
FD
100
AcDbDictionary
280
     1
281
     1
  3
ACAD_XREC_ROUNDTRIP
360
864
  0
DICTIONARY
  5
86B
330
1E5
100
AcDbDictionary
280
     1
281
     1
  3
ACAD_XREC_ROUNDTRIP
360
86C
  0
DICTIONARY
  5
85B
330
F9
100
AcDbDictionary
280
     1
281
     1
  3
ACAD_XREC_ROUNDTRIP
360
85C
  0
DICTIONARY
  5
877
330
1F3
100
AcDbDictionary
280
     1
281
     1
  3
ACAD_XREC_ROUNDTRIP
360
878
  0
DICTIONARY
  5
875
330
1F2
100
AcDbDictionary
280
     1
281
     1
  3
ACAD_XREC_ROUNDTRIP
360
876
  0
DICTIONARY
  5
86F
330
1EF
100
AcDbDictionary
280
     1
281
     1
  3
ACAD_XREC_ROUNDTRIP
360
870
  0
DICTIONARY
  5
871
330
1F0
100
AcDbDictionary
280
     1
281
     1
  3
ACAD_XREC_ROUNDTRIP
360
872
  0
DICTIONARY
  5
861
330
FC
100
AcDbDictionary
280
     1
281
     1
  3
ACAD_XREC_ROUNDTRIP
360
862
  0
DICTIONARY
  5
855
330
F6
100
AcDbDictionary
280
     1
281
     1
  3
ACAD_XREC_ROUNDTRIP
360
856
  0
DICTIONARY
  5
873
330
1F1
100
AcDbDictionary
280
     1
281
     1
  3
ACAD_XREC_ROUNDTRIP
360
874
  0
XRECORD
  5
841
102
{ACAD_REACTORS
330
847
102
}
330
847
100
AcDbXrecord
280
     1
  1
AcDb_Thumbnail_Schema
102
{ATTRRECORD
341
842
  2
AcDbDs::TreatedAsObjectData
280
     1
291
     1
102
ATTRRECORD}
102
{ATTRRECORD
341
843
  2
AcDbDs::Legacy
280
     1
291
     1
102
ATTRRECORD}
  2
AcDbDs::ID
280
    10
 91
        8
102
{ATTRRECORD
341
844
  2
AcDs:Indexable
280
     1
291
     1
102
ATTRRECORD}
102
{ATTRRECORD
341
845
  2
AcDbDs::HandleAttribute
280
     7
282
     1
102
ATTRRECORD}
  2
Thumbnail_Data
280
    15
 91
        0
  0
XRECORD
  5
842
102
{ACAD_REACTORS
330
847
102
}
330
847
100
AcDbXrecord
280
     1
  1
AcDbDs::TreatedAsObjectDataSchema
  2
AcDbDs::TreatedAsObjectData
280
     1
 91
        0
  0
XRECORD
  5
843
102
{ACAD_REACTORS
330
847
102
}
330
847
100
AcDbXrecord
280
     1
  1
AcDbDs::LegacySchema
  2
AcDbDs::Legacy
280
     1
 91
        0
  0
XRECORD
  5
844
102
{ACAD_REACTORS
330
847
102
}
330
847
100
AcDbXrecord
280
     1
  1
AcDbDs::IndexedPropertySchema
  2
AcDs:Indexable
280
     1
 91
        0
  0
XRECORD
  5
845
102
{ACAD_REACTORS
330
847
102
}
330
847
100
AcDbXrecord
280
     1
  1
AcDbDs::HandleAttributeSchema
  2
AcDbDs::HandleAttribute
280
     7
 91
        1
284
     1
  0
DICTIONARY
  5
67B
102
{ACAD_REACTORS
330
67A
102
}
330
67A
100
AcDbDictionary
280
     1
281
     1
  3
1
360
67C
  0
DICTIONARY
  5
682
102
{ACAD_REACTORS
330
681
102
}
330
681
100
AcDbDictionary
280
     1
281
     1
  3
1
360
683
  0
DICTIONARY
  5
689
102
{ACAD_REACTORS
330
688
102
}
330
688
100
AcDbDictionary
280
     1
281
     1
  3
1
360
68A
  0
DICTIONARY
  5
691
102
{ACAD_REACTORS
330
690
102
}
330
690
100
AcDbDictionary
280
     1
281
     1
  3
1
360
692
  0
DICTIONARY
  5
699
102
{ACAD_REACTORS
330
698
102
}
330
698
100
AcDbDictionary
280
     1
281
     1
  3
1
360
69A
  0
DICTIONARY
  5
6A0
102
{ACAD_REACTORS
330
69F
102
}
330
69F
100
AcDbDictionary
280
     1
281
     1
  3
1
360
6A1
  0
DICTIONARY
  5
6A7
102
{ACAD_REACTORS
330
6A6
102
}
330
6A6
100
AcDbDictionary
280
     1
281
     1
  3
1
360
6A8
  0
DICTIONARY
  5
6AE
102
{ACAD_REACTORS
330
6AD
102
}
330
6AD
100
AcDbDictionary
280
     1
281
     1
  3
1
360
6AF
  0
DICTIONARY
  5
6B6
102
{ACAD_REACTORS
330
6B5
102
}
330
6B5
100
AcDbDictionary
280
     1
281
     1
  3
2
360
6B7
  0
DICTIONARY
  5
6BD
102
{ACAD_REACTORS
330
6BC
102
}
330
6BC
100
AcDbDictionary
280
     1
281
     1
  3
3
360
6BE
  0
DICTIONARY
  5
6C5
102
{ACAD_REACTORS
330
6C4
102
}
330
6C4
100
AcDbDictionary
280
     1
281
     1
  3
1
360
6C6
  0
DICTIONARY
  5
6D3
102
{ACAD_REACTORS
330
6D2
102
}
330
6D2
100
AcDbDictionary
280
     1
281
     1
  3
1
360
6D4
  0
DICTIONARY
  5
6DC
102
{ACAD_REACTORS
330
6DB
102
}
330
6DB
100
AcDbDictionary
280
     1
281
     1
  3
1
360
6DD
  0
DICTIONARY
  5
6E4
102
{ACAD_REACTORS
330
6E3
102
}
330
6E3
100
AcDbDictionary
280
     1
281
     1
  3
1
360
6E5
  0
DICTIONARY
  5
717
102
{ACAD_REACTORS
330
716
102
}
330
716
100
AcDbDictionary
280
     1
281
     1
  3
1
360
718
  0
DICTIONARY
  5
71E
102
{ACAD_REACTORS
330
71D
102
}
330
71D
100
AcDbDictionary
280
     1
281
     1
  3
1
360
71F
  0
DICTIONARY
  5
72C
102
{ACAD_REACTORS
330
72B
102
}
330
72B
100
AcDbDictionary
280
     1
281
     1
  3
1
360
72D
  0
DICTIONARY
  5
733
102
{ACAD_REACTORS
330
732
102
}
330
732
100
AcDbDictionary
280
     1
281
     1
  3
2
360
734
  0
DICTIONARY
  5
73A
102
{ACAD_REACTORS
330
739
102
}
330
739
100
AcDbDictionary
280
     1
281
     1
  3
3
360
73B
  0
DICTIONARY
  5
743
102
{ACAD_REACTORS
330
742
102
}
330
742
100
AcDbDictionary
280
     1
281
     1
  3
2
360
744
  0
DICTIONARY
  5
74A
102
{ACAD_REACTORS
330
749
102
}
330
749
100
AcDbDictionary
280
     1
281
     1
  3
3
360
74B
  0
DICTIONARY
  5
751
102
{ACAD_REACTORS
330
750
102
}
330
750
100
AcDbDictionary
280
     1
281
     1
  3
1
360
752
  0
DICTIONARY
  5
758
102
{ACAD_REACTORS
330
757
102
}
330
757
100
AcDbDictionary
280
     1
281
     1
  3
1
360
759
  0
DICTIONARY
  5
75F
102
{ACAD_REACTORS
330
75E
102
}
330
75E
100
AcDbDictionary
280
     1
281
     1
  3
1
360
760
  0
DICTIONARY
  5
766
102
{ACAD_REACTORS
330
765
102
}
330
765
100
AcDbDictionary
280
     1
281
     1
  3
1
360
767
  0
DICTIONARY
  5
76D
102
{ACAD_REACTORS
330
76C
102
}
330
76C
100
AcDbDictionary
280
     1
281
     1
  3
1
360
76E
  0
DICTIONARY
  5
774
102
{ACAD_REACTORS
330
773
102
}
330
773
100
AcDbDictionary
280
     1
281
     1
  3
1
360
775
  0
DICTIONARY
  5
77B
102
{ACAD_REACTORS
330
77A
102
}
330
77A
100
AcDbDictionary
280
     1
281
     1
  3
1
360
77C
  0
DICTIONARY
  5
787
102
{ACAD_REACTORS
330
786
102
}
330
786
100
AcDbDictionary
280
     1
281
     1
  3
1
360
788
  0
DICTIONARY
  5
78E
102
{ACAD_REACTORS
330
78D
102
}
330
78D
100
AcDbDictionary
280
     1
281
     1
  3
2
360
78F
  0
DICTIONARY
  5
795
102
{ACAD_REACTORS
330
794
102
}
330
794
100
AcDbDictionary
280
     1
281
     1
  3
3
360
796
  0
DICTIONARY
  5
79E
102
{ACAD_REACTORS
330
79D
102
}
330
79D
100
AcDbDictionary
280
     1
281
     1
  3
2
360
79F
  0
DICTIONARY
  5
7A5
102
{ACAD_REACTORS
330
7A4
102
}
330
7A4
100
AcDbDictionary
280
     1
281
     1
  3
3
360
7A6
  0
DICTIONARY
  5
7AC
102
{ACAD_REACTORS
330
7AB
102
}
330
7AB
100
AcDbDictionary
280
     1
281
     1
  3
1
360
7AD
  0
DICTIONARY
  5
7B3
102
{ACAD_REACTORS
330
7B2
102
}
330
7B2
100
AcDbDictionary
280
     1
281
     1
  3
1
360
7B4
  0
DICTIONARY
  5
7BA
102
{ACAD_REACTORS
330
7B9
102
}
330
7B9
100
AcDbDictionary
280
     1
281
     1
  3
1
360
7BB
  0
DICTIONARY
  5
7C1
102
{ACAD_REACTORS
330
7C0
102
}
330
7C0
100
AcDbDictionary
280
     1
281
     1
  3
1
360
7C2
  0
DICTIONARY
  5
7C8
102
{ACAD_REACTORS
330
7C7
102
}
330
7C7
100
AcDbDictionary
280
     1
281
     1
  3
1
360
7C9
  0
DICTIONARY
  5
7CF
102
{ACAD_REACTORS
330
7CE
102
}
330
7CE
100
AcDbDictionary
280
     1
281
     1
  3
1
360
7D0
  0
DICTIONARY
  5
7D8
102
{ACAD_REACTORS
330
7D7
102
}
330
7D7
100
AcDbDictionary
280
     1
281
     1
  3
1
360
7D9
  0
DICTIONARY
  5
7E1
102
{ACAD_REACTORS
330
7E0
102
}
330
7E0
100
AcDbDictionary
280
     1
281
     1
  3
1
360
7E2
  0
DICTIONARY
  5
7EE
102
{ACAD_REACTORS
330
7ED
102
}
330
7ED
100
AcDbDictionary
280
     1
281
     1
  3
2
360
7EF
  0
DICTIONARY
  5
7F5
102
{ACAD_REACTORS
330
7F4
102
}
330
7F4
100
AcDbDictionary
280
     1
281
     1
  3
3
360
7F6
  0
DICTIONARY
  5
7FE
102
{ACAD_REACTORS
330
7FD
102
}
330
7FD
100
AcDbDictionary
280
     1
281
     1
  3
3
360
7FF
  0
DICTIONARY
  5
807
102
{ACAD_REACTORS
330
806
102
}
330
806
100
AcDbDictionary
280
     1
281
     1
  3
1
360
808
  0
DICTIONARY
  5
810
102
{ACAD_REACTORS
330
80F
102
}
330
80F
100
AcDbDictionary
280
     1
281
     1
  3
1
360
811
  0
DICTIONARY
  5
819
102
{ACAD_REACTORS
330
818
102
}
330
818
100
AcDbDictionary
280
     1
281
     1
  3
1
360
81A
  0
DICTIONARY
  5
826
102
{ACAD_REACTORS
330
825
102
}
330
825
100
AcDbDictionary
280
     1
281
     1
  3
2
360
827
  0
DICTIONARY
  5
82D
102
{ACAD_REACTORS
330
82C
102
}
330
82C
100
AcDbDictionary
280
     1
281
     1
  3
3
360
82E
  0
DICTIONARY
  5
836
102
{ACAD_REACTORS
330
835
102
}
330
835
100
AcDbDictionary
280
     1
281
     1
  3
3
360
837
  0
XRECORD
  5
87A
102
{ACAD_REACTORS
330
236
102
}
330
236
100
AcDbXrecord
280
     1
102
DISPLAYNAME
  1
Metric50
102
FLAGS
 90
        0
  0
XRECORD
  5
1FA
102
{ACAD_REACTORS
330
1F9
102
}
330
1F9
100
AcDbXrecord
280
     1
 70
     1
 90
429727718
  1
D62C5603-E3A1-4AEA-B7FB-FE5D8D0755AF
310
504B03040A0000080000CC70623B3DEE336E79000000790000001B0000006175746F6465736B2D64657369676E2D7061636B6167652E786D6C3C3F786D6C2076657273696F6E3D22312E302220656E636F64696E673D227574662D3822203F3E3C666F726D6174733E3C666F726D61743E687474703A2F2F736368656D612E
310
6175746F6465736B2E636F6D2F64657369676E2D7061636B6167652F323030393C2F666F726D61743E3C2F666F726D6174733E504B0304140006080800CC70623BD486FD9CA0000000F4000000130000005B436F6E74656E745F54797065735D2E786D6C7D8EC10E82300C865F65E91D8A1E8C310C0EEA1BF002731658846E
310
D98AC1B77784ABF1D8FE5FBFBF75BBCE937A534CCEB38643598122B6FEE978D0B0485F9C41B54DDD7D022595594E1A469170414C76A4D9A4D207E29CF43ECE46F218070CC6BECC4078ACAA135ACF422C856C0E68EA1BF5669944DDD7BCDE7B1F8E415D77AECB980613C2E4AC91FC167A2B244592486606FC29C8FD7F045B9A
310
EF7053A7E60B504B0304140006080800CC70623B853B8169EB0000007C01000008000000636F72652E786D6C8D90416EC3201045AF62CDB6C206821CC7C244919D9CA01740401C94182C03558F5F9C3852BBEB6A467FFE9B197D7EFC9E1EC5975982F5AE035262288C535E5B377690E21535501C055FBC8FBF6C503839990E
310
5619041F179FE64D52DE45E362569DD7661365082642A11EB9E920A89B99642953CC8E702F67A9EE7234257977194EC9EAE275C4EABCCF5EAD5940D4AC6F0E35A568B8F43562CD7046CD199FD07E60174276A7BE677B5EADB0E0D14EEFFB6A31321A0D82627C4084204C3F096B71DD52F6819B16635EADF63F509AF53FA164
310
5DDCD1EDDD17164090FCC8732078B56691CB33A85CD7DCC40F504B0304140006080800CC70623B55019EA25F0000007C00000007000000636E782E786D6C4DCB3B0E80201045D1AD90E915ED2CF8AC45050C11660C8261F98AB1B07AC9C97D42D718D865D3E909258CFD00CCE24AC6E326A164D74DC0B4128928FF32603847
310
2BA13128B1252AC747C6BAB984FC68F0B87FE8960A5C09FE86CFB69FBA01504B0304140006080800CC70623BDBABAAF470010000D40300000C0000006662782F636F72652E786D6CC553D16E823014FD95A6AF4B694182CC941A83FA05FB810A9511A125A5257EFE2E82712ECEB8A7F100CD39F7F69E734AF9FADC366850B6
310
AF8DCE7018308C942E4C59EB2AC3DE1D498AD15A706B8CFB56869196ADCAF00863C12B6B7C374385D14E6907A836A59A41D9F7CA615434B0C8705F7CAA5606D23BA8E84F41278B93AC54100640439DE0BDB320004D43C63716C7C399D30917DCFBBA9CD9BA8469F5B156168B24CED3F7248AC8769F27244EB73B92EED8862C
310
B7F13E0C179B3C8F979C8ECD82BBBABDAA2BAC924E9558448CBD9330242CFA08E3154B5651FCC6D215639C8EE5774DBE2B5F6CF2B5768B68963BB5F5588420E442FC700B1139D4CB01F450C1E918227C2E09DF070D8140C84E1E9AAB8F1340832A9CB13130A5F1376A908D57309505ECF2A0DF179C4E9D30F5B239B87E3823
310
7A79C6F31DE1A8A5AEC08474B03C7837EAE4938639B44E5932B833D2C6B6B279CDC613877FA26EE21F4A2A4C63EC7F29A2F301D1F9F7A0E37D145F504B0304140006080800CC70623B9C113CC27E0000009D0000000B0000006662782F636E782E786D6C4DCCDF0A83201C86E15B91DFB94BFB330DD428C8FB886521330DA7
310
6397BF1A1DECE883878F57749FCDA1B7892F1BBC047A23808C7F84D9FA55424E0BE6803A256208E9EF06C84F9B91703228B1C690F78B66B34CD9A5439DF5CF0BFBF65E35BCA1B8D6A5C6F540381E886698B5741C695F9503EBA150A2F8958E3DC3EA0B504B0304140006080800CC70623B7DF2F77C2A010000120200003100
310
00006662782F41393633353835312D344632462D344230382D423046372D3739314545314133324237412F636F72652E786D6C8D51DB8EC22014FC15C2939B0D2DB4B45643319AE817EC0F6041255A68B86CFCFC856D4D76DF7CE190393373060EDB3DC707F856CE6B6B7A480A0C81328395DA5C7B18C3057510EC3873D686
310
3F34088C18550F330C39BB3A1BA7051AAC09CA84841A2BD5020AEF55806078A44B0FFD7053A328440C89E1EFC52486BBB8AA8214A99D789CF9E05200300FC927E4FB4D5B375D43103D5527440FB843077C5AA3F5861C8F645F5787F59E95B390B318B55CE45AA638FAA2957BD7248B390B7A7CC51F9C124149C82B8C378810
310
84AB2F42B7B8DD56F413775B8C5999E9FF4471926F8AA236A1AE96B8B3CC434E5839373893369E1FAF30EA395917409EB7F26AF8801C171837A4A6AC9C89E9F9C9B1A58BA30FD6A5EF5DDDCF894B9AD9B6A59C957943A9FCAE2FD5BC4DFE03504B0304140006080800CC70623BAD7543B64E01000033030000300000006662
310
782F41393633353835312D344632462D344230382D423046372D3739314545314133324237412F636E782E786D6CD593CD6EC32010845F0571AD6CE3D48AD20813A9873E410FBD12D82434182C7EAAE6EDBB2424CD25871E7B41D6EC30B3FA84F9E67BB2E40B4234DE8DB46F1925E094D7C6ED479AD3AE5951B2113C789FEE
310
6C943839C1488B4C05DF079FE72A69D8C96C13AAD6B8631503449F83828872B949AC57D26200B826A308D316B4064D6E46FCDA41C05550DC9E483A00797BFD207EFB092A45DE9514C1BBD22178396BD39D891265658C238DEA00936C654E5E433CB65A26D9F6EDB5EBC14EBF49A45CB856E66048291F6939A9A81BB5C89177
310
38143CA680F4AA299D66A042CEB3354A2684DC9D8D178FE0D9B8B41CAAD720F880EE7EF93C0C18769E099ECC04D5A102C8049A8A05632F4DDF376CF1DE0F6BB65C2F8627B65A33C6BB62177CEBBDAD973006829F89F22E814B54F4BC2BE347F8AA8F681390B50FA73F804400B5F542E796F19FF974E7F78DB802FE05E20750
310
4B0304140006080800CC70623BE75B7789680500003C100000340000006662782F41393633353835312D344632462D344230382D423046372D3739314545314133324237412F6F626A656374732E786D6CAD575B8F9B3818FD2B887D06C22499CB8AA1CA655245D5B455A356FB305264C061D8018C6C3393D95FBFC7600890
310
A4CD5EF210B0B1BFEBF98E3F7B1FF6596ABC522E1296DF9BAE3D320D9A872C4AF2F8DE2CE5CEBA358D0FBEC719939D65A691938CDE9B6ADAF4BD98B3B2D05311DD91329583D9D5FC0F438434A7A611A644887B5384CF34233629258BA878B12322891DEFF6B66BD70BFB62634E8AE781D082709A4B588AF91C528CDA28B73F
310
1C998EEF39EABBEFA97FBD6A7C7E9553F9D3D79FE442923C3C523610337627CB87ABE99D359D4CC6D6E4FACAB5E6ABF9D2726FC6A3C5F56271377BB88362213924694B38DD99FE47C48627A1E7D49F5A8BB5E1A74C0A599ED3B0F21F1E56366B89112D681E218F0915D0D6F17AD41FBA2A369DCF6335D62ABBD39779D5DDD1
310
11D4D8DE3CBB96B2E04FB8202E41051754A1AA8E8F76B4C6DFE810B580B1547F4B84911149794252234D024EF8BBE963A95AE27B3D310A9D5C215C7960FAEE415ED75694C6AFB17BCACA5D99A60A9AA65F217B0BFC53292ACB92BF283FAD0D3621576592CB5BED907C2FA8E9DF794E35E97BEA31BED21FEB401ABB94C44839
310
DCACBF0E1C5DA8DA5B2F4DFFD32AD86F543D9E565E7056502E157C00AD2671CD534549AB752FCA9CDA00677A313F04E51B22FF19E57B300579E3C97EB29F682D92935CEC18CF901B7B54FD8C51F362B56FC72FE0B3C1EAE335EDCCBF5AEC39ADB17DC238973F804BA5E6F6BFE7AF1FB32E523BE9F3BD571418E3631DCA4D48
310
5250CF639223210A9446CA30052EDF057BD35F8329C1ECD84552BF0DC8D18BE7BCE23BFE6BD960AB4A7DE79923A103BEBD80F911CBAA2C60DB19B01CF164A5583B772EE6D3FFA56666CBCDA74DC97724A48F9A58967497E489C4D979006FD7A05E227A1EBDD0F737C623387A9C844D3709995625106D157315F8B8392CD4E0
310
A0B9A720C4BE9829CEF37EA1E13111214D53925356365ADA634861B52519DD27A00AEB808EAF0628E6F435519D446F45CF2C9CF5214F0A15B2F6D06B79DA3EE3CBF7F56780D2F4E7EF73A0F5E5B02A38D07DC852C6B7C1FBB6664213E0C39E3EBA7FF4E1AD23EA2829407C85E586727488B751B2DB9502BC7B228A3FD68B6E
310
A65A22397E690AA8D158D7E404EC8CDA235CC3B7D1898680131CEC2CDF2638C65196279577750F15884AEE19F94199155B92B13297978469D4F8D358DF0AEF7631E28DC8F0D9F437D5D39A83B2231A1D52D543813A824EF8D44BCFF2FA6A31BD1E8DAD87F1CCB526B3879935BF59CDADD5C37479BB1CDD4CA7B3556B516589
310
EF352754B706114D9C885EC9131DE6EFEB43D99AFE2391C2F958179413D7CFEF6B1B6DB1E7600F00DE6E5C67454A339A4BA2E0FBA85ED26F045D454F463DBFCE484C2F90F2E5E3666003662ED8F755951A7D1BECD5B30B550B2785C8E7320B7292A4838DDA71BBC863ED7613CAF659337A3354231D4FF4A182A54904C2898C
310
98B28C4AD0CE056CCF332A80986E571EE9DBC305BB5FEB7E509220A58D25CF042D712A806AC0AD0C657FDEF80D2D9CEAA2EE4D1C76F60BFE74219A06527D6F82DF6412526107381E55E353090704D085B52408A8913C4ED159D79BDA71BB4BC506F4831350EB6F975CD22D69BF7AC49B91A2C0A9DDA3D5CA36AD20FC478E37
310
E61844E2352865EBCB61A275A65283CAAA9DD27703B4102F5AF51EF5F573B75CBB5AD38BC845F7A49F82A0966A49C2E3EA5EA0ECD326CD965F1DB402C6FA8B51A4658C5C5E2EC9E214602E55810345408596591009A82E7E7FFACA19EEA299B14A0081A705CB3296EBC14CDF658DCD336EA6D1136881AAEB87B81AB9EE53D5
310
F5EB8BC8362082DA24122F98680A4E7930C01A0079749CEA14382A0783E5EBA5A10F8C098456A03D6A4AEB6BB881E2513747552A5DB22C7EDAF83BD5528081A365F7FF06504B0304140006080000CC70623B000000000000000000000000350000006662782F41393633353835312D344632462D344230382D423046372D37
310
39314545314133324237412F76657274696365732E62696E504B0304140006080800CC70623BF270F1330600000004000000360000006662782F41393633353835312D344632462D344230382D423046372D3739314545314133324237412F747269616E676C65732E62696E636660600000504B0304140006080000CC7062
310
3B000000000000000000000000370000006662782F41393633353835312D344632462D344230382D423046372D3739314545314133324237412F617474726962757465732E62696E504B0304140006080800CC70623B08DA0BD19000000041010000360000006662782F41393633353835312D344632462D344230382D4230
310
46372D3739314545314133324237412F6469726563746F72792E786D6C858F410AC3201045AF22B36F53E9A60B35CBEEBAE80D244E44489C6234F4F835464A48035D0DF398FF9F8AF63D0E6CC63039F212F8F9020C7D47C6792B21C5FE7403D62A1188E2E60C98D7234A5830286103A55745067B9D86B8A3CF9C7F90C11DE6
310
07FB144396D7B6A82D282E9A152AD114D5EF2CB866EEE831B8EEA07A7BB5A8D7D61A2BAAEB7FD5F70921FF497D00504B0304140006080800CC70623BEDD1DC58FD000000A00100003B0000006662782F41393633353835312D344632462D344230382D423046372D3739314545314133324237412F7265736F75726365732F
310
636F72652E786D6C8D504B6E833010BD0A9A6D65B00922041947112427E8052C33A156828DFCA97AFC9A40A576D7CDCCE87D344F8F9FBFE667F689CE6B6B3A6039850C8DB2A336530731DC4903D95970676DF82583CCC8193B5861107C72362E3BA4AC096842428D1D7107A5F7182053CF7474E0D507CE32973124857FE48B
310
540F3961CEF244279DE03EB81420DB9EAC1384436FA353E879B1B182C7A8C75DA3C7F453DF353A1075D537A7BA6464B8F535A99AE14A9A2BBD90E350DD183B5CFABE3AF262350B1EF4FC9351399401471025A527C218A1E53BAB5A5AB765F5469B96525EACF23FA6B88CFF34456DC2A1DCE36E360F82A5202F42F062ED2BAD
310
579969AFDD8A6F504B010214000A0000080000CC70623B3DEE336E79000000790000001B00000000000000000000000000000000006175746F6465736B2D64657369676E2D7061636B6167652E786D6C504B01021400140006080800CC70623BD486FD9CA0000000F40000001300000000000000000000000000B20000005B
310
436F6E74656E745F54797065735D2E786D6C504B01021400140006080800CC70623B853B8169EB0000007C010000080000000000000000000000000083010000636F72652E786D6C504B01021400140006080800CC70623B55019EA25F0000007C000000070000000000000000000000000094020000636E782E786D6C504B
310
01021400140006080800CC70623BDBABAAF470010000D40300000C00000000000000000000000000180300006662782F636F72652E786D6C504B01021400140006080800CC70623B9C113CC27E0000009D0000000B00000000000000000000000000B20400006662782F636E782E786D6C504B01021400140006080800CC70
310
623B7DF2F77C2A010000120200003100000000000000000000000000590500006662782F41393633353835312D344632462D344230382D423046372D3739314545314133324237412F636F72652E786D6C504B01021400140006080800CC70623BAD7543B64E010000330300003000000000000000000000000000D2060000
310
6662782F41393633353835312D344632462D344230382D423046372D3739314545314133324237412F636E782E786D6C504B01021400140006080800CC70623BE75B7789680500003C10000034000000000000000000000000006E0800006662782F41393633353835312D344632462D344230382D423046372D3739314545
310
314133324237412F6F626A656374732E786D6C504B01021400140006080000CC70623B0000000000000000000000003500000000000000000000000000280E00006662782F41393633353835312D344632462D344230382D423046372D3739314545314133324237412F76657274696365732E62696E504B01021400140006
310
080800CC70623BF270F133060000000400000036000000000000000000000000007B0E00006662782F41393633353835312D344632462D344230382D423046372D3739314545314133324237412F747269616E676C65732E62696E504B01021400140006080000CC70623B0000000000000000000000003700000000000000
310
000000000000D50E00006662782F41393633353835312D344632462D344230382D423046372D3739314545314133324237412F617474726962757465732E62696E504B01021400140006080800CC70623B08DA0BD1900000004101000036000000000000000000000000002A0F00006662782F41393633353835312D344632
310
462D344230382D423046372D3739314545314133324237412F6469726563746F72792E786D6C504B01021400140006080800CC70623BEDD1DC58FD000000A00100003B000000000000000000000000000E1000006662782F41393633353835312D344632462D344230382D423046372D3739314545314133324237412F7265
310
736F75726365732F636F72652E786D6C504B0506000000000E000E0080040000641100000000
  0
XRECORD
  5
1F8
102
{ACAD_REACTORS
330
1F7
102
}
330
1F7
100
AcDbXrecord
280
     1
 70
     1
 90
429727718
  1
30362254-06B7-45E0-A893-8CFA70E3D6BC
310
504B03040A0000080000CC70623B3DEE336E79000000790000001B0000006175746F6465736B2D64657369676E2D7061636B6167652E786D6C3C3F786D6C2076657273696F6E3D22312E302220656E636F64696E673D227574662D3822203F3E3C666F726D6174733E3C666F726D61743E687474703A2F2F736368656D612E
310
6175746F6465736B2E636F6D2F64657369676E2D7061636B6167652F323030393C2F666F726D61743E3C2F666F726D6174733E504B0304140006080800CC70623BD486FD9CA0000000F4000000130000005B436F6E74656E745F54797065735D2E786D6C7D8EC10E82300C865F65E91D8A1E8C310C0EEA1BF002731658846E
310
D98AC1B77784ABF1D8FE5FBFBF75BBCE937A534CCEB38643598122B6FEE978D0B0485F9C41B54DDD7D022595594E1A469170414C76A4D9A4D207E29CF43ECE46F218070CC6BECC4078ACAA135ACF422C856C0E68EA1BF5669944DDD7BCDE7B1F8E415D77AECB980613C2E4AC91FC167A2B244592486606FC29C8FD7F045B9A
310
EF7053A7E60B504B0304140006080800CC70623B1EC5D7A3EB0000007C01000008000000636F72652E786D6C8D90416EC3201045AF82665B6103C6756C6122AB4D4ED00B204C5C94182C03558F5F9C3852BBEB6A467FFE9B197D71FC9E6FE8CBACC17AD7032D0820E3B41FAD9B7A48F1820F808E52ACDEC75F36404ECDA687
310
4D0629A6D5A76597B477D1B89855E747B38B2A041301E95B6E7A08FAD3CCAA50296647B8168BD2573599823EBB0CA76447F43862C7BCCF5EAC59410E4DDD9C7973C2755553CCCFA4C603E3040F1565ED3B1FDE4E432BCA0D9622DAF9795FAF464533826484B498524CD807E51D79ED187F21878E10516EF63F505AC67F42C9
310
BA58B1FDDD071640D2FCC87D2045B96591CB3DA85CB7DCE40F504B0304140006080800CC70623B55019EA25F0000007C00000007000000636E782E786D6C4DCB3B0E80201045D1AD90E915ED2CF8AC45050C11660C8261F98AB1B07AC9C97D42D718D865D3E909258CFD00CCE24AC6E326A164D74DC0B4128928FF32603847
310
2BA13128B1252AC747C6BAB984FC68F0B87FE8960A5C09FE86CFB69FBA01504B0304140006080800CC70623B8C9102E971010000D40300000C0000006662782F636F72652E786D6CC5535B6E833010BC8AE5DF0A6C08340F1947A84D4ED00B38C6A128602363A31CBFCB234A53A551FA553EC09AD9F5CE8C31DB9E9B1AF5CA
310
7695D1198E428A91D2D214952E33ECDD315861B4E5CC1AE3BE9561A445A3323CC098B3D21ADFCE9034DA29ED00D5A6503328BA4E398C640D8B0C77F253352214DE4145770A5B214FA2546114020D759C75CE8200340D19DE981F0F6746269C33EFAB6266AB02A655C74A59CCF365BADC27CB5D902ED22848F6340DF238A141
310
BE88E2F57B92BFEDF23523433367AE6A2EEAA455C2A902F398D2751045018D3FA264435F3771F242571B4A1919CA6F9A7C5B3CD9E42BED16F12C776AEB308F40C848FC700B1139D4891EF410CEC810227CC6846F8386402064270EF5C5C709A05E49676C024C61FC95EA45ED154CA5211D1FF4FB8291A913A68E9B83EBBB33
310
E2A7673CDE118E5AE8124C0807CB8377834E366998436B950D7A7746DAD846D4CFD978E0F04FD455FC5D49D2D4C6FE9722321F10997F0F32DC47FE05504B0304140006080800CC70623BFFEA85907E0000009D0000000B0000006662782F636E782E786D6C4DCCD10A83201886E15B91FFDC95D95A811AB6F23E625948A6C3
310
E9D8E5AF46073BFAE0E1E365ED67B3E8ADC3CB78C7815C7240DA3DFC64DCC221C519D7805AC182F7F1EF06C88D9BE6703008B6049F9E274D7A1E938DBB5AE3D6131B2589BA0D3D965551E0B2EA732C9B9A624AAEB41E3A557677029960D9AFB4EF11165F504B0304140006080800CC70623B4FEEA4082C0100001202000031
310
0000006662782F39464131463745442D413632322D343644302D413938332D3331353338454246344243312F636F72652E786D6C8D515B6EC32010BC0AE2AB55850DD871ED0813254D72825EC00192A2C460F1A872FC42ED48ED5F7E00CDCECCCEB26C731F6FE05B39AFADE921293004CA082BB5B9F43086336A21D870E6AC
310
0D7F68109861543DCC30E4ECE26C9C164858139409093556AA051CBC570102714B8F1E7AF1A5C6A11862480C7F2DA6415C878B2A4891CA89C7990F2E050073937C42DE1DB7E4F87ED8A36D4329AA9B3D46DBAEAD504556557BD81DEBDD0761E52CE42C462D17B996298E3E6BE59E35C962CE821E1FF18553435012728A7187
310
0841987E927A8D9B35ADDF70BBC6989599FE4F1427F9A4286A132ABAC49D651EF234CD5CE04CDA78BA3DC2A8FB645D00B9DF8B57E215725C60BCA2A463E54C4CE327C7A65E1C7DB02E7DEFCBF594B864C5CA6CDBD49C957943E9FA5D5FBAF336F90F504B0304140006080800CC70623BAD7543B64E01000033030000300000
310
006662782F39464131463745442D413632322D343644302D413938332D3331353338454246344243312F636E782E786D6CD593CD6EC32010845F0571AD6CE3D48AD20813A9873E410FBD12D82434182C7EAAE6EDBB2424CD25871E7B41D6EC30B3FA84F9E67BB2E40B4234DE8DB46F1925E094D7C6ED479AD3AE5951B2113C
310
789FEE6C943839C1488B4C05DF079FE72A69D8C96C13AAD6B8631503449F83828872B949AC57D26200B826A308D316B4064D6E46FCDA41C05550DC9E483A00797BFD207EFB092A45DE9514C1BBD22178396BD39D891265658C238DEA00936C654E5E433CB65A26D9F6EDB5EBC14EBF49A45CB856E66048291F6939A9A81BB5
310
C8917738143CA680F4AA299D66A042CEB3354A2684DC9D8D178FE0D9B8B41CAAD720F880EE7EF93C0C18769E099ECC04D5A102C8049A8A05632F4DDF376CF1DE0F6BB65C2F8627B65A33C6BB62177CEBBDAD973006829F89F22E814B54F4BC2BE347F8AA8F681390B50FA73F804400B5F542E796F19FF974E7F78DB802FE05
310
E207504B0304140006080800CC70623B16AB87BA640500003C100000340000006662782F39464131463745442D413632322D343644302D413938332D3331353338454246344243312F6F626A656374732E786D6CAD575B6FA33818FD2B887DE6924B3BED8A326A92B68A663B534DD4D13E548A0C38942D60649B369D5FBFC7
310
600890A493BDE42160637FD7F31D7FF63E6FB3D478A55C242CBF3247B66B1A340F5994E4F19559CA8D75611A9F7D8F33263BCB4C232719BD32D5B4E97B316765A1A722BA21652A07B3B7B33F0D11D29C9A46981221AE4C113ED38CD8A4942CA2E2C58E882476BCD9DA23BB5ED8171B73523C0F841684D35CC252CCE79062D4
310
468DFA43D7747CCF51DF7D4FFDEB5593E3AB9CCA9FBEFE241792E4E19EB28198C968BAB8199F5D5A67D3E9C49A9E8F47D6EC76B6B0469F26EEFC7C3EBFBCBEB98462213924694B38DD98FE1D62C393D073EA4FADC5DAF04326852CCF6958F90F0F2B9BB5C48816348F90C7840A68EB78EDF68723159BCEE7891A6B95DDE9D3
310
BCEAEEE8086A6C6F9E5D4B59F0175C10A7A0820BAA5055C7473B5AE3CFDD452D602CD5DF12616444529E90D448938013FE6EFA58AA96F85E4F8C42275708571E98FE6827AF6B2B4AE3D7D83D64E5A64C53054DD3AF90BD06FEA9149565C94FCA0F6B834DC85599E4F2423B24DF0B6AFA979E534DFA9E7A4CC6FA631D486393
310
921829879BF5D781A373557BCB85E97FB90DB62B558F8795179C15944B051F40AB495CF35451D26A4727654E6D8033BD98EF82F21D91FF8AF2DD9982BCF1643BDD4EB516C9492E368C67C88DED563FC36D5EACF66DFF057C3658BDBFA69DF9578B3DA735B64F18C7F20770A9D45CFCF7FCF563D6456A277DBEF78A02637CA2
310
43B90A490AEAB94F72244481D24819A6C0E59B606BFA4B3025981DBB48EAB701D97BF19C577CC77F2D1B6C55A9EF3C732474C0B727303F625995056C3B02963D9EAC146BE78EC5FCEC7FA999EBC5EACBAAE41B12D27B4D2C0BBA49F244E2ECDC81B76B502F113D8F5EE8FB1BE3111CDD4FC2AA9B844CAB1288B68AB90A7CDC
310
1C166AB0D3DC5310625FCC14E779BFD0709F8890A629C9292B1B2DED31A4B0DA928CEE135085754027E3018A397D4D5427D15BD1330B677DC8934285AC3DF45A9EB68FF8F2B8FC0A509AFEECFD0FF2DE25CC6047F7214B195F07EFEB9A094D800F7BFAE8FED187B78EA8A3A400F115961BCAD1215E47C966530AF0EE8128FE
310
58CEBB996A8964FFA529A046635D9353B0336A8F700DDF46271A024E70B0B37C9DE01847591E54DED53D54202AB947E4076556AC49C6CA5C9E1226B7F1A7B1BE15DEED62C41B91E1B3E9AFAAA735036547343A925075041DF0A9979E893B391F8FCFA6967B3EFB644DCF6E5CEBFAE272625DCC6FAF3FB93793C5F90CE1EF57
310
407342756B10D1C489E8953CD1617E5CEECAD6F4EF8914CE5D5D504E5C3F1F9736DA62CFC11E00BCDDB8CC8A9466349744C1F75EBDA4DF09BA8A9E8C7A7E9991989E20E5DBDD6A6003664ED8F7A04A8DBE0DF6EAD9B9AA858342E47399053949D2C146EDB85DE4B176BB0965FBAC19BD19AA918E27FA50C1D22402E144464C
310
59462568E704B6E71915404CB72B8FF4EDE184DDAF753F284990D2C6926782963815403548A70C657FDEF80D2D9CEAA2AE4C1C76F60BFE74219A06527D6582DF6412526107381E55E353090704D085B52408D0933C4ED159D79BDA71BB4BC506F4831350EB6F979CD22D69BF7AC49B91A2C0A9DDA3D5CA36AD20FC478E37E6
310
1844E2352865EBCB6EA275A652E3836BE04EFB400BF1A2556F515F1FBB35B2AB35BD889C744FFA1004B5544B121E57F70215746DD2F5E2C1412B602CBF19455AC6C8E5E9922C4E01E65215385004546899059180EAFCF7A707CE7017CD8CDB0410789AB32C63B91E5CEBBBACB17AC6CD347A022D5075FD106377347AAABA7E
310
7D11590744509B44E205134DC1290F06580320F78E537D3D73540E06CB970B431F185308AD40BBD794D6D77003C5A36E8EAA54BA64597CD8F83BD552A080A365F7FF06504B0304140006080000CC70623B000000000000000000000000350000006662782F39464131463745442D413632322D343644302D413938332D3331
310
353338454246344243312F76657274696365732E62696E504B0304140006080800CC70623BF270F1330600000004000000360000006662782F39464131463745442D413632322D343644302D413938332D3331353338454246344243312F747269616E676C65732E62696E636660600000504B0304140006080000CC70623B
310
000000000000000000000000370000006662782F39464131463745442D413632322D343644302D413938332D3331353338454246344243312F617474726962757465732E62696E504B0304140006080800CC70623B08DA0BD19000000041010000360000006662782F39464131463745442D413632322D343644302D413938
310
332D3331353338454246344243312F6469726563746F72792E786D6C858F410AC3201045AF22B36F53E9A60B35CBEEBAE80D244E44489C6234F4F835464A48035D0DF398FF9F8AF63D0E6CC63039F212F8F9020C7D47C6792B21C5FE7403D62A1188E2E60C98D7234A5830286103A55745067B9D86B8A3CF9C7F90C11DE607
310
FB144396D7B6A82D282E9A152AD114D5EF2CB866EEE831B8EEA07A7BB5A8D7D61A2BAAEB7FD5F70921FF497D00504B0304140006080800CC70623B0D6EF93BFE000000A00100003B0000006662782F39464131463745442D413632322D343644302D413938332D3331353338454246344243312F7265736F75726365732F63
310
6F72652E786D6C8D50596E833010BD0A9ADFCA60B334011947A8694ED00B586642AC041B79A97AFC9A40A5F6AF3F33A3B7689E1E3F7DCD8FEC139DD7D6F4C0720A191A65476DA61E62B892236427C19DB5E1970C322367EC618541F0C9D9B8EC90B226A009093576C41D94DE63804C3DD2D18357379C652E63480A7FCF17A9
310
EE72C29CE5894E3AC17D702940B63D59270887DE46A7D0F36263058F518FBB468FE9A7BE6A7420864373B8D4873369AA8691FA421B3294352543C5CAF65C0F6FEF43CB8BD52C78D0F34F46E550061C419494B6843142CB0F5677F4B52BEB177AEC28E5C52AFF638ACBF84F53D42654E51E77B379102C05791282176B5F693D
310
CB4C7BED567C03504B010214000A0000080000CC70623B3DEE336E79000000790000001B00000000000000000000000000000000006175746F6465736B2D64657369676E2D7061636B6167652E786D6C504B01021400140006080800CC70623BD486FD9CA0000000F40000001300000000000000000000000000B20000005B
310
436F6E74656E745F54797065735D2E786D6C504B01021400140006080800CC70623B1EC5D7A3EB0000007C010000080000000000000000000000000083010000636F72652E786D6C504B01021400140006080800CC70623B55019EA25F0000007C000000070000000000000000000000000094020000636E782E786D6C504B
310
01021400140006080800CC70623B8C9102E971010000D40300000C00000000000000000000000000180300006662782F636F72652E786D6C504B01021400140006080800CC70623BFFEA85907E0000009D0000000B00000000000000000000000000B30400006662782F636E782E786D6C504B01021400140006080800CC70
310
623B4FEEA4082C0100001202000031000000000000000000000000005A0500006662782F39464131463745442D413632322D343644302D413938332D3331353338454246344243312F636F72652E786D6C504B01021400140006080800CC70623BAD7543B64E010000330300003000000000000000000000000000D5060000
310
6662782F39464131463745442D413632322D343644302D413938332D3331353338454246344243312F636E782E786D6C504B01021400140006080800CC70623B16AB87BA640500003C1000003400000000000000000000000000710800006662782F39464131463745442D413632322D343644302D413938332D3331353338
310
454246344243312F6F626A656374732E786D6C504B01021400140006080000CC70623B0000000000000000000000003500000000000000000000000000270E00006662782F39464131463745442D413632322D343644302D413938332D3331353338454246344243312F76657274696365732E62696E504B01021400140006
310
080800CC70623BF270F133060000000400000036000000000000000000000000007A0E00006662782F39464131463745442D413632322D343644302D413938332D3331353338454246344243312F747269616E676C65732E62696E504B01021400140006080000CC70623B0000000000000000000000003700000000000000
310
000000000000D40E00006662782F39464131463745442D413632322D343644302D413938332D3331353338454246344243312F617474726962757465732E62696E504B01021400140006080800CC70623B08DA0BD190000000410100003600000000000000000000000000290F00006662782F39464131463745442D413632
310
322D343644302D413938332D3331353338454246344243312F6469726563746F72792E786D6C504B01021400140006080800CC70623B0D6EF93BFE000000A00100003B000000000000000000000000000D1000006662782F39464131463745442D413632322D343644302D413938332D3331353338454246344243312F7265
310
736F75726365732F636F72652E786D6C504B0506000000000E000E0080040000641100000000
  0
XRECORD
  5
175
102
{ACAD_REACTORS
330
173
102
}
330
173
100
AcDbXrecord
280
     1
270
     1
271
     1
  0
XRECORD
  5
174
102
{ACAD_REACTORS
330
173
102
}
330
173
100
AcDbXrecord
280
     1
270
     1
271
     1
  0
XRECORD
  5
1FB
102
{ACAD_REACTORS
330
173
102
}
330
173
100
AcDbXrecord
280
     1
 70
     0
 90
1673772943
  1
ECE7A1D2-D628-4531-984C-D00F80459256
310
504B03040A0000080000CC70623B3DEE336E79000000790000001B0000006175746F6465736B2D64657369676E2D7061636B6167652E786D6C3C3F786D6C2076657273696F6E3D22312E302220656E636F64696E673D227574662D3822203F3E3C666F726D6174733E3C666F726D61743E687474703A2F2F736368656D612E
310
6175746F6465736B2E636F6D2F64657369676E2D7061636B6167652F323030393C2F666F726D61743E3C2F666F726D6174733E504B0304140006080800CC70623BD486FD9CA0000000F4000000130000005B436F6E74656E745F54797065735D2E786D6C7D8EC10E82300C865F65E91D8A1E8C310C0EEA1BF002731658846E
310
D98AC1B77784ABF1D8FE5FBFBF75BBCE937A534CCEB38643598122B6FEE978D0B0485F9C41B54DDD7D022595594E1A469170414C76A4D9A4D207E29CF43ECE46F218070CC6BECC4078ACAA135ACF422C856C0E68EA1BF5669944DDD7BCDE7B1F8E415D77AECB980613C2E4AC91FC167A2B244592486606FC29C8FD7F045B9A
310
EF7053A7E60B504B0304140006080800CC70623BD9DDAED0EC0000007C01000008000000636F72652E786D6C8D90416EC3201045AF82665B61836D9CD8C2444DD39CA01740405C94182C03558F5F9C3852BBEB6A467FFE9B197D7EF89E6EE8CB2CC17A37002D0820E394D7D68D03A478C17B4007C117EFE32F1B20272733C0
310
2A83E0E3E2D3BC49CABB685CCCAAF3DA6CA20CC14440EA969B0182FA34932C648AD911AEC52CD5558EA6A0CF2EC329598D1E47ACCEFBECC59A050463A7EA5833865FEBDD0E37353BE3EE8DBDE3F6786A48D375FBF6CC78B9C282473B3DEFABC5C86834888A900E538A49F5419B9EB47DD5BC907D4F082F57FB1F28CDFA9F50
310
B22ED6D5F6EE030B20687EE43E10BC5CB3C8E51E54AE6B6EE207504B0304140006080800CC70623B55019EA25F0000007C00000007000000636E782E786D6C4DCB3B0E80201045D1AD90E915ED2CF8AC45050C11660C8261F98AB1B07AC9C97D42D718D865D3E909258CFD00CCE24AC6E326A164D74DC0B4128928FF326038
310
472BA13128B1252AC747C6BAB984FC68F0B87FE8960A5C09FE86CFB69FBA01504B0304140006080800CC70623BA24EB22D72010000D40300000C0000006662782F636F72652E786D6CC5535B6E833010BC8AE5DF0A6C5E49888CA3A6694ED00B38E05014B091B1518EDFE511A5A9D228FD2A1F60CDEC7A67C6986DCE4D8D7A
310
69BA4AAB0C073EC548AA5C17952A33ECECD15B61B4E1CC686DBF9561A44423333CC098B3D268D7CE50AE9595CA02AA74216750749DB418E5352C32DCE59FB211BE70162ABA93DF8AFC244AE9073ED050C759670D0840D390E18DF9F1706664C23973AE2A66B62A605A75ACA4C13C4976E1364A12EF355A2EBD384AF65EFA96
310
BC7B8BED2EA6719AAE16FB8491A199335B351775B991C2CA02F390D2D40B028F861F41BCA68B7518BFD0D59A524686F29B26D7164F36B94AD9289CE54E6D1DE6010819891F6E21228B3AD1831EC219194284CF98F06DD01008846CC5A1BEF83801D4CBDC6A1303536877A57A513B0953A94FC707FDBE6064EA84A9E3E6E0FA
310
EE8CF0E9198F7784A316AA0413C2C2F2E0ECA0934D1AE6D05A69BCDE9E91D2A611F573361E38FC1375157F5752AE6B6DFE4B11990F88CCBF0719EE23FF02504B0304140006080800CC70623B408A7D3B7C0000009D0000000B0000006662782F636E782E786D6C4DCCD10A83201886E15B91FFDC552A92A0064DBC8F581632
310
D3703A76F9ABD1C18E3E78F878E5F0D9027ABBFCF2292AE86E2D20171F69F6715550CB827B40839639A5F2770314A7CD293819B45C73AAFB45B35BA61ACAA1C1C7E7855C58C15BC331339661262CC762340413D68D77DA5B42298546CBE6573AF60CEB2F504B0304140006080800CC70623B449FB9BD290100001202000031
310
0000006662782F36394639363044362D344446342D343946362D394244322D3234314243333846323333332F636F72652E786D6C8D515B6EC32010BC0AE22B55850D98B871848994463E412FE002495162B07854397EA176A4F62F3F2C9A9D991D587EB84F37F0AD7D30CEF6905418026DA553C65E7A98E219ED203808EE9D
310
8B7F6810D871D23D2C3014FCE25D9A57483A1BB58D19B54EE9151C43D0110279CB971E06F9A5A7B11A53CC8C70ADE6515EC78BAE4895DB992778883E0700CB907242D17643D7E2538BD869608875438BBAE38922CAC8F1BDD90DB4691A5E2F42C153326A951B95E398B3D1FE599322163C9AE9115F7A3D46ADA0A018778810
310
84E907617BDCEE297BC5BB3DC6BC2EF47FA234AB2745C9D8D8D035EE220B50105E2F0DC1954B9FB747187D9F9D8FA0CCDB042D5FA0C015C65B42DF78BD10F3F3B363CB56C7109DCFDFBBB97E662ED92EB62D13BC2E1BCAE5777DB9966D8A1F504B0304140006080800CC70623BAD7543B64E01000033030000300000006662
310
782F36394639363044362D344446342D343946362D394244322D3234314243333846323333332F636E782E786D6CD593CD6EC32010845F0571AD6CE3D48AD20813A9873E410FBD12D82434182C7EAAE6EDBB2424CD25871E7B41D6EC30B3FA84F9E67BB2E40B4234DE8DB46F1925E094D7C6ED479AD3AE5951B2113C789FEE
310
6C943839C1488B4C05DF079FE72A69D8C96C13AAD6B8631503449F83828872B949AC57D26200B826A308D316B4064D6E46FCDA41C05550DC9E483A00797BFD207EFB092A45DE9514C1BBD22178396BD39D891265658C238DEA00936C654E5E433CB65A26D9F6EDB5EBC14EBF49A45CB856E66048291F6939A9A81BB5C89177
310
38143CA680F4AA299D66A042CEB3354A2684DC9D8D178FE0D9B8B41CAAD720F880EE7EF93C0C18769E099ECC04D5A102C8049A8A05632F4DDF376CF1DE0F6BB65C2F8627B65A33C6BB62177CEBBDAD973006829F89F22E814B54F4BC2BE347F8AA8F681390B50FA73F804400B5F542E796F19FF974E7F78DB802FE05E20750
310
4B0304140006080800CC70623B8D05915C650500003B100000340000006662782F36394639363044362D344446342D343946362D394244322D3234314243333846323333332F6F626A656374732E786D6CAD575B6FA33814FE2B887D06429276DA1565D4266D158D3A339A6846FB502932E050B66023DB74D2FDF5FB190C01
310
9276B2973C046C8ECFF53B17071F77456EBD502133CEAE6CDF9DD81665314F32965ED995DA3A17B6F5310C04E7AA47665B8C14F4CAD6DB7618A48257A5D94AE89654B91AEDDEDDFC61C998326A5B714EA4BCB265FC440BE2924AF184CA6737218AB8E976E7FA6E4338649B0A523E8D98964450A6A029F619B8588D52FE7039
310
B1BD30F0F4F730D0FF866AF6369557DB33949F31A9088B0F848DD8CCFCF9F2767A76E99CCDE733677E3EF59D9BBB9BA5E37F984D16E78BC5E5F5ED25044B25C0C96822E8D60EEFE11B91C581D77CEA34368A1F5329E68CD1B8B61F16D63A1B8E092D294B10C78C4A48EB593D192E7DED9BDEE7995E1B91FDEDD3ACEA9FE831
310
6A756F9F7D4D79F4274C90A7A04248AA51D5F8C718DAE06FB2F75AC4796EBE65D22A88A22223B995679120E2D50E41AA49C260C046A35368846B0BECD0DFF3EBEB8AD4F835768F69B9ADF25C43D30E6B646F807FAA64AD59F61715C7A54127C4AACA98BA3006A9D792DAE165E0D59B61A01FB3A9F9D838D2DAE62445C86166
310
F37564E842E7DE6A69879FEEA2DD5AE7E371E1A5E025154AC307D06A03D73EB5978C58FFA4C8E9033066E0F3BD53BEC1F39F91BE7B55103791EDE6BBB991A2046172CB4581D8B893FA674DDA17A77B3B7C413D1B511FD2743BFF8A38F03A658705E3ADF8015C3A3417FF3D7E439FF591DA0B5F18BC20C1B8981957AE6392A3
310
F43C640C01D1A0B4728E2DD4F26DB4B3C3152A252A3B4E913CEC1C72F012782FF88EFF8637AA552DBEF76408E8A8DE9E50F9E1CB3A2DA0DB1B6039A893B56063DC5B3E3FFB5F72E67AB9FEB4AEC496C4F4C1149625DD662C53E89D7BF0F6151A046260D1337DFDC94502430F83B0EE07A130A224BCAD7DAE1D9FB6CD422FF6
310
920702629C4BB9AE79C12F243C6432A6794E18E5552BA56B431AAB5D91317302B2B071E86C3A42B1A02F999E24061403B5D0EB639195DA655DD3EBEAB4FB862DDF579F014AD0E73C22F99E28DA57FB98E75C6CA2D74D53086D600F4786E0FE3144B771A8A7B900F03594DB8A633CBC49B2EDB69228BB479CF863B5E807AAAB
310
23872F6DFEB4129B949CA33823F58830E86D65621E10047D9DB34D862E8EAC3C2ABC2F7B2C40D67CDFE01F5545B92105AF983AC54D93D69E56FB8E797F88913F898A9FEC705D3F9D1B54EC8426FB500D40A03BD0119B06E1B95DDC7EB8F6975367793EBD70E66733DFB9BC982F9CE564727731999F5D4ECFCE3B8D6A4DC2A0
310
6D50FD148437D110834A64C6CDDF57FBACB5C307A2A477DFE4939736CFEF2B175371E0E10CF0DD1D5C15654E0BCA14D1E87DD02FF93782A162C0A3D95F1524A52770F972BF1EE9809D13CE7DD599467F8ECE9ADD85CE85A34CD45355448C64F9E8A031DC2D596ACC6E5DD93D9B82DE2EF5CAF81363A8E47996A0DE24564A79
310
4115AACE09C55E14540231FDA13C319787134EBF34E3A022514E5B4D9E0826E25C02D5805B15ABE1BEF51B26383D445DD9E875EE33FE4C22DA16427D65A3BCA92CA6D28DD01DF5DC53330704308475351050232CCD31583787BA75774AFB06E5070DD0C8EF484E19968C5D83BA5B90B244D31E54D55A372320FE4786B7EA58
310
44E135AA5467CB7EA333A61683CC6A8C3257034C10CF46F40EF9F5BE59BE5BD30C3C72D235E95D10345C1D45445A5F0BB47E46A5EBE5570F9380B5FA629579952296A773720405982B9DE04011506178964401AA8BDF1FBF0A8EAB6861DD6580C0E38217056766716DAEB2D6FA0917D3E4116581EADB879C4E7CFFB11EFACD
310
3D641311495D92C8676CB409A72D18610D803CE8A626049E8EC1887CB5B44CC39883690DDA8399B4B9855B481E7D71D4A9D22F96E5BB73BF5793020C02137BF837504B0304140006080000CC70623B000000000000000000000000350000006662782F36394639363044362D344446342D343946362D394244322D32343142
310
43333846323333332F76657274696365732E62696E504B0304140006080800CC70623BF270F1330600000004000000360000006662782F36394639363044362D344446342D343946362D394244322D3234314243333846323333332F747269616E676C65732E62696E636660600000504B0304140006080000CC70623B0000
310
00000000000000000000370000006662782F36394639363044362D344446342D343946362D394244322D3234314243333846323333332F617474726962757465732E62696E504B0304140006080800CC70623B08DA0BD19000000041010000360000006662782F36394639363044362D344446342D343946362D394244322D
310
3234314243333846323333332F6469726563746F72792E786D6C858F410AC3201045AF22B36F53E9A60B35CBEEBAE80D244E44489C6234F4F835464A48035D0DF398FF9F8AF63D0E6CC63039F212F8F9020C7D47C6792B21C5FE7403D62A1188E2E60C98D7234A5830286103A55745067B9D86B8A3CF9C7F90C11DE607FB14
310
4396D7B6A82D282E9A152AD114D5EF2CB866EEE831B8EEA07A7BB5A8D7D61A2BAAEB7FD5F70921FF497D00504B0304140006080800CC70623BCA768048FE000000A00100003B0000006662782F36394639363044362D344446342D343946362D394244322D3234314243333846323333332F7265736F75726365732F636F72
310
652E786D6C8D50596E833010BD0A9ADFCA60D600328E9AA639412F609909B1126CE4A5EAF16B0295DABFFECC8CDEA2797AECF8353F924FB44E193D409E5248504B332A3D0D10FC95B4901C39B3C6F85F3248B49871801506CE266BC2B243D2688FDA47549B11775038871E12F988C7004EDE7016A9083E2ADC3D5D84BC8B09
310
D33C8D74D471E6BC8D0192EDC93A815B742658898E651BCB59086ADC356A8C3FD555A1055ED7E7E254D615792D0F075295F585746FF53B694EE78A565DD736979A65AB9933AFE69F8CD2A2F038022F28ED489E135A7CE4554F9BBEA85E68DB53CAB255FEC71496F19FA6A0B42F8B3DEE6673C0F318E4497096AD7DC5F52C33
310
EEB55BFE0D504B010214000A0000080000CC70623B3DEE336E79000000790000001B00000000000000000000000000000000006175746F6465736B2D64657369676E2D7061636B6167652E786D6C504B01021400140006080800CC70623BD486FD9CA0000000F40000001300000000000000000000000000B20000005B436F
310
6E74656E745F54797065735D2E786D6C504B01021400140006080800CC70623BD9DDAED0EC0000007C010000080000000000000000000000000083010000636F72652E786D6C504B01021400140006080800CC70623B55019EA25F0000007C000000070000000000000000000000000095020000636E782E786D6C504B0102
310
1400140006080800CC70623BA24EB22D72010000D40300000C00000000000000000000000000190300006662782F636F72652E786D6C504B01021400140006080800CC70623B408A7D3B7C0000009D0000000B00000000000000000000000000B50400006662782F636E782E786D6C504B01021400140006080800CC70623B
310
449FB9BD290100001202000031000000000000000000000000005A0500006662782F36394639363044362D344446342D343946362D394244322D3234314243333846323333332F636F72652E786D6C504B01021400140006080800CC70623BAD7543B64E010000330300003000000000000000000000000000D20600006662
310
782F36394639363044362D344446342D343946362D394244322D3234314243333846323333332F636E782E786D6C504B01021400140006080800CC70623B8D05915C650500003B10000034000000000000000000000000006E0800006662782F36394639363044362D344446342D343946362D394244322D32343142433338
310
46323333332F6F626A656374732E786D6C504B01021400140006080000CC70623B0000000000000000000000003500000000000000000000000000250E00006662782F36394639363044362D344446342D343946362D394244322D3234314243333846323333332F76657274696365732E62696E504B010214001400060808
310
00CC70623BF270F13306000000040000003600000000000000000000000000780E00006662782F36394639363044362D344446342D343946362D394244322D3234314243333846323333332F747269616E676C65732E62696E504B01021400140006080000CC70623B00000000000000000000000037000000000000000000
310
00000000D20E00006662782F36394639363044362D344446342D343946362D394244322D3234314243333846323333332F617474726962757465732E62696E504B01021400140006080800CC70623B08DA0BD190000000410100003600000000000000000000000000270F00006662782F36394639363044362D344446342D
310
343946362D394244322D3234314243333846323333332F6469726563746F72792E786D6C504B01021400140006080800CC70623BCA768048FE000000A00100003B000000000000000000000000000B1000006662782F36394639363044362D344446342D343946362D394244322D3234314243333846323333332F7265736F
310
75726365732F636F72652E786D6C504B0506000000000E000E0080040000621100000000
  0
XRECORD
  5
176
102
{ACAD_REACTORS
330
173
102
}
330
173
100
AcDbXrecord
280
     1
270
     1
271
     1
  0
XRECORD
  5
177
102
{ACAD_REACTORS
330
173
102
}
330
173
100
AcDbXrecord
280
     1
270
     1
271
     1
  0
XRECORD
  5
879
102
{ACAD_REACTORS
330
234
102
}
330
234
100
AcDbXrecord
280
     1
102
DISPLAYNAME
  1
Metric50
102
FLAGS
 90
        0
  0
CELLSTYLEMAP
  5
83F
102
{ACAD_REACTORS
330
162
102
}
330
162
100
AcDbCellStyleMap
 90
        3
300
CELLSTYLE
  1
TABLEFORMAT_BEGIN
 90
        5
170
     1
 91
        0
 92
    32768
 62
   257
 93
        1
300
CONTENTFORMAT
  1
CONTENTFORMAT_BEGIN
 90
        0
 91
        0
 92
      512
 93
        0
300

 40
0.0
140
1.0
 94
        5
 62
     0
340
11
144
6.0
309
CONTENTFORMAT_END
171
     1
301
MARGIN
  1
CELLMARGIN_BEGIN
 40
1.5
 40
1.5
 40
1.5
 40
1.5
 40
4.5
 40
4.5
309
CELLMARGIN_END
 94
        6
 95
        1
302
GRIDFORMAT
  1
GRIDFORMAT_BEGIN
 90
        0
 91
        1
 62
     0
 92
       -2
340
14
 93
        0
 40
1.125
309
GRIDFORMAT_END
 95
        2
302
GRIDFORMAT
  1
GRIDFORMAT_BEGIN
 90
        0
 91
        1
 62
     0
 92
       -2
340
14
 93
        0
 40
1.125
309
GRIDFORMAT_END
 95
        4
302
GRIDFORMAT
  1
GRIDFORMAT_BEGIN
 90
        0
 91
        1
 62
     0
 92
       -2
340
14
 93
        0
 40
1.125
309
GRIDFORMAT_END
 95
        8
302
GRIDFORMAT
  1
GRIDFORMAT_BEGIN
 90
        0
 91
        1
 62
     0
 92
       -2
340
14
 93
        0
 40
1.125
309
GRIDFORMAT_END
 95
       16
302
GRIDFORMAT
  1
GRIDFORMAT_BEGIN
 90
        0
 91
        1
 62
     0
 92
       -2
340
14
 93
        0
 40
1.125
309
GRIDFORMAT_END
 95
       32
302
GRIDFORMAT
  1
GRIDFORMAT_BEGIN
 90
        0
 91
        1
 62
     0
 92
       -2
340
14
 93
        0
 40
1.125
309
GRIDFORMAT_END
309
TABLEFORMAT_END
  1
CELLSTYLE_BEGIN
 90
        1
 91
        1
300
_TITLE
309
CELLSTYLE_END
300
CELLSTYLE
  1
TABLEFORMAT_BEGIN
 90
        5
170
     1
 91
        0
 92
        0
 62
   257
 93
        1
300
CONTENTFORMAT
  1
CONTENTFORMAT_BEGIN
 90
        0
 91
        0
 92
      512
 93
        0
300

 40
0.0
140
1.0
 94
        5
 62
     0
340
11
144
4.5
309
CONTENTFORMAT_END
171
     1
301
MARGIN
  1
CELLMARGIN_BEGIN
 40
1.5
 40
1.5
 40
1.5
 40
1.5
 40
4.5
 40
4.5
309
CELLMARGIN_END
 94
        6
 95
        1
302
GRIDFORMAT
  1
GRIDFORMAT_BEGIN
 90
        0
 91
        1
 62
     0
 92
       -2
340
14
 93
        0
 40
1.125
309
GRIDFORMAT_END
 95
        2
302
GRIDFORMAT
  1
GRIDFORMAT_BEGIN
 90
        0
 91
        1
 62
     0
 92
       -2
340
14
 93
        0
 40
1.125
309
GRIDFORMAT_END
 95
        4
302
GRIDFORMAT
  1
GRIDFORMAT_BEGIN
 90
        0
 91
        1
 62
     0
 92
       -2
340
14
 93
        0
 40
1.125
309
GRIDFORMAT_END
 95
        8
302
GRIDFORMAT
  1
GRIDFORMAT_BEGIN
 90
        0
 91
        1
 62
     0
 92
       -2
340
14
 93
        0
 40
1.125
309
GRIDFORMAT_END
 95
       16
302
GRIDFORMAT
  1
GRIDFORMAT_BEGIN
 90
        0
 91
        1
 62
     0
 92
       -2
340
14
 93
        0
 40
1.125
309
GRIDFORMAT_END
 95
       32
302
GRIDFORMAT
  1
GRIDFORMAT_BEGIN
 90
        0
 91
        1
 62
     0
 92
       -2
340
14
 93
        0
 40
1.125
309
GRIDFORMAT_END
309
TABLEFORMAT_END
  1
CELLSTYLE_BEGIN
 90
        2
 91
        1
300
_HEADER
309
CELLSTYLE_END
300
CELLSTYLE
  1
TABLEFORMAT_BEGIN
 90
        5
170
     1
 91
        0
 92
        0
 62
   257
 93
        1
300
CONTENTFORMAT
  1
CONTENTFORMAT_BEGIN
 90
        0
 91
        0
 92
      512
 93
        0
300

 40
0.0
140
1.0
 94
        2
 62
     0
340
11
144
4.5
309
CONTENTFORMAT_END
171
     1
301
MARGIN
  1
CELLMARGIN_BEGIN
 40
1.5
 40
1.5
 40
1.5
 40
1.5
 40
4.5
 40
4.5
309
CELLMARGIN_END
 94
        6
 95
        1
302
GRIDFORMAT
  1
GRIDFORMAT_BEGIN
 90
        0
 91
        1
 62
     0
 92
       -2
340
14
 93
        0
 40
1.125
309
GRIDFORMAT_END
 95
        2
302
GRIDFORMAT
  1
GRIDFORMAT_BEGIN
 90
        0
 91
        1
 62
     0
 92
       -2
340
14
 93
        0
 40
1.125
309
GRIDFORMAT_END
 95
        4
302
GRIDFORMAT
  1
GRIDFORMAT_BEGIN
 90
        0
 91
        1
 62
     0
 92
       -2
340
14
 93
        0
 40
1.125
309
GRIDFORMAT_END
 95
        8
302
GRIDFORMAT
  1
GRIDFORMAT_BEGIN
 90
        0
 91
        1
 62
     0
 92
       -2
340
14
 93
        0
 40
1.125
309
GRIDFORMAT_END
 95
       16
302
GRIDFORMAT
  1
GRIDFORMAT_BEGIN
 90
        0
 91
        1
 62
     0
 92
       -2
340
14
 93
        0
 40
1.125
309
GRIDFORMAT_END
 95
       32
302
GRIDFORMAT
  1
GRIDFORMAT_BEGIN
 90
        0
 91
        1
 62
     0
 92
       -2
340
14
 93
        0
 40
1.125
309
GRIDFORMAT_END
309
TABLEFORMAT_END
  1
CELLSTYLE_BEGIN
 90
        3
 91
        2
300
_DATA
309
CELLSTYLE_END
  0
XRECORD
  5
854
102
{ACAD_REACTORS
330
853
102
}
330
853
100
AcDbXrecord
280
     1
102
RTVSPost2010Prop28
280
     1
102
RTVSPost2010PropOp28
 70
     1
102
RTVSPost2010Prop29
280
     1
102
RTVSPost2010PropOp29
 70
     1
102
RTVSPost2010Prop30
280
     0
102
RTVSPost2010PropOp30
 70
     1
102
RTVSPost2010Prop31
280
     0
102
RTVSPost2010PropOp31
 70
     1
102
RTVSPost2010Prop32
280
     0
102
RTVSPost2010PropOp32
 70
     1
102
RTVSPost2010Prop33
280
     0
102
RTVSPost2010PropOp33
 70
     1
102
RTVSPost2010Prop34
280
     0
102
RTVSPost2010PropOp34
 70
     1
102
RTVSPost2010Prop35
280
     0
102
RTVSPost2010PropOp35
 70
     1
102
RTVSPost2010Prop36
280
     0
102
RTVSPost2010PropOp36
 70
     1
102
RTVSPost2010Prop37
 90
       50
102
RTVSPost2010PropOp37
 70
     1
102
RTVSPost2010Prop38
140
0.0
102
RTVSPost2010PropOp38
 70
     1
102
RTVSPost2010Prop39
140
1.0
102
RTVSPost2010PropOp39
 70
     1
102
RTVSPost2010Prop40
 90
        0
102
RTVSPost2010PropOp40
 70
     1
102
RTVSPost2010Prop41ColorIndex
 90
       18
102
RTVSPost2010Prop41ColorRGB
 90
        0
102
RTVSPost2010PropOp41
 70
     1
102
RTVSPost2010Prop42
 90
       50
102
RTVSPost2010PropOp42
 70
     1
102
RTVSPost2010Prop43
 90
        3
102
RTVSPost2010PropOp43
 70
     1
102
RTVSPost2010Prop44ColorIndex
 90
        5
102
RTVSPost2010Prop44ColorRGB
 90
      255
102
RTVSPost2010PropOp44
 70
     1
102
RTVSPost2010Prop45
280
     0
102
RTVSPost2010PropOp45
 70
     1
102
RTVSPost2010Prop46
 90
       50
102
RTVSPost2010PropOp46
 70
     1
102
RTVSPost2010Prop47
 90
       50
102
RTVSPost2010PropOp47
 70
     1
102
RTVSPost2010Prop48
 90
       50
102
RTVSPost2010PropOp48
 70
     1
102
RTVSPost2010Prop49
280
     0
102
RTVSPost2010PropOp49
 70
     1
102
RTVSPost2010Prop50
 90
       50
102
RTVSPost2010PropOp50
 70
     1
102
RTVSPost2010Prop51ColorIndex
 90
      256
102
RTVSPost2010Prop51ColorRGB
 90
-16777216
102
RTVSPost2010PropOp51
 70
     0
102
RTVSPost2010Prop52
140
1.0
102
RTVSPost2010PropOp52
 70
     0
102
RTVSPost2010Prop53
 90
        2
102
RTVSPost2010PropOp53
 70
     1
102
RTVSPost2010Prop54
  1
strokes_ogs.tif
102
RTVSPost2010PropOp54
 70
     1
102
RTVSPost2010Prop55
280
     0
102
RTVSPost2010PropOp55
 70
     1
102
RTVSPost2010Prop56
140
1.0
102
RTVSPost2010PropOp56
 70
     1
102
RTVSPost2010Prop57
140
1.0
102
RTVSPost2010PropOp57
 70
     1
  0
XRECORD
  5
852
102
{ACAD_REACTORS
330
851
102
}
330
851
100
AcDbXrecord
280
     1
102
RTVSPost2010Prop28
280
     0
102
RTVSPost2010PropOp28
 70
     1
102
RTVSPost2010Prop29
280
     1
102
RTVSPost2010PropOp29
 70
     1
102
RTVSPost2010Prop30
280
     1
102
RTVSPost2010PropOp30
 70
     1
102
RTVSPost2010Prop31
280
     0
102
RTVSPost2010PropOp31
 70
     1
102
RTVSPost2010Prop32
280
     0
102
RTVSPost2010PropOp32
 70
     1
102
RTVSPost2010Prop33
280
     0
102
RTVSPost2010PropOp33
 70
     1
102
RTVSPost2010Prop34
280
     0
102
RTVSPost2010PropOp34
 70
     1
102
RTVSPost2010Prop35
280
     0
102
RTVSPost2010PropOp35
 70
     1
102
RTVSPost2010Prop36
280
     0
102
RTVSPost2010PropOp36
 70
     1
102
RTVSPost2010Prop37
 90
       50
102
RTVSPost2010PropOp37
 70
     1
102
RTVSPost2010Prop38
140
0.0
102
RTVSPost2010PropOp38
 70
     1
102
RTVSPost2010Prop39
140
1.0
102
RTVSPost2010PropOp39
 70
     1
102
RTVSPost2010Prop40
 90
        0
102
RTVSPost2010PropOp40
 70
     1
102
RTVSPost2010Prop41ColorIndex
 90
       18
102
RTVSPost2010Prop41ColorRGB
 90
        0
102
RTVSPost2010PropOp41
 70
     1
102
RTVSPost2010Prop42
 90
       50
102
RTVSPost2010PropOp42
 70
     1
102
RTVSPost2010Prop43
 90
        3
102
RTVSPost2010PropOp43
 70
     1
102
RTVSPost2010Prop44ColorIndex
 90
        5
102
RTVSPost2010Prop44ColorRGB
 90
      255
102
RTVSPost2010PropOp44
 70
     1
102
RTVSPost2010Prop45
280
     0
102
RTVSPost2010PropOp45
 70
     1
102
RTVSPost2010Prop46
 90
       50
102
RTVSPost2010PropOp46
 70
     1
102
RTVSPost2010Prop47
 90
       50
102
RTVSPost2010PropOp47
 70
     1
102
RTVSPost2010Prop48
 90
       50
102
RTVSPost2010PropOp48
 70
     1
102
RTVSPost2010Prop49
280
     0
102
RTVSPost2010PropOp49
 70
     1
102
RTVSPost2010Prop50
 90
       50
102
RTVSPost2010PropOp50
 70
     1
102
RTVSPost2010Prop51ColorIndex
 90
      256
102
RTVSPost2010Prop51ColorRGB
 90
-16777216
102
RTVSPost2010PropOp51
 70
     0
102
RTVSPost2010Prop52
140
1.0
102
RTVSPost2010PropOp52
 70
     0
102
RTVSPost2010Prop53
 90
        2
102
RTVSPost2010PropOp53
 70
     1
102
RTVSPost2010Prop54
  1
strokes_ogs.tif
102
RTVSPost2010PropOp54
 70
     1
102
RTVSPost2010Prop55
280
     0
102
RTVSPost2010PropOp55
 70
     1
102
RTVSPost2010Prop56
140
1.0
102
RTVSPost2010PropOp56
 70
     1
102
RTVSPost2010Prop57
140
1.0
102
RTVSPost2010PropOp57
 70
     1
  0
XRECORD
  5
860
102
{ACAD_REACTORS
330
85F
102
}
330
85F
100
AcDbXrecord
280
     1
102
RTVSPost2010Prop28
280
     0
102
RTVSPost2010PropOp28
 70
     1
102
RTVSPost2010Prop29
280
     1
102
RTVSPost2010PropOp29
 70
     1
102
RTVSPost2010Prop30
280
     1
102
RTVSPost2010PropOp30
 70
     1
102
RTVSPost2010Prop31
280
     0
102
RTVSPost2010PropOp31
 70
     1
102
RTVSPost2010Prop32
280
     0
102
RTVSPost2010PropOp32
 70
     1
102
RTVSPost2010Prop33
280
     0
102
RTVSPost2010PropOp33
 70
     1
102
RTVSPost2010Prop34
280
     0
102
RTVSPost2010PropOp34
 70
     1
102
RTVSPost2010Prop35
280
     0
102
RTVSPost2010PropOp35
 70
     1
102
RTVSPost2010Prop36
280
     0
102
RTVSPost2010PropOp36
 70
     1
102
RTVSPost2010Prop37
 90
       50
102
RTVSPost2010PropOp37
 70
     1
102
RTVSPost2010Prop38
140
0.0
102
RTVSPost2010PropOp38
 70
     1
102
RTVSPost2010Prop39
140
1.0
102
RTVSPost2010PropOp39
 70
     1
102
RTVSPost2010Prop40
 90
        0
102
RTVSPost2010PropOp40
 70
     1
102
RTVSPost2010Prop41ColorIndex
 90
       18
102
RTVSPost2010Prop41ColorRGB
 90
        0
102
RTVSPost2010PropOp41
 70
     1
102
RTVSPost2010Prop42
 90
       50
102
RTVSPost2010PropOp42
 70
     1
102
RTVSPost2010Prop43
 90
        3
102
RTVSPost2010PropOp43
 70
     1
102
RTVSPost2010Prop44ColorIndex
 90
        5
102
RTVSPost2010Prop44ColorRGB
 90
      255
102
RTVSPost2010PropOp44
 70
     1
102
RTVSPost2010Prop45
280
     0
102
RTVSPost2010PropOp45
 70
     1
102
RTVSPost2010Prop46
 90
       50
102
RTVSPost2010PropOp46
 70
     1
102
RTVSPost2010Prop47
 90
       50
102
RTVSPost2010PropOp47
 70
     1
102
RTVSPost2010Prop48
 90
       50
102
RTVSPost2010PropOp48
 70
     1
102
RTVSPost2010Prop49
280
     0
102
RTVSPost2010PropOp49
 70
     1
102
RTVSPost2010Prop50
 90
       50
102
RTVSPost2010PropOp50
 70
     1
102
RTVSPost2010Prop51ColorIndex
 90
      256
102
RTVSPost2010Prop51ColorRGB
 90
-16777216
102
RTVSPost2010PropOp51
 70
     0
102
RTVSPost2010Prop52
140
1.0
102
RTVSPost2010PropOp52
 70
     0
102
RTVSPost2010Prop53
 90
        2
102
RTVSPost2010PropOp53
 70
     1
102
RTVSPost2010Prop54
  1
strokes_ogs.tif
102
RTVSPost2010PropOp54
 70
     1
102
RTVSPost2010Prop55
280
     0
102
RTVSPost2010PropOp55
 70
     1
102
RTVSPost2010Prop56
140
1.0
102
RTVSPost2010PropOp56
 70
     1
102
RTVSPost2010Prop57
140
1.0
102
RTVSPost2010PropOp57
 70
     1
  0
XRECORD
  5
868
102
{ACAD_REACTORS
330
867
102
}
330
867
100
AcDbXrecord
280
     1
102
RTVSPost2010Prop28
280
     0
102
RTVSPost2010PropOp28
 70
     1
102
RTVSPost2010Prop29
280
     1
102
RTVSPost2010PropOp29
 70
     1
102
RTVSPost2010Prop30
280
     1
102
RTVSPost2010PropOp30
 70
     1
102
RTVSPost2010Prop31
280
     0
102
RTVSPost2010PropOp31
 70
     1
102
RTVSPost2010Prop32
280
     0
102
RTVSPost2010PropOp32
 70
     1
102
RTVSPost2010Prop33
280
     0
102
RTVSPost2010PropOp33
 70
     1
102
RTVSPost2010Prop34
280
     0
102
RTVSPost2010PropOp34
 70
     1
102
RTVSPost2010Prop35
280
     0
102
RTVSPost2010PropOp35
 70
     1
102
RTVSPost2010Prop36
280
     0
102
RTVSPost2010PropOp36
 70
     1
102
RTVSPost2010Prop37
 90
       50
102
RTVSPost2010PropOp37
 70
     1
102
RTVSPost2010Prop38
140
0.0
102
RTVSPost2010PropOp38
 70
     1
102
RTVSPost2010Prop39
140
1.0
102
RTVSPost2010PropOp39
 70
     1
102
RTVSPost2010Prop40
 90
        0
102
RTVSPost2010PropOp40
 70
     1
102
RTVSPost2010Prop41ColorIndex
 90
       18
102
RTVSPost2010Prop41ColorRGB
 90
        0
102
RTVSPost2010PropOp41
 70
     1
102
RTVSPost2010Prop42
 90
       50
102
RTVSPost2010PropOp42
 70
     1
102
RTVSPost2010Prop43
 90
        3
102
RTVSPost2010PropOp43
 70
     1
102
RTVSPost2010Prop44ColorIndex
 90
        5
102
RTVSPost2010Prop44ColorRGB
 90
      255
102
RTVSPost2010PropOp44
 70
     1
102
RTVSPost2010Prop45
280
     0
102
RTVSPost2010PropOp45
 70
     1
102
RTVSPost2010Prop46
 90
       50
102
RTVSPost2010PropOp46
 70
     1
102
RTVSPost2010Prop47
 90
       50
102
RTVSPost2010PropOp47
 70
     1
102
RTVSPost2010Prop48
 90
       50
102
RTVSPost2010PropOp48
 70
     1
102
RTVSPost2010Prop49
280
     0
102
RTVSPost2010PropOp49
 70
     1
102
RTVSPost2010Prop50
 90
       50
102
RTVSPost2010PropOp50
 70
     1
102
RTVSPost2010Prop51ColorIndex
 90
      256
102
RTVSPost2010Prop51ColorRGB
 90
-16777216
102
RTVSPost2010PropOp51
 70
     0
102
RTVSPost2010Prop52
140
1.0
102
RTVSPost2010PropOp52
 70
     0
102
RTVSPost2010Prop53
 90
        2
102
RTVSPost2010PropOp53
 70
     1
102
RTVSPost2010Prop54
  1
strokes_ogs.tif
102
RTVSPost2010PropOp54
 70
     1
102
RTVSPost2010Prop55
280
     0
102
RTVSPost2010PropOp55
 70
     1
102
RTVSPost2010Prop56
140
1.0
102
RTVSPost2010PropOp56
 70
     1
102
RTVSPost2010Prop57
140
1.0
102
RTVSPost2010PropOp57
 70
     1
  0
XRECORD
  5
85A
102
{ACAD_REACTORS
330
859
102
}
330
859
100
AcDbXrecord
280
     1
102
RTVSPost2010Prop28
280
     0
102
RTVSPost2010PropOp28
 70
     1
102
RTVSPost2010Prop29
280
     1
102
RTVSPost2010PropOp29
 70
     1
102
RTVSPost2010Prop30
280
     1
102
RTVSPost2010PropOp30
 70
     1
102
RTVSPost2010Prop31
280
     0
102
RTVSPost2010PropOp31
 70
     1
102
RTVSPost2010Prop32
280
     0
102
RTVSPost2010PropOp32
 70
     1
102
RTVSPost2010Prop33
280
     0
102
RTVSPost2010PropOp33
 70
     1
102
RTVSPost2010Prop34
280
     0
102
RTVSPost2010PropOp34
 70
     1
102
RTVSPost2010Prop35
280
     0
102
RTVSPost2010PropOp35
 70
     1
102
RTVSPost2010Prop36
280
     0
102
RTVSPost2010PropOp36
 70
     1
102
RTVSPost2010Prop37
 90
       50
102
RTVSPost2010PropOp37
 70
     1
102
RTVSPost2010Prop38
140
0.0
102
RTVSPost2010PropOp38
 70
     1
102
RTVSPost2010Prop39
140
1.0
102
RTVSPost2010PropOp39
 70
     1
102
RTVSPost2010Prop40
 90
        0
102
RTVSPost2010PropOp40
 70
     1
102
RTVSPost2010Prop41ColorIndex
 90
       18
102
RTVSPost2010Prop41ColorRGB
 90
        0
102
RTVSPost2010PropOp41
 70
     1
102
RTVSPost2010Prop42
 90
       50
102
RTVSPost2010PropOp42
 70
     1
102
RTVSPost2010Prop43
 90
        3
102
RTVSPost2010PropOp43
 70
     1
102
RTVSPost2010Prop44ColorIndex
 90
        5
102
RTVSPost2010Prop44ColorRGB
 90
      255
102
RTVSPost2010PropOp44
 70
     1
102
RTVSPost2010Prop45
280
     0
102
RTVSPost2010PropOp45
 70
     1
102
RTVSPost2010Prop46
 90
       50
102
RTVSPost2010PropOp46
 70
     1
102
RTVSPost2010Prop47
 90
       50
102
RTVSPost2010PropOp47
 70
     1
102
RTVSPost2010Prop48
 90
       50
102
RTVSPost2010PropOp48
 70
     1
102
RTVSPost2010Prop49
280
     0
102
RTVSPost2010PropOp49
 70
     1
102
RTVSPost2010Prop50
 90
       50
102
RTVSPost2010PropOp50
 70
     1
102
RTVSPost2010Prop51ColorIndex
 90
      256
102
RTVSPost2010Prop51ColorRGB
 90
-16777216
102
RTVSPost2010PropOp51
 70
     0
102
RTVSPost2010Prop52
140
1.0
102
RTVSPost2010PropOp52
 70
     0
102
RTVSPost2010Prop53
 90
        2
102
RTVSPost2010PropOp53
 70
     1
102
RTVSPost2010Prop54
  1
strokes_ogs.tif
102
RTVSPost2010PropOp54
 70
     1
102
RTVSPost2010Prop55
280
     0
102
RTVSPost2010PropOp55
 70
     1
102
RTVSPost2010Prop56
140
1.0
102
RTVSPost2010PropOp56
 70
     1
102
RTVSPost2010Prop57
140
1.0
102
RTVSPost2010PropOp57
 70
     1
  0
XRECORD
  5
85E
102
{ACAD_REACTORS
330
85D
102
}
330
85D
100
AcDbXrecord
280
     1
102
RTVSPost2010Prop28
280
     0
102
RTVSPost2010PropOp28
 70
     1
102
RTVSPost2010Prop29
280
     1
102
RTVSPost2010PropOp29
 70
     1
102
RTVSPost2010Prop30
280
     1
102
RTVSPost2010PropOp30
 70
     1
102
RTVSPost2010Prop31
280
     0
102
RTVSPost2010PropOp31
 70
     1
102
RTVSPost2010Prop32
280
     0
102
RTVSPost2010PropOp32
 70
     1
102
RTVSPost2010Prop33
280
     0
102
RTVSPost2010PropOp33
 70
     1
102
RTVSPost2010Prop34
280
     0
102
RTVSPost2010PropOp34
 70
     1
102
RTVSPost2010Prop35
280
     0
102
RTVSPost2010PropOp35
 70
     1
102
RTVSPost2010Prop36
280
     0
102
RTVSPost2010PropOp36
 70
     1
102
RTVSPost2010Prop37
 90
       50
102
RTVSPost2010PropOp37
 70
     1
102
RTVSPost2010Prop38
140
0.0
102
RTVSPost2010PropOp38
 70
     1
102
RTVSPost2010Prop39
140
1.0
102
RTVSPost2010PropOp39
 70
     1
102
RTVSPost2010Prop40
 90
        0
102
RTVSPost2010PropOp40
 70
     1
102
RTVSPost2010Prop41ColorIndex
 90
       18
102
RTVSPost2010Prop41ColorRGB
 90
        0
102
RTVSPost2010PropOp41
 70
     1
102
RTVSPost2010Prop42
 90
       50
102
RTVSPost2010PropOp42
 70
     1
102
RTVSPost2010Prop43
 90
        3
102
RTVSPost2010PropOp43
 70
     1
102
RTVSPost2010Prop44ColorIndex
 90
        5
102
RTVSPost2010Prop44ColorRGB
 90
      255
102
RTVSPost2010PropOp44
 70
     1
102
RTVSPost2010Prop45
280
     0
102
RTVSPost2010PropOp45
 70
     1
102
RTVSPost2010Prop46
 90
       50
102
RTVSPost2010PropOp46
 70
     1
102
RTVSPost2010Prop47
 90
       50
102
RTVSPost2010PropOp47
 70
     1
102
RTVSPost2010Prop48
 90
       50
102
RTVSPost2010PropOp48
 70
     1
102
RTVSPost2010Prop49
280
     0
102
RTVSPost2010PropOp49
 70
     1
102
RTVSPost2010Prop50
 90
       50
102
RTVSPost2010PropOp50
 70
     1
102
RTVSPost2010Prop51ColorIndex
 90
      256
102
RTVSPost2010Prop51ColorRGB
 90
-16777216
102
RTVSPost2010PropOp51
 70
     0
102
RTVSPost2010Prop52
140
1.0
102
RTVSPost2010PropOp52
 70
     0
102
RTVSPost2010Prop53
 90
        2
102
RTVSPost2010PropOp53
 70
     1
102
RTVSPost2010Prop54
  1
strokes_ogs.tif
102
RTVSPost2010PropOp54
 70
     1
102
RTVSPost2010Prop55
280
     0
102
RTVSPost2010PropOp55
 70
     1
102
RTVSPost2010Prop56
140
1.0
102
RTVSPost2010PropOp56
 70
     1
102
RTVSPost2010Prop57
140
1.0
102
RTVSPost2010PropOp57
 70
     1
  0
XRECORD
  5
86E
102
{ACAD_REACTORS
330
86D
102
}
330
86D
100
AcDbXrecord
280
     1
102
RTVSPost2010Prop28
280
     0
102
RTVSPost2010PropOp28
 70
     1
102
RTVSPost2010Prop29
280
     1
102
RTVSPost2010PropOp29
 70
     1
102
RTVSPost2010Prop30
280
     1
102
RTVSPost2010PropOp30
 70
     1
102
RTVSPost2010Prop31
280
     0
102
RTVSPost2010PropOp31
 70
     1
102
RTVSPost2010Prop32
280
     0
102
RTVSPost2010PropOp32
 70
     1
102
RTVSPost2010Prop33
280
     0
102
RTVSPost2010PropOp33
 70
     1
102
RTVSPost2010Prop34
280
     0
102
RTVSPost2010PropOp34
 70
     1
102
RTVSPost2010Prop35
280
     0
102
RTVSPost2010PropOp35
 70
     1
102
RTVSPost2010Prop36
280
     0
102
RTVSPost2010PropOp36
 70
     1
102
RTVSPost2010Prop37
 90
       50
102
RTVSPost2010PropOp37
 70
     1
102
RTVSPost2010Prop38
140
0.0
102
RTVSPost2010PropOp38
 70
     1
102
RTVSPost2010Prop39
140
1.0
102
RTVSPost2010PropOp39
 70
     1
102
RTVSPost2010Prop40
 90
        0
102
RTVSPost2010PropOp40
 70
     1
102
RTVSPost2010Prop41ColorIndex
 90
       18
102
RTVSPost2010Prop41ColorRGB
 90
        0
102
RTVSPost2010PropOp41
 70
     1
102
RTVSPost2010Prop42
 90
       50
102
RTVSPost2010PropOp42
 70
     1
102
RTVSPost2010Prop43
 90
        3
102
RTVSPost2010PropOp43
 70
     1
102
RTVSPost2010Prop44ColorIndex
 90
        5
102
RTVSPost2010Prop44ColorRGB
 90
      255
102
RTVSPost2010PropOp44
 70
     1
102
RTVSPost2010Prop45
280
     0
102
RTVSPost2010PropOp45
 70
     1
102
RTVSPost2010Prop46
 90
       50
102
RTVSPost2010PropOp46
 70
     1
102
RTVSPost2010Prop47
 90
       50
102
RTVSPost2010PropOp47
 70
     1
102
RTVSPost2010Prop48
 90
       50
102
RTVSPost2010PropOp48
 70
     1
102
RTVSPost2010Prop49
280
     0
102
RTVSPost2010PropOp49
 70
     1
102
RTVSPost2010Prop50
 90
       50
102
RTVSPost2010PropOp50
 70
     1
102
RTVSPost2010Prop51ColorIndex
 90
      256
102
RTVSPost2010Prop51ColorRGB
 90
-16777216
102
RTVSPost2010PropOp51
 70
     0
102
RTVSPost2010Prop52
140
1.0
102
RTVSPost2010PropOp52
 70
     0
102
RTVSPost2010Prop53
 90
        2
102
RTVSPost2010PropOp53
 70
     1
102
RTVSPost2010Prop54
  1
strokes_ogs.tif
102
RTVSPost2010PropOp54
 70
     1
102
RTVSPost2010Prop55
280
     0
102
RTVSPost2010PropOp55
 70
     1
102
RTVSPost2010Prop56
140
1.0
102
RTVSPost2010PropOp56
 70
     1
102
RTVSPost2010Prop57
140
1.0
102
RTVSPost2010PropOp57
 70
     1
  0
XRECORD
  5
866
102
{ACAD_REACTORS
330
865
102
}
330
865
100
AcDbXrecord
280
     1
102
RTVSPost2010Prop28
280
     0
102
RTVSPost2010PropOp28
 70
     1
102
RTVSPost2010Prop29
280
     1
102
RTVSPost2010PropOp29
 70
     1
102
RTVSPost2010Prop30
280
     1
102
RTVSPost2010PropOp30
 70
     1
102
RTVSPost2010Prop31
280
     0
102
RTVSPost2010PropOp31
 70
     1
102
RTVSPost2010Prop32
280
     0
102
RTVSPost2010PropOp32
 70
     1
102
RTVSPost2010Prop33
280
     0
102
RTVSPost2010PropOp33
 70
     1
102
RTVSPost2010Prop34
280
     0
102
RTVSPost2010PropOp34
 70
     1
102
RTVSPost2010Prop35
280
     0
102
RTVSPost2010PropOp35
 70
     1
102
RTVSPost2010Prop36
280
     0
102
RTVSPost2010PropOp36
 70
     1
102
RTVSPost2010Prop37
 90
       50
102
RTVSPost2010PropOp37
 70
     1
102
RTVSPost2010Prop38
140
0.0
102
RTVSPost2010PropOp38
 70
     1
102
RTVSPost2010Prop39
140
1.0
102
RTVSPost2010PropOp39
 70
     1
102
RTVSPost2010Prop40
 90
        0
102
RTVSPost2010PropOp40
 70
     1
102
RTVSPost2010Prop41ColorIndex
 90
       18
102
RTVSPost2010Prop41ColorRGB
 90
        0
102
RTVSPost2010PropOp41
 70
     1
102
RTVSPost2010Prop42
 90
       50
102
RTVSPost2010PropOp42
 70
     1
102
RTVSPost2010Prop43
 90
        3
102
RTVSPost2010PropOp43
 70
     1
102
RTVSPost2010Prop44ColorIndex
 90
        5
102
RTVSPost2010Prop44ColorRGB
 90
      255
102
RTVSPost2010PropOp44
 70
     1
102
RTVSPost2010Prop45
280
     0
102
RTVSPost2010PropOp45
 70
     1
102
RTVSPost2010Prop46
 90
       50
102
RTVSPost2010PropOp46
 70
     1
102
RTVSPost2010Prop47
 90
       50
102
RTVSPost2010PropOp47
 70
     1
102
RTVSPost2010Prop48
 90
       50
102
RTVSPost2010PropOp48
 70
     1
102
RTVSPost2010Prop49
280
     0
102
RTVSPost2010PropOp49
 70
     1
102
RTVSPost2010Prop50
 90
       50
102
RTVSPost2010PropOp50
 70
     1
102
RTVSPost2010Prop51ColorIndex
 90
      256
102
RTVSPost2010Prop51ColorRGB
 90
-16777216
102
RTVSPost2010PropOp51
 70
     0
102
RTVSPost2010Prop52
140
1.0
102
RTVSPost2010PropOp52
 70
     0
102
RTVSPost2010Prop53
 90
        2
102
RTVSPost2010PropOp53
 70
     1
102
RTVSPost2010Prop54
  1
strokes_ogs.tif
102
RTVSPost2010PropOp54
 70
     1
102
RTVSPost2010Prop55
280
     0
102
RTVSPost2010PropOp55
 70
     1
102
RTVSPost2010Prop56
140
1.0
102
RTVSPost2010PropOp56
 70
     1
102
RTVSPost2010Prop57
140
1.0
102
RTVSPost2010PropOp57
 70
     1
  0
XRECORD
  5
84A
102
{ACAD_REACTORS
330
849
102
}
330
849
100
AcDbXrecord
280
     1
102
RTVSPost2010Prop28
280
     0
102
RTVSPost2010PropOp28
 70
     1
102
RTVSPost2010Prop29
280
     1
102
RTVSPost2010PropOp29
 70
     1
102
RTVSPost2010Prop30
280
     1
102
RTVSPost2010PropOp30
 70
     1
102
RTVSPost2010Prop31
280
     0
102
RTVSPost2010PropOp31
 70
     1
102
RTVSPost2010Prop32
280
     0
102
RTVSPost2010PropOp32
 70
     1
102
RTVSPost2010Prop33
280
     0
102
RTVSPost2010PropOp33
 70
     1
102
RTVSPost2010Prop34
280
     0
102
RTVSPost2010PropOp34
 70
     1
102
RTVSPost2010Prop35
280
     0
102
RTVSPost2010PropOp35
 70
     1
102
RTVSPost2010Prop36
280
     0
102
RTVSPost2010PropOp36
 70
     1
102
RTVSPost2010Prop37
 90
       50
102
RTVSPost2010PropOp37
 70
     1
102
RTVSPost2010Prop38
140
0.0
102
RTVSPost2010PropOp38
 70
     1
102
RTVSPost2010Prop39
140
1.0
102
RTVSPost2010PropOp39
 70
     1
102
RTVSPost2010Prop40
 90
        0
102
RTVSPost2010PropOp40
 70
     1
102
RTVSPost2010Prop41ColorIndex
 90
       18
102
RTVSPost2010Prop41ColorRGB
 90
        0
102
RTVSPost2010PropOp41
 70
     1
102
RTVSPost2010Prop42
 90
       50
102
RTVSPost2010PropOp42
 70
     1
102
RTVSPost2010Prop43
 90
        3
102
RTVSPost2010PropOp43
 70
     1
102
RTVSPost2010Prop44ColorIndex
 90
        5
102
RTVSPost2010Prop44ColorRGB
 90
      255
102
RTVSPost2010PropOp44
 70
     1
102
RTVSPost2010Prop45
280
     0
102
RTVSPost2010PropOp45
 70
     1
102
RTVSPost2010Prop46
 90
       50
102
RTVSPost2010PropOp46
 70
     1
102
RTVSPost2010Prop47
 90
       50
102
RTVSPost2010PropOp47
 70
     1
102
RTVSPost2010Prop48
 90
       50
102
RTVSPost2010PropOp48
 70
     1
102
RTVSPost2010Prop49
280
     0
102
RTVSPost2010PropOp49
 70
     1
102
RTVSPost2010Prop50
 90
       50
102
RTVSPost2010PropOp50
 70
     1
102
RTVSPost2010Prop51ColorIndex
 90
      256
102
RTVSPost2010Prop51ColorRGB
 90
-16777216
102
RTVSPost2010PropOp51
 70
     0
102
RTVSPost2010Prop52
140
1.0
102
RTVSPost2010PropOp52
 70
     0
102
RTVSPost2010Prop53
 90
        2
102
RTVSPost2010PropOp53
 70
     1
102
RTVSPost2010Prop54
  1
strokes_ogs.tif
102
RTVSPost2010PropOp54
 70
     1
102
RTVSPost2010Prop55
280
     0
102
RTVSPost2010PropOp55
 70
     1
102
RTVSPost2010Prop56
140
1.0
102
RTVSPost2010PropOp56
 70
     1
102
RTVSPost2010Prop57
140
1.0
102
RTVSPost2010PropOp57
 70
     1
  0
XRECORD
  5
84C
102
{ACAD_REACTORS
330
84B
102
}
330
84B
100
AcDbXrecord
280
     1
102
RTVSPost2010Prop28
280
     0
102
RTVSPost2010PropOp28
 70
     1
102
RTVSPost2010Prop29
280
     1
102
RTVSPost2010PropOp29
 70
     1
102
RTVSPost2010Prop30
280
     1
102
RTVSPost2010PropOp30
 70
     1
102
RTVSPost2010Prop31
280
     0
102
RTVSPost2010PropOp31
 70
     1
102
RTVSPost2010Prop32
280
     0
102
RTVSPost2010PropOp32
 70
     1
102
RTVSPost2010Prop33
280
     0
102
RTVSPost2010PropOp33
 70
     1
102
RTVSPost2010Prop34
280
     0
102
RTVSPost2010PropOp34
 70
     1
102
RTVSPost2010Prop35
280
     0
102
RTVSPost2010PropOp35
 70
     1
102
RTVSPost2010Prop36
280
     0
102
RTVSPost2010PropOp36
 70
     1
102
RTVSPost2010Prop37
 90
       50
102
RTVSPost2010PropOp37
 70
     1
102
RTVSPost2010Prop38
140
0.0
102
RTVSPost2010PropOp38
 70
     1
102
RTVSPost2010Prop39
140
1.0
102
RTVSPost2010PropOp39
 70
     1
102
RTVSPost2010Prop40
 90
        0
102
RTVSPost2010PropOp40
 70
     1
102
RTVSPost2010Prop41ColorIndex
 90
       18
102
RTVSPost2010Prop41ColorRGB
 90
        0
102
RTVSPost2010PropOp41
 70
     1
102
RTVSPost2010Prop42
 90
       50
102
RTVSPost2010PropOp42
 70
     1
102
RTVSPost2010Prop43
 90
        3
102
RTVSPost2010PropOp43
 70
     1
102
RTVSPost2010Prop44ColorIndex
 90
        5
102
RTVSPost2010Prop44ColorRGB
 90
      255
102
RTVSPost2010PropOp44
 70
     1
102
RTVSPost2010Prop45
280
     0
102
RTVSPost2010PropOp45
 70
     1
102
RTVSPost2010Prop46
 90
       50
102
RTVSPost2010PropOp46
 70
     1
102
RTVSPost2010Prop47
 90
       50
102
RTVSPost2010PropOp47
 70
     1
102
RTVSPost2010Prop48
 90
       50
102
RTVSPost2010PropOp48
 70
     1
102
RTVSPost2010Prop49
280
     0
102
RTVSPost2010PropOp49
 70
     1
102
RTVSPost2010Prop50
 90
       50
102
RTVSPost2010PropOp50
 70
     1
102
RTVSPost2010Prop51ColorIndex
 90
      256
102
RTVSPost2010Prop51ColorRGB
 90
-16777216
102
RTVSPost2010PropOp51
 70
     0
102
RTVSPost2010Prop52
140
1.0
102
RTVSPost2010PropOp52
 70
     0
102
RTVSPost2010Prop53
 90
        2
102
RTVSPost2010PropOp53
 70
     1
102
RTVSPost2010Prop54
  1
strokes_ogs.tif
102
RTVSPost2010PropOp54
 70
     1
102
RTVSPost2010Prop55
280
     0
102
RTVSPost2010PropOp55
 70
     1
102
RTVSPost2010Prop56
140
1.0
102
RTVSPost2010PropOp56
 70
     1
102
RTVSPost2010Prop57
140
1.0
102
RTVSPost2010PropOp57
 70
     1
  0
XRECORD
  5
84E
102
{ACAD_REACTORS
330
84D
102
}
330
84D
100
AcDbXrecord
280
     1
102
RTVSPost2010Prop28
280
     0
102
RTVSPost2010PropOp28
 70
     1
102
RTVSPost2010Prop29
280
     1
102
RTVSPost2010PropOp29
 70
     1
102
RTVSPost2010Prop30
280
     1
102
RTVSPost2010PropOp30
 70
     1
102
RTVSPost2010Prop31
280
     0
102
RTVSPost2010PropOp31
 70
     1
102
RTVSPost2010Prop32
280
     0
102
RTVSPost2010PropOp32
 70
     1
102
RTVSPost2010Prop33
280
     0
102
RTVSPost2010PropOp33
 70
     1
102
RTVSPost2010Prop34
280
     0
102
RTVSPost2010PropOp34
 70
     1
102
RTVSPost2010Prop35
280
     0
102
RTVSPost2010PropOp35
 70
     1
102
RTVSPost2010Prop36
280
     0
102
RTVSPost2010PropOp36
 70
     1
102
RTVSPost2010Prop37
 90
       50
102
RTVSPost2010PropOp37
 70
     1
102
RTVSPost2010Prop38
140
0.0
102
RTVSPost2010PropOp38
 70
     1
102
RTVSPost2010Prop39
140
1.0
102
RTVSPost2010PropOp39
 70
     1
102
RTVSPost2010Prop40
 90
        0
102
RTVSPost2010PropOp40
 70
     1
102
RTVSPost2010Prop41ColorIndex
 90
       18
102
RTVSPost2010Prop41ColorRGB
 90
        0
102
RTVSPost2010PropOp41
 70
     1
102
RTVSPost2010Prop42
 90
       50
102
RTVSPost2010PropOp42
 70
     1
102
RTVSPost2010Prop43
 90
        3
102
RTVSPost2010PropOp43
 70
     1
102
RTVSPost2010Prop44ColorIndex
 90
        5
102
RTVSPost2010Prop44ColorRGB
 90
      255
102
RTVSPost2010PropOp44
 70
     1
102
RTVSPost2010Prop45
280
     0
102
RTVSPost2010PropOp45
 70
     1
102
RTVSPost2010Prop46
 90
       50
102
RTVSPost2010PropOp46
 70
     1
102
RTVSPost2010Prop47
 90
       50
102
RTVSPost2010PropOp47
 70
     1
102
RTVSPost2010Prop48
 90
       50
102
RTVSPost2010PropOp48
 70
     1
102
RTVSPost2010Prop49
280
     0
102
RTVSPost2010PropOp49
 70
     1
102
RTVSPost2010Prop50
 90
       50
102
RTVSPost2010PropOp50
 70
     1
102
RTVSPost2010Prop51ColorIndex
 90
      256
102
RTVSPost2010Prop51ColorRGB
 90
-16777216
102
RTVSPost2010PropOp51
 70
     0
102
RTVSPost2010Prop52
140
1.0
102
RTVSPost2010PropOp52
 70
     0
102
RTVSPost2010Prop53
 90
        2
102
RTVSPost2010PropOp53
 70
     1
102
RTVSPost2010Prop54
  1
strokes_ogs.tif
102
RTVSPost2010PropOp54
 70
     1
102
RTVSPost2010Prop55
280
     0
102
RTVSPost2010PropOp55
 70
     1
102
RTVSPost2010Prop56
140
1.0
102
RTVSPost2010PropOp56
 70
     1
102
RTVSPost2010Prop57
140
1.0
102
RTVSPost2010PropOp57
 70
     1
  0
XRECORD
  5
850
102
{ACAD_REACTORS
330
84F
102
}
330
84F
100
AcDbXrecord
280
     1
102
RTVSPost2010Prop28
280
     0
102
RTVSPost2010PropOp28
 70
     1
102
RTVSPost2010Prop29
280
     1
102
RTVSPost2010PropOp29
 70
     1
102
RTVSPost2010Prop30
280
     1
102
RTVSPost2010PropOp30
 70
     1
102
RTVSPost2010Prop31
280
     0
102
RTVSPost2010PropOp31
 70
     1
102
RTVSPost2010Prop32
280
     0
102
RTVSPost2010PropOp32
 70
     1
102
RTVSPost2010Prop33
280
     0
102
RTVSPost2010PropOp33
 70
     1
102
RTVSPost2010Prop34
280
     0
102
RTVSPost2010PropOp34
 70
     1
102
RTVSPost2010Prop35
280
     0
102
RTVSPost2010PropOp35
 70
     1
102
RTVSPost2010Prop36
280
     0
102
RTVSPost2010PropOp36
 70
     1
102
RTVSPost2010Prop37
 90
       50
102
RTVSPost2010PropOp37
 70
     1
102
RTVSPost2010Prop38
140
0.0
102
RTVSPost2010PropOp38
 70
     1
102
RTVSPost2010Prop39
140
1.0
102
RTVSPost2010PropOp39
 70
     1
102
RTVSPost2010Prop40
 90
        0
102
RTVSPost2010PropOp40
 70
     1
102
RTVSPost2010Prop41ColorIndex
 90
       18
102
RTVSPost2010Prop41ColorRGB
 90
        0
102
RTVSPost2010PropOp41
 70
     1
102
RTVSPost2010Prop42
 90
       50
102
RTVSPost2010PropOp42
 70
     1
102
RTVSPost2010Prop43
 90
        3
102
RTVSPost2010PropOp43
 70
     1
102
RTVSPost2010Prop44ColorIndex
 90
        5
102
RTVSPost2010Prop44ColorRGB
 90
      255
102
RTVSPost2010PropOp44
 70
     1
102
RTVSPost2010Prop45
280
     0
102
RTVSPost2010PropOp45
 70
     1
102
RTVSPost2010Prop46
 90
       50
102
RTVSPost2010PropOp46
 70
     1
102
RTVSPost2010Prop47
 90
       50
102
RTVSPost2010PropOp47
 70
     1
102
RTVSPost2010Prop48
 90
       50
102
RTVSPost2010PropOp48
 70
     1
102
RTVSPost2010Prop49
280
     0
102
RTVSPost2010PropOp49
 70
     1
102
RTVSPost2010Prop50
 90
       50
102
RTVSPost2010PropOp50
 70
     1
102
RTVSPost2010Prop51ColorIndex
 90
      256
102
RTVSPost2010Prop51ColorRGB
 90
-16777216
102
RTVSPost2010PropOp51
 70
     0
102
RTVSPost2010Prop52
140
1.0
102
RTVSPost2010PropOp52
 70
     0
102
RTVSPost2010Prop53
 90
        2
102
RTVSPost2010PropOp53
 70
     1
102
RTVSPost2010Prop54
  1
strokes_ogs.tif
102
RTVSPost2010PropOp54
 70
     1
102
RTVSPost2010Prop55
280
     0
102
RTVSPost2010PropOp55
 70
     1
102
RTVSPost2010Prop56
140
1.0
102
RTVSPost2010PropOp56
 70
     1
102
RTVSPost2010Prop57
140
1.0
102
RTVSPost2010PropOp57
 70
     1
  0
XRECORD
  5
858
102
{ACAD_REACTORS
330
857
102
}
330
857
100
AcDbXrecord
280
     1
102
RTVSPost2010Prop28
280
     0
102
RTVSPost2010PropOp28
 70
     1
102
RTVSPost2010Prop29
280
     1
102
RTVSPost2010PropOp29
 70
     1
102
RTVSPost2010Prop30
280
     1
102
RTVSPost2010PropOp30
 70
     1
102
RTVSPost2010Prop31
280
     0
102
RTVSPost2010PropOp31
 70
     1
102
RTVSPost2010Prop32
280
     0
102
RTVSPost2010PropOp32
 70
     1
102
RTVSPost2010Prop33
280
     0
102
RTVSPost2010PropOp33
 70
     1
102
RTVSPost2010Prop34
280
     0
102
RTVSPost2010PropOp34
 70
     1
102
RTVSPost2010Prop35
280
     0
102
RTVSPost2010PropOp35
 70
     1
102
RTVSPost2010Prop36
280
     0
102
RTVSPost2010PropOp36
 70
     1
102
RTVSPost2010Prop37
 90
       50
102
RTVSPost2010PropOp37
 70
     1
102
RTVSPost2010Prop38
140
0.0
102
RTVSPost2010PropOp38
 70
     1
102
RTVSPost2010Prop39
140
1.0
102
RTVSPost2010PropOp39
 70
     1
102
RTVSPost2010Prop40
 90
        0
102
RTVSPost2010PropOp40
 70
     1
102
RTVSPost2010Prop41ColorIndex
 90
       18
102
RTVSPost2010Prop41ColorRGB
 90
        0
102
RTVSPost2010PropOp41
 70
     1
102
RTVSPost2010Prop42
 90
       50
102
RTVSPost2010PropOp42
 70
     1
102
RTVSPost2010Prop43
 90
        3
102
RTVSPost2010PropOp43
 70
     1
102
RTVSPost2010Prop44ColorIndex
 90
        5
102
RTVSPost2010Prop44ColorRGB
 90
      255
102
RTVSPost2010PropOp44
 70
     1
102
RTVSPost2010Prop45
280
     0
102
RTVSPost2010PropOp45
 70
     1
102
RTVSPost2010Prop46
 90
       50
102
RTVSPost2010PropOp46
 70
     1
102
RTVSPost2010Prop47
 90
       50
102
RTVSPost2010PropOp47
 70
     1
102
RTVSPost2010Prop48
 90
       50
102
RTVSPost2010PropOp48
 70
     1
102
RTVSPost2010Prop49
280
     0
102
RTVSPost2010PropOp49
 70
     1
102
RTVSPost2010Prop50
 90
       50
102
RTVSPost2010PropOp50
 70
     1
102
RTVSPost2010Prop51ColorIndex
 90
      256
102
RTVSPost2010Prop51ColorRGB
 90
-16777216
102
RTVSPost2010PropOp51
 70
     0
102
RTVSPost2010Prop52
140
1.0
102
RTVSPost2010PropOp52
 70
     0
102
RTVSPost2010Prop53
 90
        2
102
RTVSPost2010PropOp53
 70
     1
102
RTVSPost2010Prop54
  1
strokes_ogs.tif
102
RTVSPost2010PropOp54
 70
     1
102
RTVSPost2010Prop55
280
     0
102
RTVSPost2010PropOp55
 70
     1
102
RTVSPost2010Prop56
140
1.0
102
RTVSPost2010PropOp56
 70
     1
102
RTVSPost2010Prop57
140
1.0
102
RTVSPost2010PropOp57
 70
     1
  0
XRECORD
  5
86A
102
{ACAD_REACTORS
330
869
102
}
330
869
100
AcDbXrecord
280
     1
102
RTVSPost2010Prop28
280
     0
102
RTVSPost2010PropOp28
 70
     1
102
RTVSPost2010Prop29
280
     1
102
RTVSPost2010PropOp29
 70
     1
102
RTVSPost2010Prop30
280
     1
102
RTVSPost2010PropOp30
 70
     1
102
RTVSPost2010Prop31
280
     0
102
RTVSPost2010PropOp31
 70
     1
102
RTVSPost2010Prop32
280
     0
102
RTVSPost2010PropOp32
 70
     1
102
RTVSPost2010Prop33
280
     0
102
RTVSPost2010PropOp33
 70
     1
102
RTVSPost2010Prop34
280
     0
102
RTVSPost2010PropOp34
 70
     1
102
RTVSPost2010Prop35
280
     0
102
RTVSPost2010PropOp35
 70
     1
102
RTVSPost2010Prop36
280
     0
102
RTVSPost2010PropOp36
 70
     1
102
RTVSPost2010Prop37
 90
       50
102
RTVSPost2010PropOp37
 70
     1
102
RTVSPost2010Prop38
140
0.0
102
RTVSPost2010PropOp38
 70
     1
102
RTVSPost2010Prop39
140
1.0
102
RTVSPost2010PropOp39
 70
     1
102
RTVSPost2010Prop40
 90
        0
102
RTVSPost2010PropOp40
 70
     1
102
RTVSPost2010Prop41ColorIndex
 90
       18
102
RTVSPost2010Prop41ColorRGB
 90
        0
102
RTVSPost2010PropOp41
 70
     1
102
RTVSPost2010Prop42
 90
       50
102
RTVSPost2010PropOp42
 70
     1
102
RTVSPost2010Prop43
 90
        3
102
RTVSPost2010PropOp43
 70
     1
102
RTVSPost2010Prop44ColorIndex
 90
        5
102
RTVSPost2010Prop44ColorRGB
 90
      255
102
RTVSPost2010PropOp44
 70
     1
102
RTVSPost2010Prop45
280
     0
102
RTVSPost2010PropOp45
 70
     1
102
RTVSPost2010Prop46
 90
       50
102
RTVSPost2010PropOp46
 70
     1
102
RTVSPost2010Prop47
 90
       50
102
RTVSPost2010PropOp47
 70
     1
102
RTVSPost2010Prop48
 90
       50
102
RTVSPost2010PropOp48
 70
     1
102
RTVSPost2010Prop49
280
     0
102
RTVSPost2010PropOp49
 70
     1
102
RTVSPost2010Prop50
 90
       50
102
RTVSPost2010PropOp50
 70
     1
102
RTVSPost2010Prop51ColorIndex
 90
      256
102
RTVSPost2010Prop51ColorRGB
 90
-16777216
102
RTVSPost2010PropOp51
 70
     0
102
RTVSPost2010Prop52
140
1.0
102
RTVSPost2010PropOp52
 70
     0
102
RTVSPost2010Prop53
 90
        2
102
RTVSPost2010PropOp53
 70
     1
102
RTVSPost2010Prop54
  1
strokes_ogs.tif
102
RTVSPost2010PropOp54
 70
     1
102
RTVSPost2010Prop55
280
     0
102
RTVSPost2010PropOp55
 70
     1
102
RTVSPost2010Prop56
140
1.0
102
RTVSPost2010PropOp56
 70
     1
102
RTVSPost2010Prop57
140
1.0
102
RTVSPost2010PropOp57
 70
     1
  0
XRECORD
  5
864
102
{ACAD_REACTORS
330
863
102
}
330
863
100
AcDbXrecord
280
     1
102
RTVSPost2010Prop28
280
     0
102
RTVSPost2010PropOp28
 70
     1
102
RTVSPost2010Prop29
280
     1
102
RTVSPost2010PropOp29
 70
     1
102
RTVSPost2010Prop30
280
     1
102
RTVSPost2010PropOp30
 70
     1
102
RTVSPost2010Prop31
280
     0
102
RTVSPost2010PropOp31
 70
     1
102
RTVSPost2010Prop32
280
     0
102
RTVSPost2010PropOp32
 70
     1
102
RTVSPost2010Prop33
280
     0
102
RTVSPost2010PropOp33
 70
     1
102
RTVSPost2010Prop34
280
     0
102
RTVSPost2010PropOp34
 70
     1
102
RTVSPost2010Prop35
280
     0
102
RTVSPost2010PropOp35
 70
     1
102
RTVSPost2010Prop36
280
     0
102
RTVSPost2010PropOp36
 70
     1
102
RTVSPost2010Prop37
 90
       50
102
RTVSPost2010PropOp37
 70
     1
102
RTVSPost2010Prop38
140
0.0
102
RTVSPost2010PropOp38
 70
     1
102
RTVSPost2010Prop39
140
1.0
102
RTVSPost2010PropOp39
 70
     1
102
RTVSPost2010Prop40
 90
        0
102
RTVSPost2010PropOp40
 70
     1
102
RTVSPost2010Prop41ColorIndex
 90
       18
102
RTVSPost2010Prop41ColorRGB
 90
        0
102
RTVSPost2010PropOp41
 70
     1
102
RTVSPost2010Prop42
 90
       50
102
RTVSPost2010PropOp42
 70
     1
102
RTVSPost2010Prop43
 90
        3
102
RTVSPost2010PropOp43
 70
     1
102
RTVSPost2010Prop44ColorIndex
 90
        5
102
RTVSPost2010Prop44ColorRGB
 90
      255
102
RTVSPost2010PropOp44
 70
     1
102
RTVSPost2010Prop45
280
     0
102
RTVSPost2010PropOp45
 70
     1
102
RTVSPost2010Prop46
 90
       50
102
RTVSPost2010PropOp46
 70
     1
102
RTVSPost2010Prop47
 90
       50
102
RTVSPost2010PropOp47
 70
     1
102
RTVSPost2010Prop48
 90
       50
102
RTVSPost2010PropOp48
 70
     1
102
RTVSPost2010Prop49
280
     0
102
RTVSPost2010PropOp49
 70
     1
102
RTVSPost2010Prop50
 90
       50
102
RTVSPost2010PropOp50
 70
     1
102
RTVSPost2010Prop51ColorIndex
 90
      256
102
RTVSPost2010Prop51ColorRGB
 90
-16777216
102
RTVSPost2010PropOp51
 70
     0
102
RTVSPost2010Prop52
140
1.0
102
RTVSPost2010PropOp52
 70
     0
102
RTVSPost2010Prop53
 90
        2
102
RTVSPost2010PropOp53
 70
     1
102
RTVSPost2010Prop54
  1
strokes_ogs.tif
102
RTVSPost2010PropOp54
 70
     1
102
RTVSPost2010Prop55
280
     0
102
RTVSPost2010PropOp55
 70
     1
102
RTVSPost2010Prop56
140
1.0
102
RTVSPost2010PropOp56
 70
     1
102
RTVSPost2010Prop57
140
1.0
102
RTVSPost2010PropOp57
 70
     1
  0
XRECORD
  5
86C
102
{ACAD_REACTORS
330
86B
102
}
330
86B
100
AcDbXrecord
280
     1
102
RTVSPost2010Prop28
280
     0
102
RTVSPost2010PropOp28
 70
     1
102
RTVSPost2010Prop29
280
     1
102
RTVSPost2010PropOp29
 70
     1
102
RTVSPost2010Prop30
280
     1
102
RTVSPost2010PropOp30
 70
     1
102
RTVSPost2010Prop31
280
     0
102
RTVSPost2010PropOp31
 70
     1
102
RTVSPost2010Prop32
280
     0
102
RTVSPost2010PropOp32
 70
     1
102
RTVSPost2010Prop33
280
     0
102
RTVSPost2010PropOp33
 70
     1
102
RTVSPost2010Prop34
280
     0
102
RTVSPost2010PropOp34
 70
     1
102
RTVSPost2010Prop35
280
     0
102
RTVSPost2010PropOp35
 70
     1
102
RTVSPost2010Prop36
280
     0
102
RTVSPost2010PropOp36
 70
     1
102
RTVSPost2010Prop37
 90
       50
102
RTVSPost2010PropOp37
 70
     1
102
RTVSPost2010Prop38
140
0.0
102
RTVSPost2010PropOp38
 70
     1
102
RTVSPost2010Prop39
140
1.0
102
RTVSPost2010PropOp39
 70
     1
102
RTVSPost2010Prop40
 90
        0
102
RTVSPost2010PropOp40
 70
     1
102
RTVSPost2010Prop41ColorIndex
 90
       18
102
RTVSPost2010Prop41ColorRGB
 90
        0
102
RTVSPost2010PropOp41
 70
     1
102
RTVSPost2010Prop42
 90
       50
102
RTVSPost2010PropOp42
 70
     1
102
RTVSPost2010Prop43
 90
        3
102
RTVSPost2010PropOp43
 70
     1
102
RTVSPost2010Prop44ColorIndex
 90
        5
102
RTVSPost2010Prop44ColorRGB
 90
      255
102
RTVSPost2010PropOp44
 70
     1
102
RTVSPost2010Prop45
280
     0
102
RTVSPost2010PropOp45
 70
     1
102
RTVSPost2010Prop46
 90
       50
102
RTVSPost2010PropOp46
 70
     1
102
RTVSPost2010Prop47
 90
       50
102
RTVSPost2010PropOp47
 70
     1
102
RTVSPost2010Prop48
 90
       50
102
RTVSPost2010PropOp48
 70
     1
102
RTVSPost2010Prop49
280
     0
102
RTVSPost2010PropOp49
 70
     1
102
RTVSPost2010Prop50
 90
       50
102
RTVSPost2010PropOp50
 70
     1
102
RTVSPost2010Prop51ColorIndex
 90
      256
102
RTVSPost2010Prop51ColorRGB
 90
-16777216
102
RTVSPost2010PropOp51
 70
     0
102
RTVSPost2010Prop52
140
1.0
102
RTVSPost2010PropOp52
 70
     0
102
RTVSPost2010Prop53
 90
        2
102
RTVSPost2010PropOp53
 70
     1
102
RTVSPost2010Prop54
  1
strokes_ogs.tif
102
RTVSPost2010PropOp54
 70
     1
102
RTVSPost2010Prop55
280
     0
102
RTVSPost2010PropOp55
 70
     1
102
RTVSPost2010Prop56
140
1.0
102
RTVSPost2010PropOp56
 70
     1
102
RTVSPost2010Prop57
140
1.0
102
RTVSPost2010PropOp57
 70
     1
  0
XRECORD
  5
85C
102
{ACAD_REACTORS
330
85B
102
}
330
85B
100
AcDbXrecord
280
     1
102
RTVSPost2010Prop28
280
     0
102
RTVSPost2010PropOp28
 70
     1
102
RTVSPost2010Prop29
280
     1
102
RTVSPost2010PropOp29
 70
     1
102
RTVSPost2010Prop30
280
     1
102
RTVSPost2010PropOp30
 70
     1
102
RTVSPost2010Prop31
280
     0
102
RTVSPost2010PropOp31
 70
     1
102
RTVSPost2010Prop32
280
     0
102
RTVSPost2010PropOp32
 70
     1
102
RTVSPost2010Prop33
280
     0
102
RTVSPost2010PropOp33
 70
     1
102
RTVSPost2010Prop34
280
     0
102
RTVSPost2010PropOp34
 70
     1
102
RTVSPost2010Prop35
280
     0
102
RTVSPost2010PropOp35
 70
     1
102
RTVSPost2010Prop36
280
     0
102
RTVSPost2010PropOp36
 70
     1
102
RTVSPost2010Prop37
 90
       50
102
RTVSPost2010PropOp37
 70
     1
102
RTVSPost2010Prop38
140
0.0
102
RTVSPost2010PropOp38
 70
     1
102
RTVSPost2010Prop39
140
1.0
102
RTVSPost2010PropOp39
 70
     1
102
RTVSPost2010Prop40
 90
        0
102
RTVSPost2010PropOp40
 70
     1
102
RTVSPost2010Prop41ColorIndex
 90
       18
102
RTVSPost2010Prop41ColorRGB
 90
        0
102
RTVSPost2010PropOp41
 70
     1
102
RTVSPost2010Prop42
 90
       50
102
RTVSPost2010PropOp42
 70
     1
102
RTVSPost2010Prop43
 90
        3
102
RTVSPost2010PropOp43
 70
     1
102
RTVSPost2010Prop44ColorIndex
 90
        5
102
RTVSPost2010Prop44ColorRGB
 90
      255
102
RTVSPost2010PropOp44
 70
     1
102
RTVSPost2010Prop45
280
     0
102
RTVSPost2010PropOp45
 70
     1
102
RTVSPost2010Prop46
 90
       50
102
RTVSPost2010PropOp46
 70
     1
102
RTVSPost2010Prop47
 90
       50
102
RTVSPost2010PropOp47
 70
     1
102
RTVSPost2010Prop48
 90
       50
102
RTVSPost2010PropOp48
 70
     1
102
RTVSPost2010Prop49
280
     0
102
RTVSPost2010PropOp49
 70
     1
102
RTVSPost2010Prop50
 90
       50
102
RTVSPost2010PropOp50
 70
     1
102
RTVSPost2010Prop51ColorIndex
 90
      256
102
RTVSPost2010Prop51ColorRGB
 90
-16777216
102
RTVSPost2010PropOp51
 70
     0
102
RTVSPost2010Prop52
140
1.0
102
RTVSPost2010PropOp52
 70
     0
102
RTVSPost2010Prop53
 90
        2
102
RTVSPost2010PropOp53
 70
     1
102
RTVSPost2010Prop54
  1
strokes_ogs.tif
102
RTVSPost2010PropOp54
 70
     1
102
RTVSPost2010Prop55
280
     0
102
RTVSPost2010PropOp55
 70
     1
102
RTVSPost2010Prop56
140
1.0
102
RTVSPost2010PropOp56
 70
     1
102
RTVSPost2010Prop57
140
1.0
102
RTVSPost2010PropOp57
 70
     1
  0
XRECORD
  5
878
102
{ACAD_REACTORS
330
877
102
}
330
877
100
AcDbXrecord
280
     1
102
RTVSPost2010Prop28
280
     0
102
RTVSPost2010PropOp28
 70
     1
102
RTVSPost2010Prop29
280
     1
102
RTVSPost2010PropOp29
 70
     1
102
RTVSPost2010Prop30
280
     1
102
RTVSPost2010PropOp30
 70
     1
102
RTVSPost2010Prop31
280
     0
102
RTVSPost2010PropOp31
 70
     1
102
RTVSPost2010Prop32
280
     0
102
RTVSPost2010PropOp32
 70
     1
102
RTVSPost2010Prop33
280
     0
102
RTVSPost2010PropOp33
 70
     1
102
RTVSPost2010Prop34
280
     0
102
RTVSPost2010PropOp34
 70
     1
102
RTVSPost2010Prop35
280
     0
102
RTVSPost2010PropOp35
 70
     1
102
RTVSPost2010Prop36
280
     0
102
RTVSPost2010PropOp36
 70
     1
102
RTVSPost2010Prop37
 90
       50
102
RTVSPost2010PropOp37
 70
     1
102
RTVSPost2010Prop38
140
0.0
102
RTVSPost2010PropOp38
 70
     1
102
RTVSPost2010Prop39
140
1.0
102
RTVSPost2010PropOp39
 70
     1
102
RTVSPost2010Prop40
 90
        0
102
RTVSPost2010PropOp40
 70
     1
102
RTVSPost2010Prop41ColorIndex
 90
       18
102
RTVSPost2010Prop41ColorRGB
 90
        0
102
RTVSPost2010PropOp41
 70
     1
102
RTVSPost2010Prop42
 90
       50
102
RTVSPost2010PropOp42
 70
     1
102
RTVSPost2010Prop43
 90
        3
102
RTVSPost2010PropOp43
 70
     1
102
RTVSPost2010Prop44ColorIndex
 90
        5
102
RTVSPost2010Prop44ColorRGB
 90
      255
102
RTVSPost2010PropOp44
 70
     1
102
RTVSPost2010Prop45
280
     0
102
RTVSPost2010PropOp45
 70
     1
102
RTVSPost2010Prop46
 90
       50
102
RTVSPost2010PropOp46
 70
     1
102
RTVSPost2010Prop47
 90
       50
102
RTVSPost2010PropOp47
 70
     1
102
RTVSPost2010Prop48
 90
       50
102
RTVSPost2010PropOp48
 70
     1
102
RTVSPost2010Prop49
280
     0
102
RTVSPost2010PropOp49
 70
     1
102
RTVSPost2010Prop50
 90
       50
102
RTVSPost2010PropOp50
 70
     1
102
RTVSPost2010Prop51ColorIndex
 90
      256
102
RTVSPost2010Prop51ColorRGB
 90
-16777216
102
RTVSPost2010PropOp51
 70
     0
102
RTVSPost2010Prop52
140
1.0
102
RTVSPost2010PropOp52
 70
     0
102
RTVSPost2010Prop53
 90
        2
102
RTVSPost2010PropOp53
 70
     1
102
RTVSPost2010Prop54
  1
strokes_ogs.tif
102
RTVSPost2010PropOp54
 70
     1
102
RTVSPost2010Prop55
280
     0
102
RTVSPost2010PropOp55
 70
     1
102
RTVSPost2010Prop56
140
1.0
102
RTVSPost2010PropOp56
 70
     1
102
RTVSPost2010Prop57
140
1.0
102
RTVSPost2010PropOp57
 70
     1
  0
XRECORD
  5
876
102
{ACAD_REACTORS
330
875
102
}
330
875
100
AcDbXrecord
280
     1
102
RTVSPost2010Prop28
280
     0
102
RTVSPost2010PropOp28
 70
     1
102
RTVSPost2010Prop29
280
     1
102
RTVSPost2010PropOp29
 70
     1
102
RTVSPost2010Prop30
280
     1
102
RTVSPost2010PropOp30
 70
     1
102
RTVSPost2010Prop31
280
     0
102
RTVSPost2010PropOp31
 70
     1
102
RTVSPost2010Prop32
280
     0
102
RTVSPost2010PropOp32
 70
     1
102
RTVSPost2010Prop33
280
     0
102
RTVSPost2010PropOp33
 70
     1
102
RTVSPost2010Prop34
280
     0
102
RTVSPost2010PropOp34
 70
     1
102
RTVSPost2010Prop35
280
     0
102
RTVSPost2010PropOp35
 70
     1
102
RTVSPost2010Prop36
280
     0
102
RTVSPost2010PropOp36
 70
     1
102
RTVSPost2010Prop37
 90
       50
102
RTVSPost2010PropOp37
 70
     1
102
RTVSPost2010Prop38
140
0.0
102
RTVSPost2010PropOp38
 70
     1
102
RTVSPost2010Prop39
140
1.0
102
RTVSPost2010PropOp39
 70
     1
102
RTVSPost2010Prop40
 90
        0
102
RTVSPost2010PropOp40
 70
     1
102
RTVSPost2010Prop41ColorIndex
 90
       18
102
RTVSPost2010Prop41ColorRGB
 90
        0
102
RTVSPost2010PropOp41
 70
     1
102
RTVSPost2010Prop42
 90
       50
102
RTVSPost2010PropOp42
 70
     1
102
RTVSPost2010Prop43
 90
        3
102
RTVSPost2010PropOp43
 70
     1
102
RTVSPost2010Prop44ColorIndex
 90
        5
102
RTVSPost2010Prop44ColorRGB
 90
      255
102
RTVSPost2010PropOp44
 70
     1
102
RTVSPost2010Prop45
280
     0
102
RTVSPost2010PropOp45
 70
     1
102
RTVSPost2010Prop46
 90
       50
102
RTVSPost2010PropOp46
 70
     1
102
RTVSPost2010Prop47
 90
       50
102
RTVSPost2010PropOp47
 70
     1
102
RTVSPost2010Prop48
 90
       50
102
RTVSPost2010PropOp48
 70
     1
102
RTVSPost2010Prop49
280
     0
102
RTVSPost2010PropOp49
 70
     1
102
RTVSPost2010Prop50
 90
       50
102
RTVSPost2010PropOp50
 70
     1
102
RTVSPost2010Prop51ColorIndex
 90
      256
102
RTVSPost2010Prop51ColorRGB
 90
-16777216
102
RTVSPost2010PropOp51
 70
     0
102
RTVSPost2010Prop52
140
1.0
102
RTVSPost2010PropOp52
 70
     0
102
RTVSPost2010Prop53
 90
        2
102
RTVSPost2010PropOp53
 70
     1
102
RTVSPost2010Prop54
  1
strokes_ogs.tif
102
RTVSPost2010PropOp54
 70
     1
102
RTVSPost2010Prop55
280
     0
102
RTVSPost2010PropOp55
 70
     1
102
RTVSPost2010Prop56
140
1.0
102
RTVSPost2010PropOp56
 70
     1
102
RTVSPost2010Prop57
140
1.0
102
RTVSPost2010PropOp57
 70
     1
  0
XRECORD
  5
870
102
{ACAD_REACTORS
330
86F
102
}
330
86F
100
AcDbXrecord
280
     1
102
RTVSPost2010Prop28
280
     0
102
RTVSPost2010PropOp28
 70
     1
102
RTVSPost2010Prop29
280
     1
102
RTVSPost2010PropOp29
 70
     1
102
RTVSPost2010Prop30
280
     1
102
RTVSPost2010PropOp30
 70
     1
102
RTVSPost2010Prop31
280
     0
102
RTVSPost2010PropOp31
 70
     1
102
RTVSPost2010Prop32
280
     0
102
RTVSPost2010PropOp32
 70
     1
102
RTVSPost2010Prop33
280
     0
102
RTVSPost2010PropOp33
 70
     1
102
RTVSPost2010Prop34
280
     0
102
RTVSPost2010PropOp34
 70
     1
102
RTVSPost2010Prop35
280
     0
102
RTVSPost2010PropOp35
 70
     1
102
RTVSPost2010Prop36
280
     0
102
RTVSPost2010PropOp36
 70
     1
102
RTVSPost2010Prop37
 90
       50
102
RTVSPost2010PropOp37
 70
     1
102
RTVSPost2010Prop38
140
0.0
102
RTVSPost2010PropOp38
 70
     1
102
RTVSPost2010Prop39
140
1.0
102
RTVSPost2010PropOp39
 70
     1
102
RTVSPost2010Prop40
 90
        0
102
RTVSPost2010PropOp40
 70
     1
102
RTVSPost2010Prop41ColorIndex
 90
       18
102
RTVSPost2010Prop41ColorRGB
 90
        0
102
RTVSPost2010PropOp41
 70
     1
102
RTVSPost2010Prop42
 90
       50
102
RTVSPost2010PropOp42
 70
     1
102
RTVSPost2010Prop43
 90
        3
102
RTVSPost2010PropOp43
 70
     1
102
RTVSPost2010Prop44ColorIndex
 90
        5
102
RTVSPost2010Prop44ColorRGB
 90
      255
102
RTVSPost2010PropOp44
 70
     1
102
RTVSPost2010Prop45
280
     0
102
RTVSPost2010PropOp45
 70
     1
102
RTVSPost2010Prop46
 90
       50
102
RTVSPost2010PropOp46
 70
     1
102
RTVSPost2010Prop47
 90
       50
102
RTVSPost2010PropOp47
 70
     1
102
RTVSPost2010Prop48
 90
       50
102
RTVSPost2010PropOp48
 70
     1
102
RTVSPost2010Prop49
280
     0
102
RTVSPost2010PropOp49
 70
     1
102
RTVSPost2010Prop50
 90
       50
102
RTVSPost2010PropOp50
 70
     1
102
RTVSPost2010Prop51ColorIndex
 90
      256
102
RTVSPost2010Prop51ColorRGB
 90
-16777216
102
RTVSPost2010PropOp51
 70
     0
102
RTVSPost2010Prop52
140
1.0
102
RTVSPost2010PropOp52
 70
     0
102
RTVSPost2010Prop53
 90
        2
102
RTVSPost2010PropOp53
 70
     1
102
RTVSPost2010Prop54
  1
strokes_ogs.tif
102
RTVSPost2010PropOp54
 70
     1
102
RTVSPost2010Prop55
280
     0
102
RTVSPost2010PropOp55
 70
     1
102
RTVSPost2010Prop56
140
1.0
102
RTVSPost2010PropOp56
 70
     1
102
RTVSPost2010Prop57
140
1.0
102
RTVSPost2010PropOp57
 70
     1
  0
XRECORD
  5
872
102
{ACAD_REACTORS
330
871
102
}
330
871
100
AcDbXrecord
280
     1
102
RTVSPost2010Prop28
280
     0
102
RTVSPost2010PropOp28
 70
     1
102
RTVSPost2010Prop29
280
     1
102
RTVSPost2010PropOp29
 70
     1
102
RTVSPost2010Prop30
280
     1
102
RTVSPost2010PropOp30
 70
     1
102
RTVSPost2010Prop31
280
     0
102
RTVSPost2010PropOp31
 70
     1
102
RTVSPost2010Prop32
280
     0
102
RTVSPost2010PropOp32
 70
     1
102
RTVSPost2010Prop33
280
     0
102
RTVSPost2010PropOp33
 70
     1
102
RTVSPost2010Prop34
280
     0
102
RTVSPost2010PropOp34
 70
     1
102
RTVSPost2010Prop35
280
     0
102
RTVSPost2010PropOp35
 70
     1
102
RTVSPost2010Prop36
280
     0
102
RTVSPost2010PropOp36
 70
     1
102
RTVSPost2010Prop37
 90
       50
102
RTVSPost2010PropOp37
 70
     1
102
RTVSPost2010Prop38
140
0.0
102
RTVSPost2010PropOp38
 70
     1
102
RTVSPost2010Prop39
140
1.0
102
RTVSPost2010PropOp39
 70
     1
102
RTVSPost2010Prop40
 90
        0
102
RTVSPost2010PropOp40
 70
     1
102
RTVSPost2010Prop41ColorIndex
 90
       18
102
RTVSPost2010Prop41ColorRGB
 90
        0
102
RTVSPost2010PropOp41
 70
     1
102
RTVSPost2010Prop42
 90
       50
102
RTVSPost2010PropOp42
 70
     1
102
RTVSPost2010Prop43
 90
        3
102
RTVSPost2010PropOp43
 70
     1
102
RTVSPost2010Prop44ColorIndex
 90
        5
102
RTVSPost2010Prop44ColorRGB
 90
      255
102
RTVSPost2010PropOp44
 70
     1
102
RTVSPost2010Prop45
280
     0
102
RTVSPost2010PropOp45
 70
     1
102
RTVSPost2010Prop46
 90
       50
102
RTVSPost2010PropOp46
 70
     1
102
RTVSPost2010Prop47
 90
       50
102
RTVSPost2010PropOp47
 70
     1
102
RTVSPost2010Prop48
 90
       50
102
RTVSPost2010PropOp48
 70
     1
102
RTVSPost2010Prop49
280
     0
102
RTVSPost2010PropOp49
 70
     1
102
RTVSPost2010Prop50
 90
       50
102
RTVSPost2010PropOp50
 70
     1
102
RTVSPost2010Prop51ColorIndex
 90
      256
102
RTVSPost2010Prop51ColorRGB
 90
-16777216
102
RTVSPost2010PropOp51
 70
     0
102
RTVSPost2010Prop52
140
1.0
102
RTVSPost2010PropOp52
 70
     0
102
RTVSPost2010Prop53
 90
        2
102
RTVSPost2010PropOp53
 70
     1
102
RTVSPost2010Prop54
  1
strokes_ogs.tif
102
RTVSPost2010PropOp54
 70
     1
102
RTVSPost2010Prop55
280
     0
102
RTVSPost2010PropOp55
 70
     1
102
RTVSPost2010Prop56
140
1.0
102
RTVSPost2010PropOp56
 70
     1
102
RTVSPost2010Prop57
140
1.0
102
RTVSPost2010PropOp57
 70
     1
  0
XRECORD
  5
862
102
{ACAD_REACTORS
330
861
102
}
330
861
100
AcDbXrecord
280
     1
102
RTVSPost2010Prop28
280
     0
102
RTVSPost2010PropOp28
 70
     1
102
RTVSPost2010Prop29
280
     1
102
RTVSPost2010PropOp29
 70
     1
102
RTVSPost2010Prop30
280
     1
102
RTVSPost2010PropOp30
 70
     1
102
RTVSPost2010Prop31
280
     0
102
RTVSPost2010PropOp31
 70
     1
102
RTVSPost2010Prop32
280
     0
102
RTVSPost2010PropOp32
 70
     1
102
RTVSPost2010Prop33
280
     0
102
RTVSPost2010PropOp33
 70
     1
102
RTVSPost2010Prop34
280
     0
102
RTVSPost2010PropOp34
 70
     1
102
RTVSPost2010Prop35
280
     0
102
RTVSPost2010PropOp35
 70
     1
102
RTVSPost2010Prop36
280
     0
102
RTVSPost2010PropOp36
 70
     1
102
RTVSPost2010Prop37
 90
       50
102
RTVSPost2010PropOp37
 70
     1
102
RTVSPost2010Prop38
140
0.0
102
RTVSPost2010PropOp38
 70
     1
102
RTVSPost2010Prop39
140
1.0
102
RTVSPost2010PropOp39
 70
     1
102
RTVSPost2010Prop40
 90
        0
102
RTVSPost2010PropOp40
 70
     1
102
RTVSPost2010Prop41ColorIndex
 90
       18
102
RTVSPost2010Prop41ColorRGB
 90
        0
102
RTVSPost2010PropOp41
 70
     1
102
RTVSPost2010Prop42
 90
       50
102
RTVSPost2010PropOp42
 70
     1
102
RTVSPost2010Prop43
 90
        3
102
RTVSPost2010PropOp43
 70
     1
102
RTVSPost2010Prop44ColorIndex
 90
        5
102
RTVSPost2010Prop44ColorRGB
 90
      255
102
RTVSPost2010PropOp44
 70
     1
102
RTVSPost2010Prop45
280
     0
102
RTVSPost2010PropOp45
 70
     1
102
RTVSPost2010Prop46
 90
       50
102
RTVSPost2010PropOp46
 70
     1
102
RTVSPost2010Prop47
 90
       50
102
RTVSPost2010PropOp47
 70
     1
102
RTVSPost2010Prop48
 90
       50
102
RTVSPost2010PropOp48
 70
     1
102
RTVSPost2010Prop49
280
     0
102
RTVSPost2010PropOp49
 70
     1
102
RTVSPost2010Prop50
 90
       50
102
RTVSPost2010PropOp50
 70
     1
102
RTVSPost2010Prop51ColorIndex
 90
      256
102
RTVSPost2010Prop51ColorRGB
 90
-16777216
102
RTVSPost2010PropOp51
 70
     0
102
RTVSPost2010Prop52
140
1.0
102
RTVSPost2010PropOp52
 70
     0
102
RTVSPost2010Prop53
 90
        2
102
RTVSPost2010PropOp53
 70
     1
102
RTVSPost2010Prop54
  1
strokes_ogs.tif
102
RTVSPost2010PropOp54
 70
     1
102
RTVSPost2010Prop55
280
     0
102
RTVSPost2010PropOp55
 70
     1
102
RTVSPost2010Prop56
140
1.0
102
RTVSPost2010PropOp56
 70
     1
102
RTVSPost2010Prop57
140
1.0
102
RTVSPost2010PropOp57
 70
     1
  0
XRECORD
  5
856
102
{ACAD_REACTORS
330
855
102
}
330
855
100
AcDbXrecord
280
     1
102
RTVSPost2010Prop28
280
     0
102
RTVSPost2010PropOp28
 70
     1
102
RTVSPost2010Prop29
280
     1
102
RTVSPost2010PropOp29
 70
     1
102
RTVSPost2010Prop30
280
     1
102
RTVSPost2010PropOp30
 70
     1
102
RTVSPost2010Prop31
280
     0
102
RTVSPost2010PropOp31
 70
     1
102
RTVSPost2010Prop32
280
     0
102
RTVSPost2010PropOp32
 70
     1
102
RTVSPost2010Prop33
280
     0
102
RTVSPost2010PropOp33
 70
     1
102
RTVSPost2010Prop34
280
     0
102
RTVSPost2010PropOp34
 70
     1
102
RTVSPost2010Prop35
280
     0
102
RTVSPost2010PropOp35
 70
     1
102
RTVSPost2010Prop36
280
     0
102
RTVSPost2010PropOp36
 70
     1
102
RTVSPost2010Prop37
 90
       50
102
RTVSPost2010PropOp37
 70
     1
102
RTVSPost2010Prop38
140
0.0
102
RTVSPost2010PropOp38
 70
     1
102
RTVSPost2010Prop39
140
1.0
102
RTVSPost2010PropOp39
 70
     1
102
RTVSPost2010Prop40
 90
        0
102
RTVSPost2010PropOp40
 70
     1
102
RTVSPost2010Prop41ColorIndex
 90
       18
102
RTVSPost2010Prop41ColorRGB
 90
        0
102
RTVSPost2010PropOp41
 70
     1
102
RTVSPost2010Prop42
 90
       50
102
RTVSPost2010PropOp42
 70
     1
102
RTVSPost2010Prop43
 90
        3
102
RTVSPost2010PropOp43
 70
     1
102
RTVSPost2010Prop44ColorIndex
 90
        5
102
RTVSPost2010Prop44ColorRGB
 90
      255
102
RTVSPost2010PropOp44
 70
     1
102
RTVSPost2010Prop45
280
     0
102
RTVSPost2010PropOp45
 70
     1
102
RTVSPost2010Prop46
 90
       50
102
RTVSPost2010PropOp46
 70
     1
102
RTVSPost2010Prop47
 90
       50
102
RTVSPost2010PropOp47
 70
     1
102
RTVSPost2010Prop48
 90
       50
102
RTVSPost2010PropOp48
 70
     1
102
RTVSPost2010Prop49
280
     0
102
RTVSPost2010PropOp49
 70
     1
102
RTVSPost2010Prop50
 90
       50
102
RTVSPost2010PropOp50
 70
     1
102
RTVSPost2010Prop51ColorIndex
 90
      256
102
RTVSPost2010Prop51ColorRGB
 90
-16777216
102
RTVSPost2010PropOp51
 70
     0
102
RTVSPost2010Prop52
140
1.0
102
RTVSPost2010PropOp52
 70
     0
102
RTVSPost2010Prop53
 90
        2
102
RTVSPost2010PropOp53
 70
     1
102
RTVSPost2010Prop54
  1
strokes_ogs.tif
102
RTVSPost2010PropOp54
 70
     1
102
RTVSPost2010Prop55
280
     0
102
RTVSPost2010PropOp55
 70
     1
102
RTVSPost2010Prop56
140
1.0
102
RTVSPost2010PropOp56
 70
     1
102
RTVSPost2010Prop57
140
1.0
102
RTVSPost2010PropOp57
 70
     1
  0
XRECORD
  5
874
102
{ACAD_REACTORS
330
873
102
}
330
873
100
AcDbXrecord
280
     1
102
RTVSPost2010Prop28
280
     0
102
RTVSPost2010PropOp28
 70
     1
102
RTVSPost2010Prop29
280
     1
102
RTVSPost2010PropOp29
 70
     1
102
RTVSPost2010Prop30
280
     1
102
RTVSPost2010PropOp30
 70
     1
102
RTVSPost2010Prop31
280
     0
102
RTVSPost2010PropOp31
 70
     1
102
RTVSPost2010Prop32
280
     0
102
RTVSPost2010PropOp32
 70
     1
102
RTVSPost2010Prop33
280
     0
102
RTVSPost2010PropOp33
 70
     1
102
RTVSPost2010Prop34
280
     0
102
RTVSPost2010PropOp34
 70
     1
102
RTVSPost2010Prop35
280
     0
102
RTVSPost2010PropOp35
 70
     1
102
RTVSPost2010Prop36
280
     0
102
RTVSPost2010PropOp36
 70
     1
102
RTVSPost2010Prop37
 90
       50
102
RTVSPost2010PropOp37
 70
     1
102
RTVSPost2010Prop38
140
0.0
102
RTVSPost2010PropOp38
 70
     1
102
RTVSPost2010Prop39
140
1.0
102
RTVSPost2010PropOp39
 70
     1
102
RTVSPost2010Prop40
 90
        0
102
RTVSPost2010PropOp40
 70
     1
102
RTVSPost2010Prop41ColorIndex
 90
       18
102
RTVSPost2010Prop41ColorRGB
 90
        0
102
RTVSPost2010PropOp41
 70
     1
102
RTVSPost2010Prop42
 90
       50
102
RTVSPost2010PropOp42
 70
     1
102
RTVSPost2010Prop43
 90
        3
102
RTVSPost2010PropOp43
 70
     1
102
RTVSPost2010Prop44ColorIndex
 90
        5
102
RTVSPost2010Prop44ColorRGB
 90
      255
102
RTVSPost2010PropOp44
 70
     1
102
RTVSPost2010Prop45
280
     0
102
RTVSPost2010PropOp45
 70
     1
102
RTVSPost2010Prop46
 90
       50
102
RTVSPost2010PropOp46
 70
     1
102
RTVSPost2010Prop47
 90
       50
102
RTVSPost2010PropOp47
 70
     1
102
RTVSPost2010Prop48
 90
       50
102
RTVSPost2010PropOp48
 70
     1
102
RTVSPost2010Prop49
280
     0
102
RTVSPost2010PropOp49
 70
     1
102
RTVSPost2010Prop50
 90
       50
102
RTVSPost2010PropOp50
 70
     1
102
RTVSPost2010Prop51ColorIndex
 90
      256
102
RTVSPost2010Prop51ColorRGB
 90
-16777216
102
RTVSPost2010PropOp51
 70
     0
102
RTVSPost2010Prop52
140
1.0
102
RTVSPost2010PropOp52
 70
     0
102
RTVSPost2010Prop53
 90
        2
102
RTVSPost2010PropOp53
 70
     1
102
RTVSPost2010Prop54
  1
strokes_ogs.tif
102
RTVSPost2010PropOp54
 70
     1
102
RTVSPost2010Prop55
280
     0
102
RTVSPost2010PropOp55
 70
     1
102
RTVSPost2010Prop56
140
1.0
102
RTVSPost2010PropOp56
 70
     1
102
RTVSPost2010Prop57
140
1.0
102
RTVSPost2010PropOp57
 70
     1
  0
XRECORD
  5
67C
102
{ACAD_REACTORS
330
67B
102
}
330
67B
100
AcDbXrecord
280
     1
1071
 82437801
1071
112294725
 70
    25
 70
   104
 10
0.0
 20
0.0
 30
0.0
  0
XRECORD
  5
683
102
{ACAD_REACTORS
330
682
102
}
330
682
100
AcDbXrecord
280
     1
1071
 82437801
1071
112294725
 70
    25
 70
   104
 10
0.0
 20
0.0
 30
0.0
  0
XRECORD
  5
68A
102
{ACAD_REACTORS
330
689
102
}
330
689
100
AcDbXrecord
280
     1
1071
 82437801
1071
112294725
 70
    25
 70
   104
 10
0.0
 20
0.0
 30
0.0
  0
XRECORD
  5
692
102
{ACAD_REACTORS
330
691
102
}
330
691
100
AcDbXrecord
280
     1
1071
 82437801
1071
112294725
 70
    25
 70
   104
 10
0.0
 20
0.0
 30
0.0
  0
XRECORD
  5
69A
102
{ACAD_REACTORS
330
699
102
}
330
699
100
AcDbXrecord
280
     1
1071
 82437801
1071
112294725
 70
    25
 70
   104
 10
0.0
 20
0.0
 30
0.0
  0
XRECORD
  5
6A1
102
{ACAD_REACTORS
330
6A0
102
}
330
6A0
100
AcDbXrecord
280
     1
1071
 82437801
1071
112294725
 70
    25
 70
   104
 10
0.0
 20
0.0
 30
0.0
  0
XRECORD
  5
6A8
102
{ACAD_REACTORS
330
6A7
102
}
330
6A7
100
AcDbXrecord
280
     1
1071
 82437801
1071
112294725
 70
    25
 70
   104
 10
0.0
 20
0.0
 30
0.0
  0
XRECORD
  5
6AF
102
{ACAD_REACTORS
330
6AE
102
}
330
6AE
100
AcDbXrecord
280
     1
1071
 82437801
1071
112294725
 70
    25
 70
   104
 10
0.0
 20
0.0
 30
0.0
  0
XRECORD
  5
6B7
102
{ACAD_REACTORS
330
6B6
102
}
330
6B6
100
AcDbXrecord
280
     1
1071
 82437801
1071
112294725
 70
    25
 70
   104
 10
0.0
 20
0.0
 30
0.0
  0
XRECORD
  5
6BE
102
{ACAD_REACTORS
330
6BD
102
}
330
6BD
100
AcDbXrecord
280
     1
1071
 82437801
1071
112294725
 70
    25
 70
   104
 10
0.0
 20
0.0
 30
0.0
  0
XRECORD
  5
6C6
102
{ACAD_REACTORS
330
6C5
102
}
330
6C5
100
AcDbXrecord
280
     1
1071
 82437801
1071
112294725
 70
    25
 70
   104
 10
0.0
 20
0.0
 30
0.0
  0
XRECORD
  5
6D4
102
{ACAD_REACTORS
330
6D3
102
}
330
6D3
100
AcDbXrecord
280
     1
1071
 82437801
1071
112294725
 70
    25
 70
   104
 10
0.0
 20
0.0
 30
0.0
  0
XRECORD
  5
6DD
102
{ACAD_REACTORS
330
6DC
102
}
330
6DC
100
AcDbXrecord
280
     1
1071
 82437801
1071
112294725
 70
    25
 70
   104
 10
0.0
 20
0.0
 30
0.0
  0
XRECORD
  5
6E5
102
{ACAD_REACTORS
330
6E4
102
}
330
6E4
100
AcDbXrecord
280
     1
1071
 82437801
1071
112294725
 70
    25
 70
   104
 10
0.0
 20
0.0
 30
0.0
  0
XRECORD
  5
718
102
{ACAD_REACTORS
330
717
102
}
330
717
100
AcDbXrecord
280
     1
1071
 82437801
1071
112294725
 70
    25
 70
   104
 10
0.0
 20
0.0
 30
0.0
  0
XRECORD
  5
71F
102
{ACAD_REACTORS
330
71E
102
}
330
71E
100
AcDbXrecord
280
     1
1071
 82437801
1071
112294725
 70
    25
 70
   104
 10
0.0
 20
0.0
 30
0.0
  0
XRECORD
  5
72D
102
{ACAD_REACTORS
330
72C
102
}
330
72C
100
AcDbXrecord
280
     1
1071
 82437801
1071
112294725
 70
    25
 70
   104
 10
0.0
 20
0.0
 30
0.0
  0
XRECORD
  5
734
102
{ACAD_REACTORS
330
733
102
}
330
733
100
AcDbXrecord
280
     1
1071
 82437801
1071
112294725
 70
    25
 70
   104
 10
0.0
 20
0.0
 30
0.0
  0
XRECORD
  5
73B
102
{ACAD_REACTORS
330
73A
102
}
330
73A
100
AcDbXrecord
280
     1
1071
 82437801
1071
112294725
 70
    25
 70
   104
 10
0.0
 20
0.0
 30
0.0
  0
XRECORD
  5
744
102
{ACAD_REACTORS
330
743
102
}
330
743
100
AcDbXrecord
280
     1
1071
 82437801
1071
112294725
 70
    25
 70
   104
 10
0.0
 20
0.0
 30
0.0
  0
XRECORD
  5
74B
102
{ACAD_REACTORS
330
74A
102
}
330
74A
100
AcDbXrecord
280
     1
1071
 82437801
1071
112294725
 70
    25
 70
   104
 10
0.0
 20
0.0
 30
0.0
  0
XRECORD
  5
752
102
{ACAD_REACTORS
330
751
102
}
330
751
100
AcDbXrecord
280
     1
1071
 82437801
1071
112294725
 70
    25
 70
   104
 10
0.0
 20
0.0
 30
0.0
  0
XRECORD
  5
759
102
{ACAD_REACTORS
330
758
102
}
330
758
100
AcDbXrecord
280
     1
1071
 82437801
1071
112294725
 70
    25
 70
   104
 10
0.0
 20
0.0
 30
0.0
  0
XRECORD
  5
760
102
{ACAD_REACTORS
330
75F
102
}
330
75F
100
AcDbXrecord
280
     1
1071
 82437801
1071
112294725
 70
    25
 70
   104
 10
0.0
 20
0.0
 30
0.0
  0
XRECORD
  5
767
102
{ACAD_REACTORS
330
766
102
}
330
766
100
AcDbXrecord
280
     1
1071
 82437801
1071
112294725
 70
    25
 70
   104
 10
0.0
 20
0.0
 30
0.0
  0
XRECORD
  5
76E
102
{ACAD_REACTORS
330
76D
102
}
330
76D
100
AcDbXrecord
280
     1
1071
 82437801
1071
112294725
 70
    25
 70
   104
 10
0.0
 20
0.0
 30
0.0
  0
XRECORD
  5
775
102
{ACAD_REACTORS
330
774
102
}
330
774
100
AcDbXrecord
280
     1
1071
 82437801
1071
112294725
 70
    25
 70
   104
 10
0.0
 20
0.0
 30
0.0
  0
XRECORD
  5
77C
102
{ACAD_REACTORS
330
77B
102
}
330
77B
100
AcDbXrecord
280
     1
1071
 82437801
1071
112294725
 70
    25
 70
   104
 10
0.0
 20
0.0
 30
0.0
  0
XRECORD
  5
788
102
{ACAD_REACTORS
330
787
102
}
330
787
100
AcDbXrecord
280
     1
1071
 82437801
1071
112294725
 70
    25
 70
   104
 10
0.0
 20
0.0
 30
0.0
  0
XRECORD
  5
78F
102
{ACAD_REACTORS
330
78E
102
}
330
78E
100
AcDbXrecord
280
     1
1071
 82437801
1071
112294725
 70
    25
 70
   104
 10
0.0
 20
0.0
 30
0.0
  0
XRECORD
  5
796
102
{ACAD_REACTORS
330
795
102
}
330
795
100
AcDbXrecord
280
     1
1071
 82437801
1071
112294725
 70
    25
 70
   104
 10
0.0
 20
0.0
 30
0.0
  0
XRECORD
  5
79F
102
{ACAD_REACTORS
330
79E
102
}
330
79E
100
AcDbXrecord
280
     1
1071
 82437801
1071
112294725
 70
    25
 70
   104
 10
0.0
 20
0.0
 30
0.0
  0
XRECORD
  5
7A6
102
{ACAD_REACTORS
330
7A5
102
}
330
7A5
100
AcDbXrecord
280
     1
1071
 82437801
1071
112294725
 70
    25
 70
   104
 10
0.0
 20
0.0
 30
0.0
  0
XRECORD
  5
7AD
102
{ACAD_REACTORS
330
7AC
102
}
330
7AC
100
AcDbXrecord
280
     1
1071
 82437801
1071
112294725
 70
    25
 70
   104
 10
0.0
 20
0.0
 30
0.0
  0
XRECORD
  5
7B4
102
{ACAD_REACTORS
330
7B3
102
}
330
7B3
100
AcDbXrecord
280
     1
1071
 82437801
1071
112294725
 70
    25
 70
   104
 10
0.0
 20
0.0
 30
0.0
  0
XRECORD
  5
7BB
102
{ACAD_REACTORS
330
7BA
102
}
330
7BA
100
AcDbXrecord
280
     1
1071
 82437801
1071
112294725
 70
    25
 70
   104
 10
0.0
 20
0.0
 30
0.0
  0
XRECORD
  5
7C2
102
{ACAD_REACTORS
330
7C1
102
}
330
7C1
100
AcDbXrecord
280
     1
1071
 82437801
1071
112294725
 70
    25
 70
   104
 10
0.0
 20
0.0
 30
0.0
  0
XRECORD
  5
7C9
102
{ACAD_REACTORS
330
7C8
102
}
330
7C8
100
AcDbXrecord
280
     1
1071
 82437801
1071
112294725
 70
    25
 70
   104
 10
0.0
 20
0.0
 30
0.0
  0
XRECORD
  5
7D0
102
{ACAD_REACTORS
330
7CF
102
}
330
7CF
100
AcDbXrecord
280
     1
1071
 82437801
1071
112294725
 70
    25
 70
   104
 10
0.0
 20
0.0
 30
0.0
  0
XRECORD
  5
7D9
102
{ACAD_REACTORS
330
7D8
102
}
330
7D8
100
AcDbXrecord
280
     1
1071
 82437801
1071
112294725
 70
    25
 70
   104
 10
0.0
 20
0.0
 30
0.0
  0
XRECORD
  5
7E2
102
{ACAD_REACTORS
330
7E1
102
}
330
7E1
100
AcDbXrecord
280
     1
1071
 82437801
1071
112294725
 70
    25
 70
   104
 10
0.0
 20
0.0
 30
0.0
  0
XRECORD
  5
7EF
102
{ACAD_REACTORS
330
7EE
102
}
330
7EE
100
AcDbXrecord
280
     1
1071
 82437801
1071
112294725
 70
    25
 70
   104
 10
0.0
 20
0.0
 30
0.0
  0
XRECORD
  5
7F6
102
{ACAD_REACTORS
330
7F5
102
}
330
7F5
100
AcDbXrecord
280
     1
1071
 82437801
1071
112294725
 70
    25
 70
   104
 10
0.0
 20
0.0
 30
0.0
  0
XRECORD
  5
7FF
102
{ACAD_REACTORS
330
7FE
102
}
330
7FE
100
AcDbXrecord
280
     1
1071
 82437801
1071
112294725
 70
    25
 70
   104
 10
0.0
 20
0.0
 30
0.0
  0
XRECORD
  5
808
102
{ACAD_REACTORS
330
807
102
}
330
807
100
AcDbXrecord
280
     1
1071
 82437801
1071
112294725
 70
    25
 70
   104
 10
0.0
 20
0.0
 30
0.0
  0
XRECORD
  5
811
102
{ACAD_REACTORS
330
810
102
}
330
810
100
AcDbXrecord
280
     1
1071
 82437801
1071
112294725
 70
    25
 70
   104
 10
0.0
 20
0.0
 30
0.0
  0
XRECORD
  5
81A
102
{ACAD_REACTORS
330
819
102
}
330
819
100
AcDbXrecord
280
     1
1071
 82437801
1071
112294725
 70
    25
 70
   104
 10
0.0
 20
0.0
 30
0.0
  0
XRECORD
  5
827
102
{ACAD_REACTORS
330
826
102
}
330
826
100
AcDbXrecord
280
     1
1071
 82437801
1071
112294725
 70
    25
 70
   104
 10
0.0
 20
0.0
 30
0.0
  0
XRECORD
  5
82E
102
{ACAD_REACTORS
330
82D
102
}
330
82D
100
AcDbXrecord
280
     1
1071
 82437801
1071
112294725
 70
    25
 70
   104
 10
0.0
 20
0.0
 30
0.0
  0
XRECORD
  5
837
102
{ACAD_REACTORS
330
836
102
}
330
836
100
AcDbXrecord
280
     1
1071
 82437801
1071
112294725
 70
    25
 70
   104
 10
0.0
 20
0.0
 30
0.0
  0
ENDSEC
  0
EOF
