  0
SECTION
  2
HEADER
  9
$ACADVER
  1
AC1024
  9
$ACADMAINTVER
 70
   205
  9
$DWGCODEPAGE
  3
ANSI_936
  9
$LASTSAVEDBY
  1
Arysting
  9
$INSBASE
 10
0.0
 20
0.0
 30
0.0
  9
$EXTMIN
 10
1203.916241049775
 20
1575.183624674504
 30
0.0
  9
$EXTMAX
 10
3599.916241049776
 20
2719.183624674505
 30
0.0
  9
$LIMMIN
 10
0.0
 20
0.0
  9
$LIMMAX
 10
420.0
 20
297.0
  9
$ORTHOMODE
 70
     0
  9
$REGENMODE
 70
     1
  9
$FILLMODE
 70
     1
  9
$QTEXTMODE
 70
     0
  9
$MIRRTEXT
 70
     0
  9
$LTSCALE
 40
1.0
  9
$ATTMODE
 70
     1
  9
$TEXTSIZE
 40
20.0
  9
$TRACEWID
 40
1.0
  9
$TEXTSTYLE
  7
Standard
  9
$CLAYER
  8
DM-10kV-Wire
  9
$CELTYPE
  6
ByLayer
  9
$CECOLOR
 62
   256
  9
$CELTSCALE
 40
1.0
  9
$DISPSILH
 70
     0
  9
$DIMSCALE
 40
1.0
  9
$DIMASZ
 40
2.5
  9
$DIMEXO
 40
0.625
  9
$DIMDLI
 40
3.75
  9
$DIMRND
 40
0.0
  9
$DIMDLE
 40
0.0
  9
$DIMEXE
 40
1.25
  9
$DIMTP
 40
0.0
  9
$DIMTM
 40
0.0
  9
$DIMTXT
 40
2.5
  9
$DIMCEN
 40
2.5
  9
$DIMTSZ
 40
0.0
  9
$DIMTOL
 70
     0
  9
$DIMLIM
 70
     0
  9
$DIMTIH
 70
     0
  9
$DIMTOH
 70
     0
  9
$DIMSE1
 70
     0
  9
$DIMSE2
 70
     0
  9
$DIMTAD
 70
     1
  9
$DIMZIN
 70
     8
  9
$DIMBLK
  1

  9
$DIMASO
 70
     1
  9
$DIMSHO
 70
     1
  9
$DIMPOST
  1

  9
$DIMAPOST
  1

  9
$DIMALT
 70
     0
  9
$DIMALTD
 70
     3
  9
$DIMALTF
 40
0.03937007874016
  9
$DIMLFAC
 40
1.0
  9
$DIMTOFL
 70
     1
  9
$DIMTVP
 40
0.0
  9
$DIMTIX
 70
     0
  9
$DIMSOXD
 70
     0
  9
$DIMSAH
 70
     0
  9
$DIMBLK1
  1

  9
$DIMBLK2
  1

  9
$DIMSTYLE
  2
ISO-25
  9
$DIMCLRD
 70
     0
  9
$DIMCLRE
 70
     0
  9
$DIMCLRT
 70
     0
  9
$DIMTFAC
 40
1.0
  9
$DIMGAP
 40
0.625
  9
$DIMJUST
 70
     0
  9
$DIMSD1
 70
     0
  9
$DIMSD2
 70
     0
  9
$DIMTOLJ
 70
     0
  9
$DIMTZIN
 70
     8
  9
$DIMALTZ
 70
     0
  9
$DIMALTTZ
 70
     0
  9
$DIMUPT
 70
     0
  9
$DIMDEC
 70
     2
  9
$DIMTDEC
 70
     2
  9
$DIMALTU
 70
     2
  9
$DIMALTTD
 70
     3
  9
$DIMTXSTY
  7
Standard
  9
$DIMAUNIT
 70
     0
  9
$DIMADEC
 70
     0
  9
$DIMALTRND
 40
0.0
  9
$DIMAZIN
 70
     0
  9
$DIMDSEP
 70
    44
  9
$DIMATFIT
 70
     3
  9
$DIMFRAC
 70
     0
  9
$DIMLDRBLK
  1

  9
$DIMLUNIT
 70
     2
  9
$DIMLWD
 70
    -2
  9
$DIMLWE
 70
    -2
  9
$DIMTMOVE
 70
     0
  9
$DIMFXL
 40
1.0
  9
$DIMFXLON
 70
     0
  9
$DIMJOGANG
 40
0.7853981633974483
  9
$DIMTFILL
 70
     0
  9
$DIMTFILLCLR
 70
     0
  9
$DIMARCSYM
 70
     0
  9
$DIMLTYPE
  6

  9
$DIMLTEX1
  6

  9
$DIMLTEX2
  6

  9
$DIMTXTDIRECTION
 70
     0
  9
$LUNITS
 70
     2
  9
$LUPREC
 70
     4
  9
$SKETCHINC
 40
1.0
  9
$FILLETRAD
 40
0.0
  9
$AUNITS
 70
     0
  9
$AUPREC
 70
     0
  9
$MENU
  1
.
  9
$ELEVATION
 40
0.0
  9
$PELEVATION
 40
0.0
  9
$THICKNESS
 40
0.0
  9
$LIMCHECK
 70
     0
  9
$CHAMFERA
 40
0.0
  9
$CHAMFERB
 40
0.0
  9
$CHAMFERC
 40
0.0
  9
$CHAMFERD
 40
0.0
  9
$SKPOLY
 70
     0
  9
$TDCREATE
 40
2457724.731902708
  9
$TDUCREATE
 40
2457724.398569375
  9
$TDUPDATE
 40
2457764.473274942
  9
$TDUUPDATE
 40
2457764.139941609
  9
$TDINDWG
 40
0.4749206713
  9
$TDUSRTIMER
 40
0.4749206366
  9
$USRTIMER
 70
     1
  9
$ANGBASE
 50
0.0
  9
$ANGDIR
 70
     0
  9
$PDMODE
 70
     0
  9
$PDSIZE
 40
0.0
  9
$PLINEWID
 40
0.0
  9
$SPLFRAME
 70
     0
  9
$SPLINETYPE
 70
     6
  9
$SPLINESEGS
 70
     8
  9
$HANDSEED
  5
5602
  9
$SURFTAB1
 70
     6
  9
$SURFTAB2
 70
     6
  9
$SURFTYPE
 70
     6
  9
$SURFU
 70
     6
  9
$SURFV
 70
     6
  9
$UCSBASE
  2

  9
$UCSNAME
  2

  9
$UCSORG
 10
0.0
 20
0.0
 30
0.0
  9
$UCSXDIR
 10
1.0
 20
0.0
 30
0.0
  9
$UCSYDIR
 10
0.0
 20
1.0
 30
0.0
  9
$UCSORTHOREF
  2

  9
$UCSORTHOVIEW
 70
     0
  9
$UCSORGTOP
 10
0.0
 20
0.0
 30
0.0
  9
$UCSORGBOTTOM
 10
0.0
 20
0.0
 30
0.0
  9
$UCSORGLEFT
 10
0.0
 20
0.0
 30
0.0
  9
$UCSORGRIGHT
 10
0.0
 20
0.0
 30
0.0
  9
$UCSORGFRONT
 10
0.0
 20
0.0
 30
0.0
  9
$UCSORGBACK
 10
0.0
 20
0.0
 30
0.0
  9
$PUCSBASE
  2

  9
$PUCSNAME
  2

  9
$PUCSORG
 10
0.0
 20
0.0
 30
0.0
  9
$PUCSXDIR
 10
1.0
 20
0.0
 30
0.0
  9
$PUCSYDIR
 10
0.0
 20
1.0
 30
0.0
  9
$PUCSORTHOREF
  2

  9
$PUCSORTHOVIEW
 70
     0
  9
$PUCSORGTOP
 10
0.0
 20
0.0
 30
0.0
  9
$PUCSORGBOTTOM
 10
0.0
 20
0.0
 30
0.0
  9
$PUCSORGLEFT
 10
0.0
 20
0.0
 30
0.0
  9
$PUCSORGRIGHT
 10
0.0
 20
0.0
 30
0.0
  9
$PUCSORGFRONT
 10
0.0
 20
0.0
 30
0.0
  9
$PUCSORGBACK
 10
0.0
 20
0.0
 30
0.0
  9
$USERI1
 70
     0
  9
$USERI2
 70
     0
  9
$USERI3
 70
     0
  9
$USERI4
 70
     0
  9
$USERI5
 70
     0
  9
$USERR1
 40
0.0
  9
$USERR2
 40
0.0
  9
$USERR3
 40
0.0
  9
$USERR4
 40
0.0
  9
$USERR5
 40
0.0
  9
$WORLDVIEW
 70
     1
  9
$SHADEDGE
 70
     3
  9
$SHADEDIF
 70
    70
  9
$TILEMODE
 70
     1
  9
$MAXACTVP
 70
    64
  9
$PINSBASE
 10
0.0
 20
0.0
 30
0.0
  9
$PLIMCHECK
 70
     0
  9
$PEXTMIN
 10
0.0
 20
0.0
 30
0.0
  9
$PEXTMAX
 10
0.0
 20
0.0
 30
0.0
  9
$PLIMMIN
 10
0.0
 20
0.0
  9
$PLIMMAX
 10
12.0
 20
9.0
  9
$UNITMODE
 70
     0
  9
$VISRETAIN
 70
     1
  9
$PLINEGEN
 70
     0
  9
$PSLTSCALE
 70
     1
  9
$TREEDEPTH
 70
  3020
  9
$CMLSTYLE
  2
Standard
  9
$CMLJUST
 70
     0
  9
$CMLSCALE
 40
20.0
  9
$PROXYGRAPHICS
 70
     1
  9
$MEASUREMENT
 70
     1
  9
$CELWEIGHT
370
    -1
  9
$ENDCAPS
280
     0
  9
$JOINSTYLE
280
     0
  9
$LWDISPLAY
290
     1
  9
$INSUNITS
 70
     4
  9
$HYPERLINKBASE
  1

  9
$STYLESHEET
  1

  9
$XEDIT
290
     1
  9
$CEPSNTYPE
380
     0
  9
$PSTYLEMODE
290
     1
  9
$FINGERPRINTGUID
  2
{653EACD8-77A6-4CF1-BA8B-00A6C84D356E}
  9
$VERSIONGUID
  2
{274B89C5-6324-4820-AAED-A9539AECC03C}
  9
$EXTNAMES
290
     1
  9
$PSVPSCALE
 40
0.0
  9
$OLESTARTUP
290
     0
  9
$SORTENTS
280
   127
  9
$INDEXCTL
280
     0
  9
$HIDETEXT
280
     1
  9
$XCLIPFRAME
280
     2
  9
$HALOGAP
280
     0
  9
$OBSCOLOR
 70
   257
  9
$OBSLTYPE
280
     0
  9
$INTERSECTIONDISPLAY
280
     0
  9
$INTERSECTIONCOLOR
 70
   257
  9
$DIMASSOC
280
     2
  9
$PROJECTNAME
  1

  9
$CAMERADISPLAY
290
     0
  9
$LENSLENGTH
 40
50.0
  9
$CAMERAHEIGHT
 40
0.0
  9
$STEPSPERSEC
 40
2.0
  9
$STEPSIZE
 40
6.0
  9
$3DDWFPREC
 40
2.0
  9
$PSOLWIDTH
 40
5.0
  9
$PSOLHEIGHT
 40
80.0
  9
$LOFTANG1
 40
1.570796326794896
  9
$LOFTANG2
 40
1.570796326794896
  9
$LOFTMAG1
 40
0.0
  9
$LOFTMAG2
 40
0.0
  9
$LOFTPARAM
 70
     7
  9
$LOFTNORMALS
280
     1
  9
$LATITUDE
 40
37.795
  9
$LONGITUDE
 40
-122.394
  9
$NORTHDIRECTION
 40
0.0
  9
$TIMEZONE
 70
 -8000
  9
$LIGHTGLYPHDISPLAY
280
     1
  9
$TILEMODELIGHTSYNCH
280
     1
  9
$CMATERIAL
347
EC
  9
$SOLIDHIST
280
     0
  9
$SHOWHIST
280
     1
  9
$DWFFRAME
280
     2
  9
$DGNFRAME
280
     0
  9
$REALWORLDSCALE
290
     1
  9
$INTERFERECOLOR
 62
     1
  9
$INTERFEREOBJVS
345
F9
  9
$INTERFEREVPVS
346
F6
  9
$CSHADOW
280
     0
  9
$SHADOWPLANELOCATION
 40
0.0
  0
ENDSEC
  0
SECTION
  2
CLASSES
  0
CLASS
  1
ACDBDICTIONARYWDFLT
  2
AcDbDictionaryWithDefault
  3
ObjectDBX Classes
 90
        0
 91
        1
280
     0
281
     0
  0
CLASS
  1
ACDBPLACEHOLDER
  2
AcDbPlaceHolder
  3
ObjectDBX Classes
 90
        0
 91
        1
280
     0
281
     0
  0
CLASS
  1
LAYOUT
  2
AcDbLayout
  3
ObjectDBX Classes
 90
        0
 91
        3
280
     0
281
     0
  0
CLASS
  1
DICTIONARYVAR
  2
AcDbDictionaryVar
  3
ObjectDBX Classes
 90
        0
 91
       12
280
     0
281
     0
  0
CLASS
  1
TABLESTYLE
  2
AcDbTableStyle
  3
ObjectDBX Classes
 90
     4095
 91
        1
280
     0
281
     0
  0
CLASS
  1
MATERIAL
  2
AcDbMaterial
  3
ObjectDBX Classes
 90
     1153
 91
        3
280
     0
281
     0
  0
CLASS
  1
VISUALSTYLE
  2
AcDbVisualStyle
  3
ObjectDBX Classes
 90
     4095
 91
       26
280
     0
281
     0
  0
CLASS
  1
SCALE
  2
AcDbScale
  3
ObjectDBX Classes
 90
     1153
 91
       17
280
     0
281
     0
  0
CLASS
  1
MLEADERSTYLE
  2
AcDbMLeaderStyle
  3
ACDB_MLEADERSTYLE_CLASS
 90
     4095
 91
        2
280
     0
281
     0
  0
CLASS
  1
CELLSTYLEMAP
  2
AcDbCellStyleMap
  3
ObjectDBX Classes
 90
     1152
 91
        1
280
     0
281
     0
  0
CLASS
  1
EXACXREFPANELOBJECT
  2
ExAcXREFPanelObject
  3
EXAC_ESW
 90
     1025
 91
        0
280
     0
281
     0
  0
CLASS
  1
NPOCOLLECTION
  2
AcDbImpNonPersistentObjectsCollection
  3
ObjectDBX Classes
 90
     1153
 91
        0
280
     0
281
     0
  0
CLASS
  1
LAYER_INDEX
  2
AcDbLayerIndex
  3
ObjectDBX Classes
 90
        0
 91
        0
280
     0
281
     0
  0
CLASS
  1
SPATIAL_INDEX
  2
AcDbSpatialIndex
  3
ObjectDBX Classes
 90
        0
 91
        0
280
     0
281
     0
  0
CLASS
  1
IDBUFFER
  2
AcDbIdBuffer
  3
ObjectDBX Classes
 90
        0
 91
        0
280
     0
281
     0
  0
CLASS
  1
ACDBSECTIONVIEWSTYLE
  2
AcDbSectionViewStyle
  3
ObjectDBX Classes
 90
     1025
 91
        2
280
     0
281
     0
  0
CLASS
  1
ACDBDETAILVIEWSTYLE
  2
AcDbDetailViewStyle
  3
ObjectDBX Classes
 90
     1025
 91
        2
280
     0
281
     0
  0
CLASS
  1
ACAD_EVALUATION_GRAPH
  2
AcDbEvalGraph
  3
ObjectDBX Classes
 90
     1153
 91
       12
280
     0
281
     0
  0
CLASS
  1
BLOCKBASEPOINTPARAMETER
  2
AcDbBlockBasepointParameter
  3
ObjectDBX Classes
 90
     1153
 91
       12
280
     0
281
     0
  0
CLASS
  1
ACDB_DYNAMICBLOCKPURGEPREVENTER_VERSION
  2
AcDbDynamicBlockPurgePreventer
  3
ObjectDBX Classes
 90
     1153
 91
       12
280
     0
281
     0
  0
CLASS
  1
SORTENTSTABLE
  2
AcDbSortentsTable
  3
ObjectDBX Classes
 90
        0
 91
        3
280
     0
281
     0
  0
CLASS
  1
ACDB_BLOCKREPRESENTATION_DATA
  2
AcDbBlockRepresentationData
  3
ObjectDBX Classes
 90
     1153
 91
       30
280
     0
281
     0
  0
CLASS
  1
ACDBASSOCPERSSUBENTMANAGER
  2
AcDbAssocPersSubentManager
  3
ObjectDBX Classes
 90
     1024
 91
        2
280
     0
281
     0
  0
CLASS
  1
ACDBPERSSUBENTMANAGER
  2
AcDbPersSubentManager
  3
AcDbPersSubentManager
 90
     1024
 91
        1
280
     0
281
     0
  0
CLASS
  1
ACAECUSTOBJ
  2
AcAeEditorObj
  3
AcAeEditorObj
 90
     1024
 91
        0
280
     0
281
     0
  0
CLASS
  1
BASEPOINTPARAMETERENTITY
  2
AcDbBlockBasepointParameterEntity
  3
ObjectDBX Classes
 90
     1025
 91
        0
280
     0
281
     1
  0
CLASS
  1
ACAEEEMGROBJ
  2
AcAeEEMgrObj
  3
AcAeEEMgrObj
 90
     1024
 91
        0
280
     0
281
     0
  0
ENDSEC
  0
SECTION
  2
TABLES
  0
TABLE
  2
VPORT
  5
8
102
{ACAD_XDICTIONARY
360
4F8F
102
}
330
0
100
AcDbSymbolTable
 70
     1
  0
VPORT
  5
EA
330
8
100
AcDbSymbolTableRecord
100
AcDbViewportTableRecord
  2
*Active
 70
     0
 10
0.0
 20
0.0
 11
1.0
 21
1.0
 12
2494.029302505482
 22
2062.886072213544
 13
0.0
 23
0.0
 14
10.0
 24
10.0
 15
10.0
 25
10.0
 16
0.0
 26
0.0
 36
1.0
 17
0.0
 27
0.0
 37
0.0
 40
1087.238458971258
 41
2.444302176696542
 42
50.0
 43
0.0
 44
0.0
 50
0.0
 51
0.0
 71
     0
 72
  1000
 73
     1
 74
     3
 75
     0
 76
     0
 77
     0
 78
     0
281
     0
 65
     1
110
0.0
120
0.0
130
0.0
111
1.0
121
0.0
131
0.0
112
0.0
122
1.0
132
0.0
 79
     0
146
0.0
348
F5
 60
     3
 61
     5
292
     1
282
     1
141
0.0
142
0.0
 63
   250
421
  3355443
1001
ACAD_NAV_VCDISPLAY
1070
     3
  0
ENDTAB
  0
TABLE
  2
LTYPE
  5
5
330
0
100
AcDbSymbolTable
 70
     4
  0
LTYPE
  5
14
330
5
100
AcDbSymbolTableRecord
100
AcDbLinetypeTableRecord
  2
ByBlock
 70
     0
  3

 72
    65
 73
     0
 40
0.0
  0
LTYPE
  5
15
330
5
100
AcDbSymbolTableRecord
100
AcDbLinetypeTableRecord
  2
ByLayer
 70
     0
  3

 72
    65
 73
     0
 40
0.0
  0
LTYPE
  5
16
330
5
100
AcDbSymbolTableRecord
100
AcDbLinetypeTableRecord
  2
Continuous
 70
     0
  3
Solid line
 72
    65
 73
     0
 40
0.0
  0
LTYPE
  5
532
330
5
100
AcDbSymbolTableRecord
100
AcDbLinetypeTableRecord
  2
ACAD_ISO03W100
 70
     0
  3
ISO dash space __    __    __    __    __    __
 72
    65
 73
     2
 40
30.0
 49
12.0
 74
     0
 49
-18.0
 74
     0
  0
LTYPE
  5
533
330
5
100
AcDbSymbolTableRecord
100
AcDbLinetypeTableRecord
  2
DASHED2
 70
     0
  3
Dashed (.5x) _ _ _ _ _ _ _ _ _ _ _ _ _ _ _ _ _
 72
    65
 73
     2
 40
9.524999999999998
 49
6.349999999999999
 74
     0
 49
-3.174999999999999
 74
     0
  0
LTYPE
  5
3C52
330
5
100
AcDbSymbolTableRecord
100
AcDbLinetypeTableRecord
  2
DASHED
 70
     0
  3
__ __ __ __ __ __ __ __ __ __ __ __ __ __ __ __
 72
    65
 73
     2
 40
0.75
 49
0.5
 74
     0
 49
-0.25
 74
     0
  0
ENDTAB
  0
TABLE
  2
LAYER
  5
2
102
{ACAD_XDICTIONARY
360
1FF
102
}
330
0
100
AcDbSymbolTable
 70
    36
  0
LAYER
  5
10
102
{ACAD_XDICTIONARY
360
13C
102
}
330
2
100
AcDbSymbolTableRecord
100
AcDbLayerTableRecord
  2
0
 70
     0
 62
     7
  6
Continuous
370
    -3
390
F
347
EE
  0
LAYER
  5
534
330
2
100
AcDbSymbolTableRecord
100
AcDbLayerTableRecord
  2
DM-ZCT
 70
     0
 62
     7
  6
Continuous
370
    -3
390
F
347
EE
1001
AcAecLayerStandard
1000

1000

  0
LAYER
  5
535
330
2
100
AcDbSymbolTableRecord
100
AcDbLayerTableRecord
  2
DM-GND
 70
     0
 62
     7
  6
Continuous
370
    -3
390
F
347
EE
1001
AcAecLayerStandard
1000

1000

  0
LAYER
  5
536
330
2
100
AcDbSymbolTableRecord
100
AcDbLayerTableRecord
  2
DM-Earthing Switch
 70
     0
 62
     7
  6
Continuous
370
    -3
390
F
347
EE
1001
AcAecLayerStandard
1000

1000

  0
LAYER
  5
537
330
2
100
AcDbSymbolTableRecord
100
AcDbLayerTableRecord
  2
DM-Outgoing Line
 70
     0
 62
     7
  6
Continuous
370
    -3
390
F
347
EE
1001
AcAecLayerStandard
1000

1000

  0
LAYER
  5
538
330
2
100
AcDbSymbolTableRecord
100
AcDbLayerTableRecord
  2
DM-Arrester
 70
     0
 62
     7
  6
Continuous
370
    -3
390
F
347
EE
1001
AcAecLayerStandard
1000

1000

  0
LAYER
  5
539
330
2
100
AcDbSymbolTableRecord
100
AcDbLayerTableRecord
  2
DM-VCB
 70
     0
 62
     7
  6
Continuous
370
    -3
390
F
347
EE
1001
AcAecLayerStandard
1000

1000

  0
LAYER
  5
53A
330
2
100
AcDbSymbolTableRecord
100
AcDbLayerTableRecord
  2
DM-DXN-T
 70
     0
 62
     7
  6
Continuous
370
    -3
390
F
347
EE
1001
AcAecLayerStandard
1000

1000

  0
LAYER
  5
53B
330
2
100
AcDbSymbolTableRecord
100
AcDbLayerTableRecord
  2
DM-CT
 70
     0
 62
     7
  6
Continuous
370
    -3
390
F
347
EE
1001
AcAecLayerStandard
1000

1000

  0
LAYER
  5
53C
330
2
100
AcDbSymbolTableRecord
100
AcDbLayerTableRecord
  2
DM-10kV-Wire
 70
     0
 62
     1
  6
Continuous
370
    -3
390
F
347
EE
1001
AcAecLayerStandard
1000

1000

  0
LAYER
  5
53D
330
2
100
AcDbSymbolTableRecord
100
AcDbLayerTableRecord
  2
DM-HPT-180
 70
     0
 62
     7
  6
Continuous
370
    -3
390
F
347
EE
1001
AcAecLayerStandard
1000

1000

  0
LAYER
  5
53E
330
2
100
AcDbSymbolTableRecord
100
AcDbLayerTableRecord
  2
DM-Handcart-180
 70
     0
 62
     7
  6
Continuous
370
    -3
390
F
347
EE
1001
AcAecLayerStandard
1000

1000

  0
LAYER
  5
53F
330
2
100
AcDbSymbolTableRecord
100
AcDbLayerTableRecord
  2
DM-Outgoing Line-180
 70
     0
 62
     7
  6
Continuous
370
    -3
390
F
347
EE
1001
AcAecLayerStandard
1000

1000

  0
LAYER
  5
540
330
2
100
AcDbSymbolTableRecord
100
AcDbLayerTableRecord
  2
DM-Wireframe
 70
     0
 62
     7
  6
Continuous
370
    -3
390
F
347
EE
1001
AcAecLayerStandard
1000

1000

  0
LAYER
  5
541
330
2
100
AcDbSymbolTableRecord
100
AcDbLayerTableRecord
  2
DM-Text
 70
     0
 62
     7
  6
Continuous
370
    -3
390
F
347
EE
1001
AcAecLayerStandard
1000

1000

  0
LAYER
  5
542
330
2
100
AcDbSymbolTableRecord
100
AcDbLayerTableRecord
  2
DM-HPT
 70
     0
 62
     7
  6
Continuous
370
    -3
390
F
347
EE
1001
AcAecLayerStandard
1000

1000

  0
LAYER
  5
543
330
2
100
AcDbSymbolTableRecord
100
AcDbLayerTableRecord
  2
DM-Handcart
 70
     0
 62
     7
  6
Continuous
370
    -3
390
F
347
EE
1001
AcAecLayerStandard
1000

1000

  0
LAYER
  5
1B7C
330
2
100
AcDbSymbolTableRecord
100
AcDbLayerTableRecord
  2
标注图层（高压）
 70
     0
 62
   220
  6
Continuous
370
    -3
390
F
347
EE
1001
AcAecLayerStandard
1000

1000

1001
AcCmTransparency
1071
        0
  0
LAYER
  5
1C25
330
2
100
AcDbSymbolTableRecord
100
AcDbLayerTableRecord
  2
DM-0.4kV-Wire
 70
     0
 62
     3
  6
Continuous
370
    -3
390
F
347
EE
1001
AcAecLayerStandard
1000

1000

  0
LAYER
  5
1C26
330
2
100
AcDbSymbolTableRecord
100
AcDbLayerTableRecord
  2
DM-DblClmnTrans
 70
     0
 62
     7
  6
Continuous
370
    -3
390
F
347
EE
1001
AcAecLayerStandard
1000

1000

  0
LAYER
  5
214B
330
2
100
AcDbSymbolTableRecord
100
AcDbLayerTableRecord
  2
标注图层（低压）
 70
     0
 62
   100
  6
Continuous
370
    -3
390
F
347
EE
1001
AcAecLayerStandard
1000

1000

1001
AcCmTransparency
1071
        0
  0
LAYER
  5
27E9
330
2
100
AcDbSymbolTableRecord
100
AcDbLayerTableRecord
  2
DM-GND-270
 70
     0
 62
     7
  6
Continuous
370
    -3
390
F
347
EE
1001
AcAecLayerStandard
1000

1000

  0
LAYER
  5
27EA
330
2
100
AcDbSymbolTableRecord
100
AcDbLayerTableRecord
  2
DM-Arrester-270
 70
     0
 62
     7
  6
Continuous
370
    -3
390
F
347
EE
1001
AcAecLayerStandard
1000

1000

  0
LAYER
  5
27EB
330
2
100
AcDbSymbolTableRecord
100
AcDbLayerTableRecord
  2
DM-DXN-T-270
 70
     0
 62
     7
  6
Continuous
370
    -3
390
F
347
EE
1001
AcAecLayerStandard
1000

1000

1001
AcCmTransparency
1071
        0
  0
LAYER
  5
27EC
330
2
100
AcDbSymbolTableRecord
100
AcDbLayerTableRecord
  2
DM-Earthing Switch-90
 70
     0
 62
     7
  6
Continuous
370
    -3
390
F
347
EE
1001
AcAecLayerStandard
1000

1000

1001
AcCmTransparency
1071
        0
  0
LAYER
  5
27ED
330
2
100
AcDbSymbolTableRecord
100
AcDbLayerTableRecord
  2
DM-DXN-T-90
 70
     0
 62
     7
  6
Continuous
370
    -3
390
F
347
EE
1001
AcAecLayerStandard
1000

1000

1001
AcCmTransparency
1071
        0
  0
LAYER
  5
3C53
330
2
100
AcDbSymbolTableRecord
100
AcDbLayerTableRecord
  2
DM-10kV-Cable
 70
     0
 62
     1
  6
Continuous
370
    30
390
F
347
EE
1001
AcAecLayerStandard
1000

1000

  0
LAYER
  5
3C54
330
2
100
AcDbSymbolTableRecord
100
AcDbLayerTableRecord
  2
DM-Knife Switch
 70
     0
 62
     7
  6
Continuous
370
    -3
390
F
347
EE
1001
AcAecLayerStandard
1000

1000

  0
LAYER
  5
3C55
330
2
100
AcDbSymbolTableRecord
100
AcDbLayerTableRecord
  2
DM-HV FUSE
 70
     0
 62
     7
  6
Continuous
370
    -3
390
F
347
EE
1001
AcAecLayerStandard
1000

1000

  0
LAYER
  5
3C56
330
2
100
AcDbSymbolTableRecord
100
AcDbLayerTableRecord
  2
DM-Ctrl-Wire
 70
     0
 62
     5
  6
Continuous
370
    -3
390
F
347
EE
1001
AcAecLayerStandard
1000

1000

  0
LAYER
  5
3C57
330
2
100
AcDbSymbolTableRecord
100
AcDbLayerTableRecord
  2
DM-GND-180
 70
     0
 62
     7
  6
Continuous
370
    -3
390
F
347
EE
1001
AcAecLayerStandard
1000

1000

1001
AcCmTransparency
1071
        0
  0
LAYER
  5
3C58
330
2
100
AcDbSymbolTableRecord
100
AcDbLayerTableRecord
  2
DM-DXN-T-180
 70
     0
 62
     7
  6
Continuous
370
    -3
390
F
347
EE
1001
AcAecLayerStandard
1000

1000

1001
AcCmTransparency
1071
        0
  0
LAYER
  5
4075
330
2
100
AcDbSymbolTableRecord
100
AcDbLayerTableRecord
  2
DM-Arrester-180
 70
     0
 62
     7
  6
Continuous
370
    -3
390
F
347
EE
1001
AcAecLayerStandard
1000

1000

1001
AcCmTransparency
1071
        0
  0
LAYER
  5
4CC9
330
2
100
AcDbSymbolTableRecord
100
AcDbLayerTableRecord
  2
DM-GND-90
 70
     0
 62
     7
  6
Continuous
370
    -3
390
F
347
EE
1001
AcAecLayerStandard
1000

1000

1001
AcCmTransparency
1071
        0
  0
LAYER
  5
4D26
330
2
100
AcDbSymbolTableRecord
100
AcDbLayerTableRecord
  2
DM-0.4kV-Cable
 70
     0
 62
     3
  6
Continuous
370
    30
390
F
347
EE
1001
AcAecLayerStandard
1000

1000

1001
AcCmTransparency
1071
        0
  0
LAYER
  5
4E21
330
2
100
AcDbSymbolTableRecord
100
AcDbLayerTableRecord
  2
Defpoints
 70
     0
 62
     7
  6
Continuous
290
     0
370
    -3
390
F
347
EE
  0
ENDTAB
  0
TABLE
  2
STYLE
  5
3
330
0
100
AcDbSymbolTable
 70
     2
  0
STYLE
  5
11
330
3
100
AcDbSymbolTableRecord
100
AcDbTextStyleTableRecord
  2
Standard
 70
     0
 40
0.0
 41
1.0
 50
0.0
 71
     0
 42
20.0
  3
arial.ttf
  4

1001
ACAD
1000
Arial
1071
       34
  0
STYLE
  5
132
330
3
100
AcDbSymbolTableRecord
100
AcDbTextStyleTableRecord
  2
Annotative
 70
     0
 40
0.0
 41
1.0
 50
0.0
 71
     0
 42
2.5
  3
arial.ttf
  4

1001
AcadAnnotative
1000
AnnotativeData
1002
{
1070
     1
1070
     1
1002
}
1001
ACAD
1000
Arial
1071
       34
  0
ENDTAB
  0
TABLE
  2
VIEW
  5
6
330
0
100
AcDbSymbolTable
 70
     0
  0
ENDTAB
  0
TABLE
  2
UCS
  5
7
330
0
100
AcDbSymbolTable
 70
     0
  0
ENDTAB
  0
TABLE
  2
APPID
  5
9
330
0
100
AcDbSymbolTable
 70
    16
  0
APPID
  5
12
330
9
100
AcDbSymbolTableRecord
100
AcDbRegAppTableRecord
  2
ACAD
 70
     0
  0
APPID
  5
9E
330
9
100
AcDbSymbolTableRecord
100
AcDbRegAppTableRecord
  2
ACAD_PSEXT
 70
     0
  0
APPID
  5
133
330
9
100
AcDbSymbolTableRecord
100
AcDbRegAppTableRecord
  2
AcadAnnoPO
 70
     0
  0
APPID
  5
134
330
9
100
AcDbSymbolTableRecord
100
AcDbRegAppTableRecord
  2
AcadAnnotative
 70
     0
  0
APPID
  5
135
330
9
100
AcDbSymbolTableRecord
100
AcDbRegAppTableRecord
  2
ACAD_DSTYLE_DIMJAG
 70
     0
  0
APPID
  5
136
330
9
100
AcDbSymbolTableRecord
100
AcDbRegAppTableRecord
  2
ACAD_DSTYLE_DIMTALN
 70
     0
  0
APPID
  5
165
330
9
100
AcDbSymbolTableRecord
100
AcDbRegAppTableRecord
  2
ACAD_MLEADERVER
 70
     0
  0
APPID
  5
217
330
9
100
AcDbSymbolTableRecord
100
AcDbRegAppTableRecord
  2
ACAD_NAV_VCDISPLAY
 70
     0
  0
APPID
  5
544
330
9
100
AcDbSymbolTableRecord
100
AcDbRegAppTableRecord
  2
AcDbDynamicBlockGUID
 70
     0
  0
APPID
  5
545
330
9
100
AcDbSymbolTableRecord
100
AcDbRegAppTableRecord
  2
AcDbDynamicBlockTrueName
 70
     0
  0
APPID
  5
546
330
9
100
AcDbSymbolTableRecord
100
AcDbRegAppTableRecord
  2
AcDbBlockRepETag
 70
     0
  0
APPID
  5
547
330
9
100
AcDbSymbolTableRecord
100
AcDbRegAppTableRecord
  2
AcDbBlockRepBTag
 70
     0
  0
APPID
  5
548
330
9
100
AcDbSymbolTableRecord
100
AcDbRegAppTableRecord
  2
AcAecLayerStandard
 70
     0
  0
APPID
  5
1B72
330
9
100
AcDbSymbolTableRecord
100
AcDbRegAppTableRecord
  2
ACAD_EXEMPT_FROM_CAD_STANDARDS
 70
     0
  0
APPID
  5
1B7D
330
9
100
AcDbSymbolTableRecord
100
AcDbRegAppTableRecord
  2
AcCmTransparency
 70
     0
  0
APPID
  5
4AB7
330
9
100
AcDbSymbolTableRecord
100
AcDbRegAppTableRecord
  2
ACAUTHENVIRON
 70
     0
  0
ENDTAB
  0
TABLE
  2
DIMSTYLE
  5
A
330
0
100
AcDbSymbolTable
 70
     3
100
AcDbDimStyleTable
 71
     2
340
27
340
137
  0
DIMSTYLE
105
1B0
330
A
100
AcDbSymbolTableRecord
100
AcDbDimStyleTableRecord
  2
Standard
 70
     0
340
11
  0
DIMSTYLE
105
137
330
A
100
AcDbSymbolTableRecord
100
AcDbDimStyleTableRecord
  2
Annotative
 70
     0
 40
0.0
 41
2.5
 42
0.625
 43
3.75
 44
1.25
 73
     0
 74
     0
 77
     1
 78
     8
140
2.5
141
2.5
143
0.03937007874016
147
0.625
171
     3
172
     1
271
     2
272
     2
274
     3
278
    44
283
     0
284
     8
340
11
1001
AcadAnnotative
1000
AnnotativeData
1002
{
1070
     1
1070
     1
1002
}
1001
ACAD_DSTYLE_DIMJAG
1070
   388
1040
1.5
1001
ACAD_DSTYLE_DIMTALN
1070
   392
1070
     0
  0
DIMSTYLE
105
27
330
A
100
AcDbSymbolTableRecord
100
AcDbDimStyleTableRecord
  2
ISO-25
 70
     0
 41
2.5
 42
0.625
 43
3.75
 44
1.25
 73
     0
 74
     0
 77
     1
 78
     8
140
2.5
141
2.5
143
0.03937007874016
147
0.625
171
     3
172
     1
271
     2
272
     2
274
     3
278
    44
283
     0
284
     8
340
11
  0
ENDTAB
  0
TABLE
  2
BLOCK_RECORD
  5
1
330
0
100
AcDbSymbolTable
 70
    43
  0
BLOCK_RECORD
  5
1F
102
{ACAD_XDICTIONARY
360
1CE
102
}
330
1
100
AcDbSymbolTableRecord
100
AcDbBlockTableRecord
  2
*Model_Space
340
22
 70
     0
280
     1
281
     0
  0
BLOCK_RECORD
  5
D2
330
1
100
AcDbSymbolTableRecord
100
AcDbBlockTableRecord
  2
*Paper_Space
340
D3
 70
     0
280
     1
281
     0
  0
BLOCK_RECORD
  5
D6
330
1
100
AcDbSymbolTableRecord
100
AcDbBlockTableRecord
  2
*Paper_Space0
340
D7
 70
     0
280
     1
281
     0
  0
BLOCK_RECORD
  5
25F
102
{ACAD_XDICTIONARY
360
260
102
}
330
1
100
AcDbSymbolTableRecord
100
AcDbBlockTableRecord
  2
DM-ZCT
340
0
 70
     4
280
     1
281
     0
1001
AcDbBlockRepETag
1070
     1
1071
        7
1001
AcDbDynamicBlockTrueName
1000
DM-ZCT
1001
AcDbDynamicBlockGUID
1000
{64C277F8-9114-419F-BF65-BFA675F0D00B}
  0
BLOCK_RECORD
  5
26D
102
{ACAD_XDICTIONARY
360
4AB4
102
}
330
1
100
AcDbSymbolTableRecord
100
AcDbBlockTableRecord
  2
DM-GND
340
0
310
2800000020000000200000000100080000000000000400000000000000000000000000000000000000000000000080000080000000808000800000008000800080800000C0C0C000C0DCC000F0CAA6000020400000206000002080000020A0000020C0000020E00000400000004020000040400000406000004080000040A0
310
000040C0000040E00000600000006020000060400000606000006080000060A0000060C0000060E00000800000008020000080400000806000008080000080A0000080C0000080E00000A0000000A0200000A0400000A0600000A0800000A0A00000A0C00000A0E00000C0000000C0200000C0400000C0600000C0800000C0
310
A00000C0C00000C0E00000E0000000E0200000E0400000E0600000E0800000E0A00000E0C00000E0E00040000000400020004000400040006000400080004000A0004000C0004000E00040200000402020004020400040206000402080004020A0004020C0004020E000404000004040200040404000404060004040800040
310
40A0004040C0004040E00040600000406020004060400040606000406080004060A0004060C0004060E00040800000408020004080400040806000408080004080A0004080C0004080E00040A0000040A0200040A0400040A0600040A0800040A0A00040A0C00040A0E00040C0000040C0200040C0400040C0600040C08000
310
40C0A00040C0C00040C0E00040E0000040E0200040E0400040E0600040E0800040E0A00040E0C00040E0E00080000000800020008000400080006000800080008000A0008000C0008000E00080200000802020008020400080206000802080008020A0008020C0008020E00080400000804020008040400080406000804080
310
008040A0008040C0008040E00080600000806020008060400080606000806080008060A0008060C0008060E00080800000808020008080400080806000808080008080A0008080C0008080E00080A0000080A0200080A0400080A0600080A0800080A0A00080A0C00080A0E00080C0000080C0200080C0400080C0600080C0
310
800080C0A00080C0C00080C0E00080E0000080E0200080E0400080E0600080E0800080E0A00080E0C00080E0E000C0000000C0002000C0004000C0006000C0008000C000A000C000C000C000E000C0200000C0202000C0204000C0206000C0208000C020A000C020C000C020E000C0400000C0402000C0404000C0406000C0
310
408000C040A000C040C000C040E000C0600000C0602000C0604000C0606000C0608000C060A000C060C000C060E000C0800000C0802000C0804000C0806000C0808000C080A000C080C000C080E000C0A00000C0A02000C0A04000C0A06000C0A08000C0A0A000C0A0C000C0A0E000C0C00000C0C02000C0C04000C0C06000
310
C0C08000C0C0A000F0FBFF00A4A0A000808080000000FF0000FF000000FFFF00FF000000FF00FF00FFFF0000FFFFFF00000000000000000000000000000000000000000000000000000000000000000000000000000000000000000000FFFFFFFFFFFF00000000000000000000000000000000000000000000000000000000
310
00000000000000000000000000000000000000000000000000000000000000000000000000000000000000000000000000000000000000000000000000000000000000000000000000000000000000000000000000000000000000000000000000000000000000000000000000000000000000000000000000000000FFFFFF
310
FFFFFFFFFFFFFF000000000000000000000000000000000000000000000000000000000000000000000000000000000000000000000000000000000000000000000000000000000000000000000000000000000000000000000000000000000000000000000000000000000000000000000000000000000000000000000000
310
00000000000000000000000000000000000000000000000000FFFFFFFFFFFFFFFFFFFFFFFFFFFFFFFFFFFFFFFF00000000000000000000000000000000000000000000FF00000000000000000000000000000000000000000000000000000000000000FF000000000000000000000000000000000000000000000000000000
310
00000000FF00000000000000000000000000000000000000000000000000000000000000FF00000000000000000000000000000000000000000000000000000000000000FF00000000000000000000000000000000000000000000000000000000000000FF0000000000000000000000000000000000000000000000000000
310
0000000000FF00000000000000000000000000000000000000000000000000000000000000FF00000000000000000000000000000000000000000000000000000000000000FF00000000000000000000000000000000000000000000000000000000000000FF00000000000000000000000000000000000000000000000000
310
000000000000FF00000000000000000000000000000000000000000000000000000000000000FF00000000000000000000000000000000000000000000000000000000000000FF00000000000000000000000000000000000000000000000000000000000000FF000000000000000000000000000000000000000000000000
310
00000000000000FF00000000000000000000000000000000000000000000000000000000000000FF00000000000000000000000000000000000000000000000000000000000000FF00000000000000000000000000000000000000000000000000000000000000FF0000000000000000000000000000000000000000000000
310
0000000000000000FF0000000000000000000000000000000000000000000000000000000000000000000000000000000000000000000000
 70
     4
280
     1
281
     0
1001
AcDbBlockRepETag
1070
     1
1071
        5
1001
AcDbDynamicBlockTrueName
1000
DM-GND
1001
AcDbDynamicBlockGUID
1000
{58F75348-A410-4A07-A4D7-2C30B140FFE5}
  0
BLOCK_RECORD
  5
279
102
{ACAD_XDICTIONARY
360
4C05
102
}
330
1
100
AcDbSymbolTableRecord
100
AcDbBlockTableRecord
  2
DM-Earthing Switch
340
0
310
2800000020000000200000000100080000000000000400000000000000000000000000000000000000000000000080000080000000808000800000008000800080800000C0C0C000C0DCC000F0CAA6000020400000206000002080000020A0000020C0000020E00000400000004020000040400000406000004080000040A0
310
000040C0000040E00000600000006020000060400000606000006080000060A0000060C0000060E00000800000008020000080400000806000008080000080A0000080C0000080E00000A0000000A0200000A0400000A0600000A0800000A0A00000A0C00000A0E00000C0000000C0200000C0400000C0600000C0800000C0
310
A00000C0C00000C0E00000E0000000E0200000E0400000E0600000E0800000E0A00000E0C00000E0E00040000000400020004000400040006000400080004000A0004000C0004000E00040200000402020004020400040206000402080004020A0004020C0004020E000404000004040200040404000404060004040800040
310
40A0004040C0004040E00040600000406020004060400040606000406080004060A0004060C0004060E00040800000408020004080400040806000408080004080A0004080C0004080E00040A0000040A0200040A0400040A0600040A0800040A0A00040A0C00040A0E00040C0000040C0200040C0400040C0600040C08000
310
40C0A00040C0C00040C0E00040E0000040E0200040E0400040E0600040E0800040E0A00040E0C00040E0E00080000000800020008000400080006000800080008000A0008000C0008000E00080200000802020008020400080206000802080008020A0008020C0008020E00080400000804020008040400080406000804080
310
008040A0008040C0008040E00080600000806020008060400080606000806080008060A0008060C0008060E00080800000808020008080400080806000808080008080A0008080C0008080E00080A0000080A0200080A0400080A0600080A0800080A0A00080A0C00080A0E00080C0000080C0200080C0400080C0600080C0
310
800080C0A00080C0C00080C0E00080E0000080E0200080E0400080E0600080E0800080E0A00080E0C00080E0E000C0000000C0002000C0004000C0006000C0008000C000A000C000C000C000E000C0200000C0202000C0204000C0206000C0208000C020A000C020C000C020E000C0400000C0402000C0404000C0406000C0
310
408000C040A000C040C000C040E000C0600000C0602000C0604000C0606000C0608000C060A000C060C000C060E000C0800000C0802000C0804000C0806000C0808000C080A000C080C000C080E000C0A00000C0A02000C0A04000C0A06000C0A08000C0A0A000C0A0C000C0A0E000C0C00000C0C02000C0C04000C0C06000
310
C0C08000C0C0A000F0FBFF00A4A0A000808080000000FF0000FF000000FFFF00FF000000FF00FF00FFFF0000FFFFFF00000000000000000000000000000000000000000000000000000000000000000000000000000000000000000000000000FFFFFF00000000000000000000000000000000000000000000000000000000
310
000000000000000000000000000000000000000000000000000000000000000000FFFFFFFF00000000000000000000000000000000000000000000000000000000000000000000000000000000000000000000000000000000000000000000FFFFFFFFFFFFFFFF000000000000000000000000000000000000000000000000
310
000000FF00000000000000000000000000000000000000000000000000000000000000FF00000000000000000000000000000000000000000000000000000000000000FF00000000000000000000000000000000000000000000000000000000000000FF000000000000000000000000000000000000000000000000000000
310
00000000FF00000000000000000000000000000000000000000000000000000000000000FF00000000000000000000000000000000000000000000000000000000000000FF000000000000000000000000000000000000000000000000000000000000FF000000000000000000000000000000000000000000000000000000
310
00000000FF000000000000000000000000000000000000000000000000000000000000FF00000000000000000000000000000000000000000000000000000000000000FF000000000000000000000000000000000000000000000000000000000000FF00000000000000000000000000000000000000000000000000000000
310
000000FF000000000000000000000000000000000000000000000000000000000000FF000000000000000000000000000000000000000000000000000000000000FF00000000000000000000000000000000000000000000000000000000000000FF0000000000000000000000000000000000000000000000000000000000
310
00FF00000000000000000000000000000000000000000000000000000000000000FF000000000000000000000000000000000000000000000000000000000000FF0000000000000000000000000000000000000000000000000000000000000000000000FFFFFFFFFFFFFFFF00000000000000000000000000000000000000
310
0000000000000000FF00000000000000000000000000000000000000000000000000000000000000FF00000000000000000000000000000000000000000000000000000000000000FF00000000000000000000000000000000000000000000000000000000000000FF00000000000000000000000000000000000000000000
310
000000000000000000FF00000000000000000000000000000000000000000000000000000000000000000000000000000000000000000000
 70
     4
280
     1
281
     0
1001
AcDbBlockRepETag
1070
     1
1071
        9
1001
AcDbDynamicBlockTrueName
1000
DM-Earthing Switch
1001
AcDbDynamicBlockGUID
1000
{1F7FEE00-4838-48FB-8B4D-8AF3DC7AFC1D}
  0
BLOCK_RECORD
  5
284
102
{ACAD_XDICTIONARY
360
285
102
}
330
1
100
AcDbSymbolTableRecord
100
AcDbBlockTableRecord
  2
DM-Outgoing Line
340
0
310
2800000020000000200000000100080000000000000400000000000000000000000000000000000000000000000080000080000000808000800000008000800080800000C0C0C000C0DCC000F0CAA6000020400000206000002080000020A0000020C0000020E00000400000004020000040400000406000004080000040A0
310
000040C0000040E00000600000006020000060400000606000006080000060A0000060C0000060E00000800000008020000080400000806000008080000080A0000080C0000080E00000A0000000A0200000A0400000A0600000A0800000A0A00000A0C00000A0E00000C0000000C0200000C0400000C0600000C0800000C0
310
A00000C0C00000C0E00000E0000000E0200000E0400000E0600000E0800000E0A00000E0C00000E0E00040000000400020004000400040006000400080004000A0004000C0004000E00040200000402020004020400040206000402080004020A0004020C0004020E000404000004040200040404000404060004040800040
310
40A0004040C0004040E00040600000406020004060400040606000406080004060A0004060C0004060E00040800000408020004080400040806000408080004080A0004080C0004080E00040A0000040A0200040A0400040A0600040A0800040A0A00040A0C00040A0E00040C0000040C0200040C0400040C0600040C08000
310
40C0A00040C0C00040C0E00040E0000040E0200040E0400040E0600040E0800040E0A00040E0C00040E0E00080000000800020008000400080006000800080008000A0008000C0008000E00080200000802020008020400080206000802080008020A0008020C0008020E00080400000804020008040400080406000804080
310
008040A0008040C0008040E00080600000806020008060400080606000806080008060A0008060C0008060E00080800000808020008080400080806000808080008080A0008080C0008080E00080A0000080A0200080A0400080A0600080A0800080A0A00080A0C00080A0E00080C0000080C0200080C0400080C0600080C0
310
800080C0A00080C0C00080C0E00080E0000080E0200080E0400080E0600080E0800080E0A00080E0C00080E0E000C0000000C0002000C0004000C0006000C0008000C000A000C000C000C000E000C0200000C0202000C0204000C0206000C0208000C020A000C020C000C020E000C0400000C0402000C0404000C0406000C0
310
408000C040A000C040C000C040E000C0600000C0602000C0604000C0606000C0608000C060A000C060C000C060E000C0800000C0802000C0804000C0806000C0808000C080A000C080C000C080E000C0A00000C0A02000C0A04000C0A06000C0A08000C0A0A000C0A0C000C0A0E000C0C00000C0C02000C0C04000C0C06000
310
C0C08000C0C0A000F0FBFF00A4A0A000808080000000FF0000FF000000FFFF00FF000000FF00FF00FFFF0000FFFFFF00000000000000000000000000000000000000000000000000000000000000000000000000000000000000000000000000FF000000000000000000000000000000000000000000000000000000000000
310
00FF00000000000000000000000000000000000000000000000000000000000000FF00000000000000000000000000000000000000000000000000000000000000FF00000000000000000000000000000000000000000000000000000000000000FF0000000000000000000000000000000000000000000000000000000000
310
0000FF00000000000000000000000000000000000000000000000000000000000000FF00000000000000000000000000000000000000000000000000000000000000FF00000000000000000000000000000000000000000000000000000000000000FF00000000000000000000000000000000000000000000000000000000
310
000000FF00000000000000000000000000000000000000000000000000000000000000FF00000000000000000000000000000000000000000000000000000000000000FF00000000000000000000000000000000000000000000000000000000000000FF000000000000000000000000000000000000000000000000000000
310
00000000FF00000000000000000000000000000000000000000000000000000000000000FF00000000000000000000000000000000000000000000000000000000000000FF00000000000000000000000000000000000000000000000000000000000000FF0000000000000000000000000000000000000000000000000000
310
0000000000FF00000000000000000000000000000000000000000000000000000000000000FF00000000000000000000000000000000000000000000000000000000000000FF00000000000000000000000000000000000000000000000000000000000000FF00000000000000000000000000000000000000000000000000
310
000000000000FF00000000000000000000000000000000000000000000000000000000000000FF00000000000000000000000000000000000000000000000000000000000000FF00000000000000000000000000000000000000000000000000000000000000FF000000000000000000000000000000000000000000000000
310
00000000000000FF0000000000000000000000000000000000000000000000000000000000FFFFFFFF0000000000000000000000000000000000000000000000000000000000FFFFFF0000000000000000000000000000000000000000000000000000000000FFFF0000000000000000000000000000000000000000000000
310
0000000000000000FF0000000000000000000000000000000000000000000000000000000000000000000000000000000000000000000000
 70
     4
280
     1
281
     0
1001
AcDbBlockRepETag
1070
     1
1071
        5
1001
AcDbDynamicBlockTrueName
1000
DM-Outgoing Line
1001
AcDbDynamicBlockGUID
1000
{0EAEADA0-97CB-4FA7-8444-00BD2AD83CE4}
  0
BLOCK_RECORD
  5
290
102
{ACAD_XDICTIONARY
360
291
102
}
330
1
100
AcDbSymbolTableRecord
100
AcDbBlockTableRecord
  2
DM-Arrester
340
0
310
2800000020000000200000000100080000000000000400000000000000000000000000000000000000000000000080000080000000808000800000008000800080800000C0C0C000C0DCC000F0CAA6000020400000206000002080000020A0000020C0000020E00000400000004020000040400000406000004080000040A0
310
000040C0000040E00000600000006020000060400000606000006080000060A0000060C0000060E00000800000008020000080400000806000008080000080A0000080C0000080E00000A0000000A0200000A0400000A0600000A0800000A0A00000A0C00000A0E00000C0000000C0200000C0400000C0600000C0800000C0
310
A00000C0C00000C0E00000E0000000E0200000E0400000E0600000E0800000E0A00000E0C00000E0E00040000000400020004000400040006000400080004000A0004000C0004000E00040200000402020004020400040206000402080004020A0004020C0004020E000404000004040200040404000404060004040800040
310
40A0004040C0004040E00040600000406020004060400040606000406080004060A0004060C0004060E00040800000408020004080400040806000408080004080A0004080C0004080E00040A0000040A0200040A0400040A0600040A0800040A0A00040A0C00040A0E00040C0000040C0200040C0400040C0600040C08000
310
40C0A00040C0C00040C0E00040E0000040E0200040E0400040E0600040E0800040E0A00040E0C00040E0E00080000000800020008000400080006000800080008000A0008000C0008000E00080200000802020008020400080206000802080008020A0008020C0008020E00080400000804020008040400080406000804080
310
008040A0008040C0008040E00080600000806020008060400080606000806080008060A0008060C0008060E00080800000808020008080400080806000808080008080A0008080C0008080E00080A0000080A0200080A0400080A0600080A0800080A0A00080A0C00080A0E00080C0000080C0200080C0400080C0600080C0
310
800080C0A00080C0C00080C0E00080E0000080E0200080E0400080E0600080E0800080E0A00080E0C00080E0E000C0000000C0002000C0004000C0006000C0008000C000A000C000C000C000E000C0200000C0202000C0204000C0206000C0208000C020A000C020C000C020E000C0400000C0402000C0404000C0406000C0
310
408000C040A000C040C000C040E000C0600000C0602000C0604000C0606000C0608000C060A000C060C000C060E000C0800000C0802000C0804000C0806000C0808000C080A000C080C000C080E000C0A00000C0A02000C0A04000C0A06000C0A08000C0A0A000C0A0C000C0A0E000C0C00000C0C02000C0C04000C0C06000
310
C0C08000C0C0A000F0FBFF00A4A0A000808080000000FF0000FF000000FFFF00FF000000FF00FF00FFFF0000FFFFFF00000000000000000000000000000000000000000000000000000000000000000000000000000000000000000000000000FF000000000000000000000000000000000000000000000000000000000000
310
00FF00000000000000000000000000000000000000000000000000000000000000FF00000000000000000000000000000000000000000000000000000000000000FF00000000000000000000000000000000000000000000000000000000000000FF0000000000000000000000000000000000000000000000000000000000
310
0000FF00000000000000000000000000000000000000000000000000000000000000FF000000000000000000000000000000000000000000000000000000FFFFFFFFFFFFFFFF000000000000000000000000000000000000000000000000FF000000000000FF000000000000000000000000000000000000000000000000FF
310
000000000000FF000000000000000000000000000000000000000000000000FF000000000000FF000000000000000000000000000000000000000000000000FF000000000000FF000000000000000000000000000000000000000000000000FF000000000000FF000000000000000000000000000000000000000000000000
310
FF000000000000FF000000000000000000000000000000000000000000000000FF000000000000FF000000000000000000000000000000000000000000000000FF000000FF0000FF000000000000000000000000000000000000000000000000FF000000FF0000FF0000000000000000000000000000000000000000000000
310
00FF0000FF00FF00FF000000000000000000000000000000000000000000000000FF0000FF00FF00FF000000000000000000000000000000000000000000000000FF00FF0000FF00FF000000000000000000000000000000000000000000000000FF00FF000000FFFF00000000000000000000000000000000000000000000
310
0000FFFFFFFFFFFFFFFF000000000000000000000000000000000000000000000000FFFFFFFFFFFFFFFF00000000000000000000000000000000000000000000000000000000FF00000000000000000000000000000000000000000000000000000000000000FF000000000000000000000000000000000000000000000000
310
00000000000000FF00000000000000000000000000000000000000000000000000000000000000FF00000000000000000000000000000000000000000000000000000000000000FF00000000000000000000000000000000000000000000000000000000000000FF0000000000000000000000000000000000000000000000
310
0000000000000000FF0000000000000000000000000000000000000000000000000000000000000000000000000000000000000000000000
 70
     4
280
     1
281
     0
1001
AcDbBlockRepETag
1070
     1
1071
       12
1001
AcDbDynamicBlockTrueName
1000
DM-Arrester
1001
AcDbDynamicBlockGUID
1000
{C0098875-D0B7-4759-AE18-474F40D5FD14}
  0
BLOCK_RECORD
  5
2A4
102
{ACAD_XDICTIONARY
360
2A5
102
}
330
1
100
AcDbSymbolTableRecord
100
AcDbBlockTableRecord
  2
DM-DXN-T
340
0
310
2800000020000000200000000100080000000000000400000000000000000000000000000000000000000000000080000080000000808000800000008000800080800000C0C0C000C0DCC000F0CAA6000020400000206000002080000020A0000020C0000020E00000400000004020000040400000406000004080000040A0
310
000040C0000040E00000600000006020000060400000606000006080000060A0000060C0000060E00000800000008020000080400000806000008080000080A0000080C0000080E00000A0000000A0200000A0400000A0600000A0800000A0A00000A0C00000A0E00000C0000000C0200000C0400000C0600000C0800000C0
310
A00000C0C00000C0E00000E0000000E0200000E0400000E0600000E0800000E0A00000E0C00000E0E00040000000400020004000400040006000400080004000A0004000C0004000E00040200000402020004020400040206000402080004020A0004020C0004020E000404000004040200040404000404060004040800040
310
40A0004040C0004040E00040600000406020004060400040606000406080004060A0004060C0004060E00040800000408020004080400040806000408080004080A0004080C0004080E00040A0000040A0200040A0400040A0600040A0800040A0A00040A0C00040A0E00040C0000040C0200040C0400040C0600040C08000
310
40C0A00040C0C00040C0E00040E0000040E0200040E0400040E0600040E0800040E0A00040E0C00040E0E00080000000800020008000400080006000800080008000A0008000C0008000E00080200000802020008020400080206000802080008020A0008020C0008020E00080400000804020008040400080406000804080
310
008040A0008040C0008040E00080600000806020008060400080606000806080008060A0008060C0008060E00080800000808020008080400080806000808080008080A0008080C0008080E00080A0000080A0200080A0400080A0600080A0800080A0A00080A0C00080A0E00080C0000080C0200080C0400080C0600080C0
310
800080C0A00080C0C00080C0E00080E0000080E0200080E0400080E0600080E0800080E0A00080E0C00080E0E000C0000000C0002000C0004000C0006000C0008000C000A000C000C000C000E000C0200000C0202000C0204000C0206000C0208000C020A000C020C000C020E000C0400000C0402000C0404000C0406000C0
310
408000C040A000C040C000C040E000C0600000C0602000C0604000C0606000C0608000C060A000C060C000C060E000C0800000C0802000C0804000C0806000C0808000C080A000C080C000C080E000C0A00000C0A02000C0A04000C0A06000C0A08000C0A0A000C0A0C000C0A0E000C0C00000C0C02000C0C04000C0C06000
310
C0C08000C0C0A000F0FBFF00A4A0A000808080000000FF0000FF000000FFFF00FF000000FF00FF00FFFF0000FFFFFF00000000000000000000000000000000000000000000000000000000000000000000000000000000000000000000000000FF000000000000000000000000000000000000000000000000000000000000
310
00FF00000000000000000000000000000000000000000000000000000000000000FF00000000000000000000000000000000000000000000000000000000000000FF00000000000000000000000000000000000000000000000000000000000000FF0000000000000000000000000000000000000000000000000000000000
310
0000FF00000000000000000000000000000000000000000000000000000000FFFFFFFFFFFF00000000000000000000000000000000000000000000000000FF000000000000FF0000000000000000000000000000000000000000000000FF00FF00000000FF00FF000000000000000000000000000000000000000000FFFF00
310
00FF000000FF00FF000000000000000000000000000000000000000000FF00000000FF00FF000000FF0000000000000000000000000000000000000000FF0000000000FF00000000FF0000000000000000000000000000000000000000FF00000000FF00FF000000FF000000000000000000000000000000000000000000FF
310
0000FF000000FF00FF00000000000000000000000000000000000000000000FF00FF00000000FF00FF0000000000000000000000000000000000000000000000FF000000000000FF00000000000000000000000000000000000000000000000000FFFFFFFFFFFF000000000000000000000000000000000000000000000000
310
0000000000FF00000000000000000000000000000000000000000000000000000000000000FF00000000000000000000000000000000000000000000000000000000000000FF000000000000000000000000000000000000000000000000000000FFFFFFFFFFFFFFFF00000000000000000000000000000000000000000000
310
000000000000000000000000000000000000000000000000000000000000000000000000000000000000000000000000000000000000000000000000000000000000FFFFFFFFFFFFFFFF00000000000000000000000000000000000000000000000000000000FF000000000000000000000000000000000000000000000000
310
00000000000000FF00000000000000000000000000000000000000000000000000000000000000FF00000000000000000000000000000000000000000000000000000000000000FF00000000000000000000000000000000000000000000000000000000000000FF0000000000000000000000000000000000000000000000
310
0000000000000000FF0000000000000000000000000000000000000000000000000000000000000000000000000000000000000000000000
 70
     4
280
     1
281
     0
1001
AcDbBlockRepETag
1070
     1
1071
       16
1001
AcDbDynamicBlockTrueName
1000
DM-DXN-T
1001
AcDbDynamicBlockGUID
1000
{6AE994E8-DF0A-40A3-927D-D7468F5BE926}
  0
BLOCK_RECORD
  5
2BB
102
{ACAD_XDICTIONARY
360
2BC
102
}
330
1
100
AcDbSymbolTableRecord
100
AcDbBlockTableRecord
  2
DM-HPT
340
0
310
2800000020000000200000000100080000000000000400000000000000000000000000000000000000000000000080000080000000808000800000008000800080800000C0C0C000C0DCC000F0CAA6000020400000206000002080000020A0000020C0000020E00000400000004020000040400000406000004080000040A0
310
000040C0000040E00000600000006020000060400000606000006080000060A0000060C0000060E00000800000008020000080400000806000008080000080A0000080C0000080E00000A0000000A0200000A0400000A0600000A0800000A0A00000A0C00000A0E00000C0000000C0200000C0400000C0600000C0800000C0
310
A00000C0C00000C0E00000E0000000E0200000E0400000E0600000E0800000E0A00000E0C00000E0E00040000000400020004000400040006000400080004000A0004000C0004000E00040200000402020004020400040206000402080004020A0004020C0004020E000404000004040200040404000404060004040800040
310
40A0004040C0004040E00040600000406020004060400040606000406080004060A0004060C0004060E00040800000408020004080400040806000408080004080A0004080C0004080E00040A0000040A0200040A0400040A0600040A0800040A0A00040A0C00040A0E00040C0000040C0200040C0400040C0600040C08000
310
40C0A00040C0C00040C0E00040E0000040E0200040E0400040E0600040E0800040E0A00040E0C00040E0E00080000000800020008000400080006000800080008000A0008000C0008000E00080200000802020008020400080206000802080008020A0008020C0008020E00080400000804020008040400080406000804080
310
008040A0008040C0008040E00080600000806020008060400080606000806080008060A0008060C0008060E00080800000808020008080400080806000808080008080A0008080C0008080E00080A0000080A0200080A0400080A0600080A0800080A0A00080A0C00080A0E00080C0000080C0200080C0400080C0600080C0
310
800080C0A00080C0C00080C0E00080E0000080E0200080E0400080E0600080E0800080E0A00080E0C00080E0E000C0000000C0002000C0004000C0006000C0008000C000A000C000C000C000E000C0200000C0202000C0204000C0206000C0208000C020A000C020C000C020E000C0400000C0402000C0404000C0406000C0
310
408000C040A000C040C000C040E000C0600000C0602000C0604000C0606000C0608000C060A000C060C000C060E000C0800000C0802000C0804000C0806000C0808000C080A000C080C000C080E000C0A00000C0A02000C0A04000C0A06000C0A08000C0A0A000C0A0C000C0A0E000C0C00000C0C02000C0C04000C0C06000
310
C0C08000C0C0A000F0FBFF00A4A0A000808080000000FF0000FF000000FFFF00FF000000FF00FF00FFFF0000FFFFFF00000000000000000000000000000000000000000000000000000000000000000000000000000000000000000000FFFF0000FF00000000000000000000000000000000000000000000000000FFFFFF00
310
FFFF00FFFF0000000000000000000000000000000000000000000000FF0000FF00FFFF0000FF000000000000000000000000000000000000000000FF000000FF0000FF000000FF0000000000000000000000000000000000000000FF000000FFFFFFFF000000FF0000000000000000000000000000000000000000FF0000FF
310
FF0000FFFF0000FF000000000000000000000000000000000000000000FFFF00FF00FFFFFFFFFF00000000000000000000000000000000000000000000FFFFFFFFFFFFFFFFFF000000000000000000000000000000000000000000000000FF000000000000FF000000000000000000000000000000000000000000000000FF
310
0000000000FFFF00000000000000000000000000000000000000000000000000FF00000000FF000000000000000000000000000000000000000000000000000000FFFFFFFF0000000000000000000000000000000000000000000000000000000000FF00000000000000000000000000000000000000000000000000000000
310
000000FF00000000000000000000000000000000000000000000000000000000000000FF000000000000000000000000000000000000000000000000000000000000FFFFFFFF00000000000000000000000000000000000000000000000000000000FFFF00FF00000000000000000000000000000000000000000000000000
310
000000FFFF00FF00000000000000000000000000000000000000000000000000000000FFFF00FF00000000000000000000000000000000000000000000000000000000FFFF00FF00000000000000000000000000000000000000000000000000000000FFFF00FF000000000000000000000000000000000000000000000000
310
00000000FFFF00FF00000000000000000000000000000000000000000000000000000000FFFFFFFF0000000000000000000000000000000000000000000000000000000000FF00000000000000000000000000000000000000000000000000000000000000FF00000000000000000000000000000000000000000000000000
310
0000000000FFFF00FF0000000000000000000000000000000000000000000000000000000000FFFF0000000000000000000000000000000000000000000000000000000000FFFF00FF0000000000000000000000000000000000000000000000000000000000FFFF0000000000000000000000000000000000000000000000
310
00000000000000FF000000000000000000000000000000000000000000000000000000000000000000000000000000000000000000000000
 70
     4
280
     1
281
     0
1001
AcDbBlockRepETag
1070
     1
1071
       15
1001
AcDbDynamicBlockTrueName
1000
DM-HPT
1001
AcDbDynamicBlockGUID
1000
{B3AE121D-F94E-4EEB-9576-E59EB4F9A094}
  0
BLOCK_RECORD
  5
2CD
102
{ACAD_XDICTIONARY
360
2CE
102
}
330
1
100
AcDbSymbolTableRecord
100
AcDbBlockTableRecord
  2
DM-VCB
340
0
 70
     4
280
     1
281
     0
1001
AcDbBlockRepETag
1070
     1
1071
       16
1001
AcDbDynamicBlockTrueName
1000
DM-VCB
1001
AcDbDynamicBlockGUID
1000
{BB2EAF07-B2FB-4316-85B0-2A97DE771E01}
  0
BLOCK_RECORD
  5
2E4
102
{ACAD_XDICTIONARY
360
2E5
102
}
330
1
100
AcDbSymbolTableRecord
100
AcDbBlockTableRecord
  2
DM-CT
340
0
 70
     4
280
     1
281
     0
1001
AcDbBlockRepETag
1070
     1
1071
        2
1001
AcDbDynamicBlockTrueName
1000
DM-CT
1001
AcDbDynamicBlockGUID
1000
{5B794A56-E031-40D3-870E-5FD5DFD541A8}
  0
BLOCK_RECORD
  5
2F0
102
{ACAD_XDICTIONARY
360
2F1
102
}
330
1
100
AcDbSymbolTableRecord
100
AcDbBlockTableRecord
  2
DM-Handcart
340
0
310
2800000020000000200000000100080000000000000400000000000000000000000000000000000000000000000080000080000000808000800000008000800080800000C0C0C000C0DCC000F0CAA6000020400000206000002080000020A0000020C0000020E00000400000004020000040400000406000004080000040A0
310
000040C0000040E00000600000006020000060400000606000006080000060A0000060C0000060E00000800000008020000080400000806000008080000080A0000080C0000080E00000A0000000A0200000A0400000A0600000A0800000A0A00000A0C00000A0E00000C0000000C0200000C0400000C0600000C0800000C0
310
A00000C0C00000C0E00000E0000000E0200000E0400000E0600000E0800000E0A00000E0C00000E0E00040000000400020004000400040006000400080004000A0004000C0004000E00040200000402020004020400040206000402080004020A0004020C0004020E000404000004040200040404000404060004040800040
310
40A0004040C0004040E00040600000406020004060400040606000406080004060A0004060C0004060E00040800000408020004080400040806000408080004080A0004080C0004080E00040A0000040A0200040A0400040A0600040A0800040A0A00040A0C00040A0E00040C0000040C0200040C0400040C0600040C08000
310
40C0A00040C0C00040C0E00040E0000040E0200040E0400040E0600040E0800040E0A00040E0C00040E0E00080000000800020008000400080006000800080008000A0008000C0008000E00080200000802020008020400080206000802080008020A0008020C0008020E00080400000804020008040400080406000804080
310
008040A0008040C0008040E00080600000806020008060400080606000806080008060A0008060C0008060E00080800000808020008080400080806000808080008080A0008080C0008080E00080A0000080A0200080A0400080A0600080A0800080A0A00080A0C00080A0E00080C0000080C0200080C0400080C0600080C0
310
800080C0A00080C0C00080C0E00080E0000080E0200080E0400080E0600080E0800080E0A00080E0C00080E0E000C0000000C0002000C0004000C0006000C0008000C000A000C000C000C000E000C0200000C0202000C0204000C0206000C0208000C020A000C020C000C020E000C0400000C0402000C0404000C0406000C0
310
408000C040A000C040C000C040E000C0600000C0602000C0604000C0606000C0608000C060A000C060C000C060E000C0800000C0802000C0804000C0806000C0808000C080A000C080C000C080E000C0A00000C0A02000C0A04000C0A06000C0A08000C0A0A000C0A0C000C0A0E000C0C00000C0C02000C0C04000C0C06000
310
C0C08000C0C0A000F0FBFF00A4A0A000808080000000FF0000FF000000FFFF00FF000000FF00FF00FFFF0000FFFFFF000000000000000000000000000000000000000000000000000000000000000000000000000000000000000000000000FF00000000000000000000000000000000000000000000000000000000000000
310
FF00000000000000000000000000000000000000000000000000000000000000FF00000000000000000000000000000000000000000000000000000000000000FF00000000000000000000000000000000000000000000000000000000000000FF000000000000000000000000000000000000000000000000000000000000
310
00FF0000000000000000000000000000000000000000FF00000000000000000000FF0000000000000000000000FF000000000000000000FF000000000000000000FF00000000000000000000FF0000000000000000000000FF0000000000000000FF000000000000000000FF00000000000000000000000000FF0000000000
310
0000FF0000000000000000FF000000000000000000000000000000FF000000000000FF00000000000000FF0000000000000000000000000000000000FF0000000000FF0000000000FFFF00000000000000000000000000000000000000FF00000000FF00000000FF00000000000000000000000000000000000000000000FF
310
000000FF000000FF000000000000000000000000000000000000000000000000FF0000FF0000FF0000000000000000000000000000000000000000000000000000FF00FF00FF00000000000000000000000000000000000000000000000000000000FFFFFF00000000000000000000000000000000000000FF000000000000
310
00000000FF0000000000000000000000FF000000000000000000FF000000000000000000FF00000000000000000000FF0000000000000000000000FF0000000000000000FF000000000000000000FF00000000000000000000000000FF00000000000000FF0000000000000000FF000000000000000000000000000000FF00
310
0000000000FF00000000000000FF0000000000000000000000000000000000FF0000000000FF000000000000FF000000000000000000000000000000000000FF0000000000FF0000000000FF0000000000000000000000000000000000000000FF00000000FF00000000FF0000000000000000000000000000000000000000
310
0000FF000000FF000000FF000000000000000000000000000000000000000000000000FF0000FF0000FF0000000000000000000000000000000000000000000000000000FF00FF00FF00000000000000000000000000000000000000000000000000000000FFFFFF0000000000000000000000000000000000000000000000
310
00000000000000FF000000000000000000000000000000000000000000000000000000000000000000000000000000000000000000000000
 70
     4
280
     1
281
     0
1001
AcDbBlockRepETag
1070
     1
1071
        5
1001
AcDbDynamicBlockTrueName
1000
DM-Handcart
1001
AcDbDynamicBlockGUID
1000
{8F07A0C1-1901-4A95-BFCD-4BBB7968E491}
  0
BLOCK_RECORD
  5
1466
102
{ACAD_XDICTIONARY
360
146E
102
}
330
1
100
AcDbSymbolTableRecord
100
AcDbBlockTableRecord
  2
*U11
340
0
102
{BLKREFS
331
5055
331
505C
102
}
 70
     0
280
     1
281
     0
1001
AcDbBlockRepBTag
1070
     1
1005
284
  0
BLOCK_RECORD
  5
14BF
102
{ACAD_XDICTIONARY
360
14CE
102
}
330
1
100
AcDbSymbolTableRecord
100
AcDbBlockTableRecord
  2
*U12
340
0
102
{BLKREFS
331
5001
102
}
 70
     0
280
     1
281
     0
1001
AcDbBlockRepBTag
1070
     1
1005
290
  0
BLOCK_RECORD
  5
1B9D
102
{ACAD_XDICTIONARY
360
1B9E
102
}
330
1
100
AcDbSymbolTableRecord
100
AcDbBlockTableRecord
  2
DM-DblClmnTrans
340
0
310
2800000020000000200000000100080000000000000400000000000000000000000000000000000000000000000080000080000000808000800000008000800080800000C0C0C000C0DCC000F0CAA6000020400000206000002080000020A0000020C0000020E00000400000004020000040400000406000004080000040A0
310
000040C0000040E00000600000006020000060400000606000006080000060A0000060C0000060E00000800000008020000080400000806000008080000080A0000080C0000080E00000A0000000A0200000A0400000A0600000A0800000A0A00000A0C00000A0E00000C0000000C0200000C0400000C0600000C0800000C0
310
A00000C0C00000C0E00000E0000000E0200000E0400000E0600000E0800000E0A00000E0C00000E0E00040000000400020004000400040006000400080004000A0004000C0004000E00040200000402020004020400040206000402080004020A0004020C0004020E000404000004040200040404000404060004040800040
310
40A0004040C0004040E00040600000406020004060400040606000406080004060A0004060C0004060E00040800000408020004080400040806000408080004080A0004080C0004080E00040A0000040A0200040A0400040A0600040A0800040A0A00040A0C00040A0E00040C0000040C0200040C0400040C0600040C08000
310
40C0A00040C0C00040C0E00040E0000040E0200040E0400040E0600040E0800040E0A00040E0C00040E0E00080000000800020008000400080006000800080008000A0008000C0008000E00080200000802020008020400080206000802080008020A0008020C0008020E00080400000804020008040400080406000804080
310
008040A0008040C0008040E00080600000806020008060400080606000806080008060A0008060C0008060E00080800000808020008080400080806000808080008080A0008080C0008080E00080A0000080A0200080A0400080A0600080A0800080A0A00080A0C00080A0E00080C0000080C0200080C0400080C0600080C0
310
800080C0A00080C0C00080C0E00080E0000080E0200080E0400080E0600080E0800080E0A00080E0C00080E0E000C0000000C0002000C0004000C0006000C0008000C000A000C000C000C000E000C0200000C0202000C0204000C0206000C0208000C020A000C020C000C020E000C0400000C0402000C0404000C0406000C0
310
408000C040A000C040C000C040E000C0600000C0602000C0604000C0606000C0608000C060A000C060C000C060E000C0800000C0802000C0804000C0806000C0808000C080A000C080C000C080E000C0A00000C0A02000C0A04000C0A06000C0A08000C0A0A000C0A0C000C0A0E000C0C00000C0C02000C0C04000C0C06000
310
C0C08000C0C0A000F0FBFF00A4A0A000808080000000FF0000FF000000FFFF00FF000000FF00FF00FFFF0000FFFFFF0000000000000000000000000000000000000000000000000000000000000000000000000000000000000000000000FFFFFF00000000000000000000000000000000000000000000000000000000FF00
310
0000FFFFFF00000000000000000000000000000000000000000000FFFFFF00000000000000FF000000000000000000000000000000000000000000FF00000000000000000000FFFF000000000000000000000000000000000000FF00000000000000000000000000FF00000000000000000000000000000000FF0000000000
310
000000000000000000FF000000000000000000000000000000FF000000000000000000000000000000FF000000000000000000000000000000FF00000000000000000000000000000000FF0000000000000000000000000000FF00000000000000000000000000000000FF0000000000000000000000000000FF0000000000
310
0000000000000000000000FF0000000000000000000000000000FF00000000000000000000000000000000FF0000000000000000000000000000FF00000000000000000000000000000000FF000000000000000000000000000000FF00000000FFFFFFFFFFFFFF000000FF00000000000000000000000000000000FF0000FF
310
FF00000000000000FF0000FF0000000000000000000000000000000000FFFF00000000000000000000FFFFFF0000000000000000000000000000000000FFFF0000000000000000000000FFFF00000000000000000000000000000000FF0000FF0000000000000000FFFF00FF00000000000000000000000000000000FF0000
310
00FFFFFFFFFFFFFFFF000000FF000000000000000000000000000000FF00000000000000000000000000000000FF0000000000000000000000000000FF00000000000000000000000000000000FF0000000000000000000000000000FF00000000000000000000000000000000FF0000000000000000000000000000FF0000
310
0000000000000000000000000000FF0000000000000000000000000000FF00000000000000000000000000000000FF0000000000000000000000000000FF000000000000000000000000000000FF00000000000000000000000000000000FF0000000000000000000000000000FF0000000000000000000000000000000000
310
FF00000000000000000000000000FF000000000000000000000000000000000000FF0000000000000000000000FF00000000000000000000000000000000000000FFFF0000000000000000FFFF00000000000000000000000000000000000000000000FFFF000000FFFFFF0000000000000000000000000000000000000000
310
000000000000FFFFFF0000000000000000000000000000000000000000000000000000000000000000000000000000000000000000000000
102
{BLKREFS
331
5054
102
}
 70
     4
280
     1
281
     0
1001
AcDbBlockRepETag
1070
     1
1071
       11
1001
AcDbDynamicBlockTrueName
1000
DM-DblClmnTrans
1001
AcDbDynamicBlockGUID
1000
{D09D9B0D-50B7-4048-93F2-30EDBDE2B205}
  0
BLOCK_RECORD
  5
1C8D
102
{ACAD_XDICTIONARY
360
1C95
102
}
330
1
100
AcDbSymbolTableRecord
100
AcDbBlockTableRecord
  2
*U14
340
0
102
{BLKREFS
331
1D4E
102
}
 70
     0
280
     1
281
     0
1001
AcDbBlockRepBTag
1070
     1
1005
284
  0
BLOCK_RECORD
  5
1CAE
102
{ACAD_XDICTIONARY
360
1CC1
102
}
330
1
100
AcDbSymbolTableRecord
100
AcDbBlockTableRecord
  2
*U15
340
0
102
{BLKREFS
331
1D1A
102
}
 70
     0
280
     1
281
     0
1001
AcDbBlockRepBTag
1070
     1
1005
2CD
  0
BLOCK_RECORD
  5
1CC4
102
{ACAD_XDICTIONARY
360
1CCC
102
}
330
1
100
AcDbSymbolTableRecord
100
AcDbBlockTableRecord
  2
*U16
340
0
102
{BLKREFS
331
1D22
102
}
 70
     0
280
     1
281
     0
1001
AcDbBlockRepBTag
1070
     1
1005
2E4
  0
BLOCK_RECORD
  5
1CCF
102
{ACAD_XDICTIONARY
360
1CD7
102
}
330
1
100
AcDbSymbolTableRecord
100
AcDbBlockTableRecord
  2
*U17
340
0
102
{BLKREFS
331
1D29
102
}
 70
     0
280
     1
281
     0
1001
AcDbBlockRepBTag
1070
     1
1005
2E4
  0
BLOCK_RECORD
  5
1CDA
102
{ACAD_XDICTIONARY
360
1CE2
102
}
330
1
100
AcDbSymbolTableRecord
100
AcDbBlockTableRecord
  2
*U18
340
0
102
{BLKREFS
331
1D30
102
}
 70
     0
280
     1
281
     0
1001
AcDbBlockRepBTag
1070
     1
1005
2E4
  0
BLOCK_RECORD
  5
1CE5
102
{ACAD_XDICTIONARY
360
1CED
102
}
330
1
100
AcDbSymbolTableRecord
100
AcDbBlockTableRecord
  2
*U19
340
0
102
{BLKREFS
331
1D37
102
}
 70
     0
280
     1
281
     0
1001
AcDbBlockRepBTag
1070
     1
1005
2E4
  0
BLOCK_RECORD
  5
1CF0
102
{ACAD_XDICTIONARY
360
1CFF
102
}
330
1
100
AcDbSymbolTableRecord
100
AcDbBlockTableRecord
  2
*U20
340
0
102
{BLKREFS
331
1D3F
102
}
 70
     0
280
     1
281
     0
1001
AcDbBlockRepBTag
1070
     1
1005
290
  0
BLOCK_RECORD
  5
20FA
102
{ACAD_XDICTIONARY
360
2102
102
}
330
1
100
AcDbSymbolTableRecord
100
AcDbBlockTableRecord
  2
*U21
340
0
102
{BLKREFS
331
211E
102
}
 70
     0
280
     1
281
     0
1001
AcDbBlockRepBTag
1070
     1
1005
284
  0
BLOCK_RECORD
  5
2105
102
{ACAD_XDICTIONARY
360
210D
102
}
330
1
100
AcDbSymbolTableRecord
100
AcDbBlockTableRecord
  2
*U22
340
0
102
{BLKREFS
331
2127
102
}
 70
     0
280
     1
281
     0
1001
AcDbBlockRepBTag
1070
     1
1005
284
  0
BLOCK_RECORD
  5
2110
102
{ACAD_XDICTIONARY
360
2118
102
}
330
1
100
AcDbSymbolTableRecord
100
AcDbBlockTableRecord
  2
*U23
340
0
102
{BLKREFS
331
212F
102
}
 70
     0
280
     1
281
     0
1001
AcDbBlockRepBTag
1070
     1
1005
284
  0
BLOCK_RECORD
  5
3B26
102
{ACAD_XDICTIONARY
360
3B27
102
}
330
1
100
AcDbSymbolTableRecord
100
AcDbBlockTableRecord
  2
DM-Knife Switch
340
0
102
{BLKREFS
331
51DD
331
52E8
102
}
 70
     4
280
     1
281
     0
1001
AcDbDynamicBlockGUID
1000
{1208EE2A-AA7C-4F17-ABFF-748ED99B0445}
  0
BLOCK_RECORD
  5
3B2F
102
{ACAD_XDICTIONARY
360
3B30
102
}
330
1
100
AcDbSymbolTableRecord
100
AcDbBlockTableRecord
  2
DM-HV FUSE
340
0
310
2800000020000000200000000100080000000000000400000000000000000000000000000000000000000000000080000080000000808000800000008000800080800000C0C0C000C0DCC000F0CAA6000020400000206000002080000020A0000020C0000020E00000400000004020000040400000406000004080000040A0
310
000040C0000040E00000600000006020000060400000606000006080000060A0000060C0000060E00000800000008020000080400000806000008080000080A0000080C0000080E00000A0000000A0200000A0400000A0600000A0800000A0A00000A0C00000A0E00000C0000000C0200000C0400000C0600000C0800000C0
310
A00000C0C00000C0E00000E0000000E0200000E0400000E0600000E0800000E0A00000E0C00000E0E00040000000400020004000400040006000400080004000A0004000C0004000E00040200000402020004020400040206000402080004020A0004020C0004020E000404000004040200040404000404060004040800040
310
40A0004040C0004040E00040600000406020004060400040606000406080004060A0004060C0004060E00040800000408020004080400040806000408080004080A0004080C0004080E00040A0000040A0200040A0400040A0600040A0800040A0A00040A0C00040A0E00040C0000040C0200040C0400040C0600040C08000
310
40C0A00040C0C00040C0E00040E0000040E0200040E0400040E0600040E0800040E0A00040E0C00040E0E00080000000800020008000400080006000800080008000A0008000C0008000E00080200000802020008020400080206000802080008020A0008020C0008020E00080400000804020008040400080406000804080
310
008040A0008040C0008040E00080600000806020008060400080606000806080008060A0008060C0008060E00080800000808020008080400080806000808080008080A0008080C0008080E00080A0000080A0200080A0400080A0600080A0800080A0A00080A0C00080A0E00080C0000080C0200080C0400080C0600080C0
310
800080C0A00080C0C00080C0E00080E0000080E0200080E0400080E0600080E0800080E0A00080E0C00080E0E000C0000000C0002000C0004000C0006000C0008000C000A000C000C000C000E000C0200000C0202000C0204000C0206000C0208000C020A000C020C000C020E000C0400000C0402000C0404000C0406000C0
310
408000C040A000C040C000C040E000C0600000C0602000C0604000C0606000C0608000C060A000C060C000C060E000C0800000C0802000C0804000C0806000C0808000C080A000C080C000C080E000C0A00000C0A02000C0A04000C0A06000C0A08000C0A0A000C0A0C000C0A0E000C0C00000C0C02000C0C04000C0C06000
310
C0C08000C0C0A000F0FBFF00A4A0A000808080000000FF0000FF000000FFFF00FF000000FF00FF00FFFF0000FFFFFF000000000000000000000000000000000000000000000000000000000000000000000000000000000000000000000000FF00000000000000000000000000000000000000000000000000000000000000
310
FF00000000000000000000000000000000000000000000000000000000000000FF00000000000000000000000000000000000000000000000000000000000000FF00000000000000000000000000000000000000000000000000000000000000FF000000000000000000000000000000000000000000000000000000FFFFFF
310
FFFFFFFFFFFFFF00000000000000000000000000000000000000000000FF000000FF00000000FF00000000000000000000000000000000000000000000FF000000FF00000000FF00000000000000000000000000000000000000000000FF000000FF00000000FF00000000000000000000000000000000000000000000FF00
310
0000FF00000000FF00000000000000000000000000000000000000000000FF000000FF00000000FF00000000000000000000000000000000000000000000FF000000FF00000000FF00000000000000000000000000000000000000000000FF000000FF00000000FF00000000000000000000000000000000000000000000FF
310
000000FF00000000FF00000000000000000000000000000000000000000000FF000000FF00000000FF00000000000000000000000000000000000000000000FF000000FF00000000FF00000000000000000000000000000000000000000000FF000000FF00000000FF00000000000000000000000000000000000000000000
310
FF000000FF00000000FF00000000000000000000000000000000000000000000FF000000FF00000000FF00000000000000000000000000000000000000000000FF000000FF00000000FF00000000000000000000000000000000000000000000FF000000FF00000000FF000000000000000000000000000000000000000000
310
00FF000000FF00000000FF00000000000000000000000000000000000000000000FF000000FF00000000FF00000000000000000000000000000000000000000000FF000000FF00000000FF00000000000000000000000000000000000000000000FFFFFFFFFFFFFFFFFFFF0000000000000000000000000000000000000000
310
000000000000FF00000000000000000000000000000000000000000000000000000000000000FF00000000000000000000000000000000000000000000000000000000000000FF00000000000000000000000000000000000000000000000000000000000000FF000000000000000000000000000000000000000000000000
310
00000000000000FF000000000000000000000000000000000000000000000000000000000000000000000000000000000000000000000000
 70
     4
280
     1
281
     0
1001
AcDbBlockRepETag
1070
     1
1071
        4
1001
AcDbDynamicBlockTrueName
1000
DM-HV FUSE
1001
AcDbDynamicBlockGUID
1000
{D30C5088-7A67-4F31-A176-0E1AF928D0FA}
  0
BLOCK_RECORD
  5
4B22
102
{ACAD_XDICTIONARY
360
4B2A
102
}
330
1
100
AcDbSymbolTableRecord
100
AcDbBlockTableRecord
  2
*U26
340
0
102
{BLKREFS
331
5008
102
}
 70
     0
280
     1
281
     0
1001
AcDbBlockRepBTag
1070
     1
1005
26D
  0
BLOCK_RECORD
  5
4B38
102
{ACAD_XDICTIONARY
360
4B40
102
}
330
1
100
AcDbSymbolTableRecord
100
AcDbBlockTableRecord
  2
*U27
340
0
102
{BLKREFS
331
1D46
102
}
 70
     0
280
     1
281
     0
1001
AcDbBlockRepBTag
1070
     1
1005
26D
  0
BLOCK_RECORD
  5
518C
102
{ACAD_XDICTIONARY
360
5194
102
}
330
1
100
AcDbSymbolTableRecord
100
AcDbBlockTableRecord
  2
*U28
340
0
102
{BLKREFS
331
51C6
102
}
 70
     0
280
     1
281
     0
1001
AcDbBlockRepBTag
1070
     1
1005
284
  0
BLOCK_RECORD
  5
5197
102
{ACAD_XDICTIONARY
360
51AA
102
}
330
1
100
AcDbSymbolTableRecord
100
AcDbBlockTableRecord
  2
*U29
340
0
102
{BLKREFS
331
51CE
102
}
 70
     0
280
     1
281
     0
1001
AcDbBlockRepBTag
1070
     1
1005
2A4
  0
BLOCK_RECORD
  5
51AD
102
{ACAD_XDICTIONARY
360
51B5
102
}
330
1
100
AcDbSymbolTableRecord
100
AcDbBlockTableRecord
  2
*U30
340
0
102
{BLKREFS
331
51D5
102
}
 70
     0
280
     1
281
     0
1001
AcDbBlockRepBTag
1070
     1
1005
26D
  0
BLOCK_RECORD
  5
51B8
102
{ACAD_XDICTIONARY
360
51C0
102
}
330
1
100
AcDbSymbolTableRecord
100
AcDbBlockTableRecord
  2
*U31
340
0
102
{BLKREFS
331
51DE
102
}
 70
     0
280
     1
281
     0
1001
AcDbBlockRepBTag
1070
     1
1005
26D
  0
BLOCK_RECORD
  5
5269
102
{ACAD_XDICTIONARY
360
5271
102
}
330
1
100
AcDbSymbolTableRecord
100
AcDbBlockTableRecord
  2
*U32
340
0
102
{BLKREFS
331
52C3
102
}
 70
     0
280
     1
281
     0
1001
AcDbBlockRepBTag
1070
     1
1005
284
  0
BLOCK_RECORD
  5
5274
102
{ACAD_XDICTIONARY
360
5280
102
}
330
1
100
AcDbSymbolTableRecord
100
AcDbBlockTableRecord
  2
*U33
340
0
102
{BLKREFS
331
52CC
102
}
 70
     0
280
     1
281
     0
1001
AcDbBlockRepBTag
1070
     1
1005
279
  0
BLOCK_RECORD
  5
5283
102
{ACAD_XDICTIONARY
360
5296
102
}
330
1
100
AcDbSymbolTableRecord
100
AcDbBlockTableRecord
  2
*U34
340
0
102
{BLKREFS
331
52D9
102
}
 70
     0
280
     1
281
     0
1001
AcDbBlockRepBTag
1070
     1
1005
2A4
  0
BLOCK_RECORD
  5
5299
102
{ACAD_XDICTIONARY
360
52A1
102
}
330
1
100
AcDbSymbolTableRecord
100
AcDbBlockTableRecord
  2
*U35
340
0
102
{BLKREFS
331
52E0
102
}
 70
     0
280
     1
281
     0
1001
AcDbBlockRepBTag
1070
     1
1005
26D
  0
BLOCK_RECORD
  5
52A4
102
{ACAD_XDICTIONARY
360
52AC
102
}
330
1
100
AcDbSymbolTableRecord
100
AcDbBlockTableRecord
  2
*U36
340
0
102
{BLKREFS
331
52E9
102
}
 70
     0
280
     1
281
     0
1001
AcDbBlockRepBTag
1070
     1
1005
26D
  0
BLOCK_RECORD
  5
52AF
102
{ACAD_XDICTIONARY
360
52B6
102
}
330
1
100
AcDbSymbolTableRecord
100
AcDbBlockTableRecord
  2
*U37
340
0
102
{BLKREFS
331
52BA
102
}
 70
     0
280
     1
281
     0
1001
AcDbBlockRepBTag
1070
     1
1005
3B2F
  0
BLOCK_RECORD
  5
53F5
102
{ACAD_XDICTIONARY
360
53FD
102
}
330
1
100
AcDbSymbolTableRecord
100
AcDbBlockTableRecord
  2
*U38
340
0
102
{BLKREFS
331
54CC
102
}
 70
     0
280
     1
281
     0
1001
AcDbBlockRepBTag
1070
     1
1005
284
  0
BLOCK_RECORD
  5
5400
102
{ACAD_XDICTIONARY
360
5408
102
}
330
1
100
AcDbSymbolTableRecord
100
AcDbBlockTableRecord
  2
*U39
340
0
102
{BLKREFS
331
54D4
102
}
 70
     0
280
     1
281
     0
1001
AcDbBlockRepBTag
1070
     1
1005
2E4
  0
BLOCK_RECORD
  5
540B
102
{ACAD_XDICTIONARY
360
5413
102
}
330
1
100
AcDbSymbolTableRecord
100
AcDbBlockTableRecord
  2
*U40
340
0
102
{BLKREFS
331
54DB
102
}
 70
     0
280
     1
281
     0
1001
AcDbBlockRepBTag
1070
     1
1005
2E4
  0
BLOCK_RECORD
  5
5466
102
{ACAD_XDICTIONARY
360
546E
102
}
330
1
100
AcDbSymbolTableRecord
100
AcDbBlockTableRecord
  2
*U41
340
0
102
{BLKREFS
331
54BD
102
}
 70
     0
280
     1
281
     0
1001
AcDbBlockRepBTag
1070
     1
1005
2F0
  0
BLOCK_RECORD
  5
5471
102
{ACAD_XDICTIONARY
360
547F
102
}
330
1
100
AcDbSymbolTableRecord
100
AcDbBlockTableRecord
  2
*U42
340
0
102
{BLKREFS
331
54C4
102
}
 70
     0
280
     1
281
     0
1001
AcDbBlockRepBTag
1070
     1
1005
2BB
  0
ENDTAB
  0
ENDSEC
  0
SECTION
  2
BLOCKS
  0
BLOCK
  5
20
330
1F
100
AcDbEntity
  8
0
100
AcDbBlockBegin
  2
*Model_Space
 70
     0
 10
0.0
 20
0.0
 30
0.0
  3
*Model_Space
  1

  0
ENDBLK
  5
21
330
1F
100
AcDbEntity
  8
0
100
AcDbBlockEnd
  0
BLOCK
  5
D4
330
D2
100
AcDbEntity
 67
     1
  8
0
100
AcDbBlockBegin
  2
*Paper_Space
 70
     0
 10
0.0
 20
0.0
 30
0.0
  3
*Paper_Space
  1

  0
ENDBLK
  5
D5
330
D2
100
AcDbEntity
 67
     1
  8
0
100
AcDbBlockEnd
  0
BLOCK
  5
D8
330
D6
100
AcDbEntity
 67
     1
  8
0
100
AcDbBlockBegin
  2
*Paper_Space0
 70
     0
 10
0.0
 20
0.0
 30
0.0
  3
*Paper_Space0
  1

  0
ENDBLK
  5
D9
330
D6
100
AcDbEntity
 67
     1
  8
0
100
AcDbBlockEnd
  0
BLOCK
  5
264
330
25F
100
AcDbEntity
  8
0
 48
0.1
100
AcDbBlockBegin
  2
DM-ZCT
 70
     0
 10
0.0
 20
0.0
 30
0.0
  3
DM-ZCT
  1

  0
LINE
  5
265
330
25F
100
AcDbEntity
  8
0
  6
DASHED2
100
AcDbLine
 10
0.0
 20
0.0
 30
0.0
 11
0.0
 21
-24.0
 31
0.0
1001
AcDbBlockRepETag
1070
     1
1071
        0
1005
265
  0
CIRCLE
  5
266
330
25F
100
AcDbEntity
  8
0
100
AcDbCircle
 10
0.0
 20
-12.0
 30
0.0
 40
5.0
1001
AcDbBlockRepETag
1070
     1
1071
        1
1005
266
  0
LINE
  5
267
330
25F
100
AcDbEntity
  8
0
100
AcDbLine
 10
7.999999147599737
 20
-10.0
 30
0.0
 11
5.999999147599737
 21
-14.0
 31
0.0
1001
AcDbBlockRepETag
1070
     1
1071
        3
1005
267
  0
LINE
  5
268
330
25F
100
AcDbEntity
  8
0
100
AcDbLine
 10
9.999999147599737
 20
-10.0
 30
0.0
 11
7.999999147599737
 21
-14.0
 31
0.0
1001
AcDbBlockRepETag
1070
     1
1071
        4
1005
268
  0
LINE
  5
269
330
25F
100
AcDbEntity
  8
0
  6
DASHED2
100
AcDbLine
 10
-3.0
 20
-4.0
 30
0.0
 11
-3.0
 21
-20.0
 31
0.0
1001
AcDbBlockRepETag
1070
     1
1071
        2
1005
269
  0
LINE
  5
26A
330
25F
100
AcDbEntity
  8
0
  6
DASHED2
100
AcDbLine
 10
3.0
 20
-4.0
 30
0.0
 11
3.0
 21
-20.0
 31
0.0
1001
AcDbBlockRepETag
1070
     1
1071
        5
1005
26A
  0
LINE
  5
26B
330
25F
100
AcDbEntity
  8
0
100
AcDbLine
 10
5.0
 20
-11.99999999863691
 30
0.0
 11
11.0
 21
-11.99999999863691
 31
0.0
1001
AcDbBlockRepETag
1070
     1
1071
        6
1005
26B
  0
ENDBLK
  5
26C
330
25F
100
AcDbEntity
  8
0
 48
0.1
100
AcDbBlockEnd
  0
BLOCK
  5
272
330
26D
100
AcDbEntity
  8
0
100
AcDbBlockBegin
  2
DM-GND
 70
     0
 10
0.0
 20
0.0
 30
0.0
  3
DM-GND
  1

  0
LINE
  5
4AAF
330
26D
100
AcDbEntity
  8
0
100
AcDbLine
 10
0.0
 20
0.0
 30
0.0
 11
0.0
 21
-4.0
 31
0.0
1001
AcDbBlockRepETag
1070
     1
1071
        0
1005
4AAF
  0
LINE
  5
4AB0
330
26D
100
AcDbEntity
  8
0
100
AcDbLine
 10
-2.0
 20
-4.0
 30
0.0
 11
2.0
 21
-4.0
 31
0.0
1001
AcDbBlockRepETag
1070
     1
1071
        1
1005
4AB0
  0
LINE
  5
4AB1
330
26D
100
AcDbEntity
  8
0
100
AcDbLine
 10
-1.0
 20
-5.0
 30
0.0
 11
1.0
 21
-5.0
 31
0.0
1001
AcDbBlockRepETag
1070
     1
1071
        2
1005
4AB1
  0
LINE
  5
4AB2
330
26D
100
AcDbEntity
  8
0
100
AcDbLine
 10
0.0
 20
-6.0
 30
0.0
 11
0.0
 21
-6.0
 31
0.0
1001
AcDbBlockRepETag
1070
     1
1071
        3
1005
4AB2
  0
LINE
  5
4AB3
330
26D
100
AcDbEntity
  8
0
100
AcDbLine
 10
0.5
 20
-6.0
 30
0.0
 11
-0.5
 21
-6.0
 31
0.0
1001
AcDbBlockRepETag
1070
     1
1071
        4
1005
4AB3
  0
ENDBLK
  5
278
330
26D
100
AcDbEntity
  8
0
100
AcDbBlockEnd
  0
BLOCK
  5
27E
330
279
100
AcDbEntity
  8
0
370
   158
100
AcDbBlockBegin
  2
DM-Earthing Switch
 70
     0
 10
0.0
 20
0.0
 30
0.0
  3
DM-Earthing Switch
  1

  0
LINE
  5
4C01
330
279
100
AcDbEntity
  8
0
100
AcDbLine
 10
-4.0
 20
-6.0
 30
0.0
 11
4.0
 21
-6.0
 31
0.0
1001
AcDbBlockRepETag
1070
     1
1071
        1
1005
4C01
  0
LINE
  5
4C02
330
279
100
AcDbEntity
  8
0
100
AcDbLine
 10
0.0
 20
0.0
 30
0.0
 11
0.0
 21
-6.0
 31
0.0
1001
AcDbBlockRepETag
1070
     1
1071
        2
1005
4C02
  0
LINE
  5
4C03
330
279
100
AcDbEntity
  8
0
100
AcDbLine
 10
0.0000004987477951
 20
-20.0
 30
0.0
 11
-8.0
 21
-6.0
 31
0.0
1001
AcDbBlockRepETag
1070
     1
1071
        3
1005
4C03
  0
LINE
  5
4C04
330
279
100
AcDbEntity
  8
0
 48
0.1
100
AcDbLine
 10
0.0000004987477951
 20
-20.0
 30
0.0
 11
0.0000004987477951
 21
-32.0
 31
0.0
1001
AcDbBlockRepETag
1070
     1
1071
        4
1005
4C04
  0
LINE
  5
4C17
330
279
100
AcDbEntity
  8
0
100
AcDbLine
 10
0.0000004987477951
 20
-32.0
 30
0.0
 11
0.0000004987477951
 21
-40.0
 31
0.0
1001
AcDbBlockRepETag
1070
     1
1071
        0
1005
4C17
  0
LINE
  5
4C18
330
279
100
AcDbEntity
  8
0
100
AcDbLine
 10
-3.999999501252204
 20
-40.0
 30
0.0
 11
4.000000498747795
 21
-40.0
 31
0.0
1001
AcDbBlockRepETag
1070
     1
1071
        5
1005
4C18
  0
LINE
  5
4C19
330
279
100
AcDbEntity
  8
0
100
AcDbLine
 10
-1.999999501252204
 20
-42.0
 30
0.0
 11
2.000000498747795
 21
-42.0
 31
0.0
1001
AcDbBlockRepETag
1070
     1
1071
        6
1005
4C19
  0
LINE
  5
4C1A
330
279
100
AcDbEntity
  8
0
100
AcDbLine
 10
0.0000004987477951
 20
-44.0
 30
0.0
 11
0.0000004987477951
 21
-44.0
 31
0.0
1001
AcDbBlockRepETag
1070
     1
1071
        7
1005
4C1A
  0
LINE
  5
4C1B
330
279
100
AcDbEntity
  8
0
100
AcDbLine
 10
1.000000498747795
 20
-44.0
 30
0.0
 11
-0.9999995012522049
 21
-44.0
 31
0.0
1001
AcDbBlockRepETag
1070
     1
1071
        8
1005
4C1B
  0
ENDBLK
  5
283
330
279
100
AcDbEntity
  8
0
370
   158
100
AcDbBlockEnd
  0
BLOCK
  5
289
330
284
100
AcDbEntity
  8
0
 48
0.1
100
AcDbBlockBegin
  2
DM-Outgoing Line
 70
     0
 10
0.0
 20
0.0
 30
0.0
  3
DM-Outgoing Line
  1

  0
LINE
  5
28A
330
284
100
AcDbEntity
  8
0
100
AcDbLine
 10
0.0
 20
0.0
 30
0.0
 11
0.0
 21
15.0
 31
0.0
1001
AcDbBlockRepETag
1070
     1
1071
        0
1005
28A
  0
HATCH
  5
28B
330
284
100
AcDbEntity
  8
0
100
AcDbHatch
 10
0.0
 20
0.0
 30
0.0
210
0.0
220
0.0
230
1.0
  2
SOLID
 70
     1
 71
     1
 91
        1
 92
        1
 93
        3
 72
     1
 10
0.0
 20
15.0
 11
-2.0
 21
10.99999910797555
 72
     1
 10
-2.0
 20
10.99999910797555
 11
2.0
 21
10.99999910797555
 72
     1
 10
2.0
 20
10.99999910797555
 11
0.0
 21
15.0
 97
        3
330
28C
330
28D
330
28E
 75
     0
 76
     1
 98
        1
 10
-854.0
 20
84.99999910797555
450
        0
451
        0
460
0.0
461
0.0
452
        1
462
1.0
453
        2
463
0.0
 63
     5
421
      255
463
1.0
 63
     7
421
 16777215
470
LINEAR
1001
ACAD
1010
0.0
1020
0.0
1030
0.0
1001
AcDbBlockRepETag
1070
     1
1071
        1
1005
28B
  0
LINE
  5
28C
102
{ACAD_REACTORS
330
28B
102
}
330
284
100
AcDbEntity
  8
0
100
AcDbLine
 10
0.0
 20
15.0
 30
0.0
 11
-2.0
 21
10.99999910797555
 31
0.0
1001
AcDbBlockRepETag
1070
     1
1071
        2
1005
28C
  0
LINE
  5
28D
102
{ACAD_REACTORS
330
28B
102
}
330
284
100
AcDbEntity
  8
0
100
AcDbLine
 10
-2.0
 20
10.99999910797555
 30
0.0
 11
2.0
 21
10.99999910797555
 31
0.0
1001
AcDbBlockRepETag
1070
     1
1071
        3
1005
28D
  0
LINE
  5
28E
102
{ACAD_REACTORS
330
28B
102
}
330
284
100
AcDbEntity
  8
0
100
AcDbLine
 10
2.0
 20
10.99999910797555
 30
0.0
 11
0.0
 21
15.0
 31
0.0
1001
AcDbBlockRepETag
1070
     1
1071
        4
1005
28E
  0
ENDBLK
  5
28F
330
284
100
AcDbEntity
  8
0
 48
0.1
100
AcDbBlockEnd
  0
BLOCK
  5
296
330
290
100
AcDbEntity
  8
0
100
AcDbBlockBegin
  2
DM-Arrester
 70
     0
 10
0.0
 20
0.0
 30
0.0
  3
DM-Arrester
  1

  0
LINE
  5
297
330
290
100
AcDbEntity
  8
0
100
AcDbLine
 10
0.0
 20
0.0
 30
0.0
 11
0.0
 21
-4.0
 31
0.0
1001
AcDbBlockRepETag
1070
     1
1071
        0
1005
297
  0
LINE
  5
298
330
290
100
AcDbEntity
  8
0
100
AcDbLine
 10
-2.0
 20
-4.0
 30
0.0
 11
2.0
 21
-4.0
 31
0.0
1001
AcDbBlockRepETag
1070
     1
1071
        1
1005
298
  0
LINE
  5
299
330
290
100
AcDbEntity
  8
0
100
AcDbLine
 10
2.0
 20
-4.0
 30
0.0
 11
2.0
 21
-12.0
 31
0.0
1001
AcDbBlockRepETag
1070
     1
1071
        2
1005
299
  0
LINE
  5
29A
330
290
100
AcDbEntity
  8
0
100
AcDbLine
 10
2.0
 20
-12.0
 30
0.0
 11
-2.0
 21
-12.0
 31
0.0
1001
AcDbBlockRepETag
1070
     1
1071
        3
1005
29A
  0
LINE
  5
29B
330
290
100
AcDbEntity
  8
0
100
AcDbLine
 10
-2.0
 20
-12.0
 30
0.0
 11
-2.0
 21
-4.0
 31
0.0
1001
AcDbBlockRepETag
1070
     1
1071
        4
1005
29B
  0
LINE
  5
29C
330
290
100
AcDbEntity
  8
0
100
AcDbLine
 10
0.0
 20
-16.0
 30
0.0
 11
0.0
 21
-12.0
 31
0.0
1001
AcDbBlockRepETag
1070
     1
1071
        5
1005
29C
  0
LINE
  5
29D
330
290
100
AcDbEntity
  8
0
100
AcDbLine
 10
0.0
 20
-4.0
 30
0.0
 11
0.0
 21
-4.5
 31
0.0
1001
AcDbBlockRepETag
1070
     1
1071
        6
1005
29D
  0
HATCH
  5
29E
330
290
100
AcDbEntity
  8
0
100
AcDbHatch
 10
0.0
 20
0.0
 30
0.0
210
0.0
220
0.0
230
1.0
  2
SOLID
 70
     1
 71
     1
 91
        1
 92
        1
 93
        4
 72
     1
 10
0.0
 20
-4.5
 11
1.5
 21
-4.5
 72
     1
 10
1.5
 20
-4.5
 11
0.0
 21
-8.0
 72
     1
 10
0.0
 20
-8.0
 11
-1.5
 21
-4.5
 72
     1
 10
-1.5
 20
-4.5
 11
0.0
 21
-4.5
 97
        4
330
29F
330
2A1
330
2A2
330
2A0
 75
     0
 76
     1
 98
        1
 10
-3024.0
 20
314.0
450
        0
451
        0
460
0.0
461
0.0
452
        1
462
1.0
453
        2
463
0.0
 63
     5
421
      255
463
1.0
 63
     7
421
 16777215
470
LINEAR
1001
ACAD
1010
0.0
1020
0.0
1030
0.0
1001
AcDbBlockRepETag
1070
     1
1071
       11
1005
29E
  0
LINE
  5
29F
102
{ACAD_REACTORS
330
29E
102
}
330
290
100
AcDbEntity
  8
0
100
AcDbLine
 10
0.0
 20
-4.5
 30
0.0
 11
1.5
 21
-4.5
 31
0.0
1001
AcDbBlockRepETag
1070
     1
1071
        7
1005
29F
  0
LINE
  5
2A0
102
{ACAD_REACTORS
330
29E
102
}
330
290
100
AcDbEntity
  8
0
100
AcDbLine
 10
0.0
 20
-4.5
 30
0.0
 11
-1.5
 21
-4.5
 31
0.0
1001
AcDbBlockRepETag
1070
     1
1071
        8
1005
2A0
  0
LINE
  5
2A1
102
{ACAD_REACTORS
330
29E
102
}
330
290
100
AcDbEntity
  8
0
100
AcDbLine
 10
0.0
 20
-8.0
 30
0.0
 11
1.5
 21
-4.5
 31
0.0
1001
AcDbBlockRepETag
1070
     1
1071
        9
1005
2A1
  0
LINE
  5
2A2
102
{ACAD_REACTORS
330
29E
102
}
330
290
100
AcDbEntity
  8
0
100
AcDbLine
 10
0.0
 20
-8.0
 30
0.0
 11
-1.5
 21
-4.5
 31
0.0
1001
AcDbBlockRepETag
1070
     1
1071
       10
1005
2A2
  0
ENDBLK
  5
2A3
330
290
100
AcDbEntity
  8
0
100
AcDbBlockEnd
  0
BLOCK
  5
2A9
330
2A4
100
AcDbEntity
  8
0
100
AcDbBlockBegin
  2
DM-DXN-T
 70
     0
 10
0.0
 20
0.0
 30
0.0
  3
DM-DXN-T
  1

  0
LINE
  5
2AA
330
2A4
100
AcDbEntity
  8
0
100
AcDbLine
 10
0.0
 20
0.0
 30
0.0
 11
0.0
 21
-3.0
 31
0.0
1001
AcDbBlockRepETag
1070
     1
1071
        0
1005
2AA
  0
LINE
  5
2AB
330
2A4
100
AcDbEntity
  8
0
100
AcDbLine
 10
2.0
 20
-3.0
 30
0.0
 11
-2.0
 21
-3.0
 31
0.0
1001
AcDbBlockRepETag
1070
     1
1071
        1
1005
2AB
  0
LINE
  5
2AC
330
2A4
100
AcDbEntity
  8
0
100
AcDbLine
 10
-2.0
 20
-5.0
 30
0.0
 11
2.0
 21
-5.0
 31
0.0
1001
AcDbBlockRepETag
1070
     1
1071
        2
1005
2AC
  0
LINE
  5
2AD
330
2A4
100
AcDbEntity
  8
0
100
AcDbLine
 10
0.0
 20
-8.0
 30
0.0
 11
0.0
 21
-5.0
 31
0.0
1001
AcDbBlockRepETag
1070
     1
1071
        3
1005
2AD
  0
CIRCLE
  5
2AE
330
2A4
100
AcDbEntity
  8
0
100
AcDbCircle
 10
0.0
 20
-10.5
 30
0.0
 40
2.5
1001
AcDbBlockRepETag
1070
     1
1071
        4
1005
2AE
  0
LINE
  5
2AF
330
2A4
100
AcDbEntity
  8
0
100
AcDbLine
 10
0.0
 20
-16.0
 30
0.0
 11
0.0
 21
-13.0
 31
0.0
1001
AcDbBlockRepETag
1070
     1
1071
        5
1005
2AF
  0
LINE
  5
2B0
330
2A4
100
AcDbEntity
  8
0
100
AcDbLine
 10
0.0
 20
-10.5
 30
0.0
 11
0.0
 21
-10.5
 31
0.0
1001
AcDbBlockRepETag
1070
     1
1071
        6
1005
2B0
  0
LINE
  5
2B1
330
2A4
100
AcDbEntity
  8
0
100
AcDbLine
 10
0.0
 20
-10.5
 30
0.0
 11
0.0
 21
-10.5
 31
0.0
1001
AcDbBlockRepETag
1070
     1
1071
        7
1005
2B1
  0
LINE
  5
2B2
330
2A4
100
AcDbEntity
  8
0
100
AcDbLine
 10
0.0
 20
-10.5
 30
0.0
 11
0.0
 21
-10.5
 31
0.0
1001
AcDbBlockRepETag
1070
     1
1071
        8
1005
2B2
  0
LINE
  5
2B3
330
2A4
100
AcDbEntity
  8
0
100
AcDbLine
 10
0.0
 20
-10.5
 30
0.0
 11
0.0
 21
-10.5
 31
0.0
1001
AcDbBlockRepETag
1070
     1
1071
        9
1005
2B3
  0
LINE
  5
2B4
330
2A4
100
AcDbEntity
  8
0
100
AcDbLine
 10
0.0
 20
-10.5
 30
0.0
 11
0.0
 21
-10.5
 31
0.0
1001
AcDbBlockRepETag
1070
     1
1071
       10
1005
2B4
  0
LINE
  5
2B5
330
2A4
100
AcDbEntity
  8
0
100
AcDbLine
 10
0.0
 20
-10.5
 30
0.0
 11
0.0
 21
-10.5
 31
0.0
1001
AcDbBlockRepETag
1070
     1
1071
       11
1005
2B5
  0
LINE
  5
2B6
330
2A4
100
AcDbEntity
  8
0
100
AcDbLine
 10
0.0
 20
-10.5
 30
0.0
 11
-1.767766952966212
 21
-8.732233047033616
 31
0.0
1001
AcDbBlockRepETag
1070
     1
1071
       12
1005
2B6
  0
LINE
  5
2B7
330
2A4
100
AcDbEntity
  8
0
100
AcDbLine
 10
0.0
 20
-10.5
 30
0.0
 11
1.767766952966212
 21
-8.732233047033616
 31
0.0
1001
AcDbBlockRepETag
1070
     1
1071
       13
1005
2B7
  0
LINE
  5
2B8
330
2A4
100
AcDbEntity
  8
0
100
AcDbLine
 10
0.0
 20
-10.5
 30
0.0
 11
1.767766952966212
 21
-12.26776695296638
 31
0.0
1001
AcDbBlockRepETag
1070
     1
1071
       14
1005
2B8
  0
LINE
  5
2B9
330
2A4
100
AcDbEntity
  8
0
100
AcDbLine
 10
0.0
 20
-10.5
 30
0.0
 11
-1.767766952966212
 21
-12.26776695296638
 31
0.0
1001
AcDbBlockRepETag
1070
     1
1071
       15
1005
2B9
  0
ENDBLK
  5
2BA
330
2A4
100
AcDbEntity
  8
0
100
AcDbBlockEnd
  0
BLOCK
  5
2C0
330
2BB
100
AcDbEntity
  8
0
 48
0.1
100
AcDbBlockBegin
  2
DM-HPT
 70
     0
 10
0.0
 20
0.0
 30
0.0
  3
DM-HPT
  1

  0
LINE
  5
2C1
330
2BB
100
AcDbEntity
  8
0
100
AcDbLine
 10
0.0
 20
0.0
 30
0.0
 11
0.0
 21
-48.0
 31
0.0
1001
AcDbBlockRepETag
1070
     1
1071
        0
1005
2C1
  0
LINE
  5
2C2
330
2BB
100
AcDbEntity
  8
0
100
AcDbLine
 10
-4.0
 20
-16.0
 30
0.0
 11
4.0
 21
-16.0
 31
0.0
1001
AcDbBlockRepETag
1070
     1
1071
        1
1005
2C2
  0
LINE
  5
2C3
330
2BB
100
AcDbEntity
  8
0
100
AcDbLine
 10
4.0
 20
-16.0
 30
0.0
 11
4.0
 21
-32.0
 31
0.0
1001
AcDbBlockRepETag
1070
     1
1071
        2
1005
2C3
  0
LINE
  5
2C4
330
2BB
100
AcDbEntity
  8
0
100
AcDbLine
 10
4.0
 20
-32.0
 30
0.0
 11
-4.0
 21
-32.0
 31
0.0
1001
AcDbBlockRepETag
1070
     1
1071
        3
1005
2C4
  0
LINE
  5
2C5
330
2BB
100
AcDbEntity
  8
0
100
AcDbLine
 10
-4.0
 20
-32.0
 30
0.0
 11
-4.0
 21
-16.0
 31
0.0
1001
AcDbBlockRepETag
1070
     1
1071
        4
1005
2C5
  0
CIRCLE
  5
2C6
330
2BB
100
AcDbEntity
  8
0
100
AcDbCircle
 10
15.0
 20
-53.0
 30
0.0
 40
8.0
1001
AcDbBlockRepETag
1070
     1
1071
        5
1005
2C6
  0
CIRCLE
  5
2C7
330
2BB
100
AcDbEntity
  8
0
100
AcDbCircle
 10
-15.0
 20
-43.0
 30
0.0
 40
8.0
1001
AcDbBlockRepETag
1070
     1
1071
        6
1005
2C7
  0
CIRCLE
  5
2C8
330
2BB
100
AcDbEntity
  8
0
100
AcDbCircle
 10
15.0
 20
-43.0
 30
0.0
 40
8.0
1001
AcDbBlockRepETag
1070
     1
1071
        7
1005
2C8
  0
LINE
  5
2C9
330
2BB
100
AcDbEntity
  8
0
100
AcDbLine
 10
0.0
 20
-48.0
 30
0.0
 11
8.75500200160161
 21
-48.0
 31
0.0
1001
AcDbBlockRepETag
1070
     1
1071
       12
1005
2C9
  0
LINE
  5
2CA
330
2BB
100
AcDbEntity
  8
0
100
AcDbLine
 10
0.0
 20
-48.0
 30
0.0
 11
-8.75500200160161
 21
-48.0
 31
0.0
1001
AcDbBlockRepETag
1070
     1
1071
       13
1005
2CA
  0
CIRCLE
  5
2CB
330
2BB
100
AcDbEntity
  8
0
100
AcDbCircle
 10
-15.0
 20
-53.0
 30
0.0
 40
8.0
1001
AcDbBlockRepETag
1070
     1
1071
       14
1005
2CB
  0
ENDBLK
  5
2CC
330
2BB
100
AcDbEntity
  8
0
 48
0.1
100
AcDbBlockEnd
  0
BLOCK
  5
2D2
330
2CD
100
AcDbEntity
  8
0
 48
0.1
100
AcDbBlockBegin
  2
DM-VCB
 70
     0
 10
0.0
 20
0.0
 30
0.0
  3
DM-VCB
  1

  0
LINE
  5
2D3
330
2CD
100
AcDbEntity
  8
0
100
AcDbLine
 10
0.0
 20
0.0
 30
0.0
 11
0.0
 21
-24.0
 31
0.0
1001
AcDbBlockRepETag
1070
     1
1071
        0
1005
2D3
  0
HATCH
  5
2D4
330
2CD
100
AcDbEntity
  8
0
100
AcDbHatch
 10
0.0
 20
0.0
 30
0.0
210
0.0
220
0.0
230
1.0
  2
SOLID
 70
     1
 71
     1
 91
        1
 92
        1
 93
        5
 72
     1
 10
-4.0
 20
-24.0
 11
-4.0
 21
-40.0
 72
     1
 10
-4.0
 20
-40.0
 11
4.0
 21
-40.0
 72
     1
 10
4.0
 20
-40.0
 11
4.0
 21
-32.0
 72
     1
 10
4.0
 20
-32.0
 11
4.0
 21
-24.0
 72
     1
 10
4.0
 20
-24.0
 11
-4.0
 21
-24.0
 97
        5
330
2D8
330
2D9
330
2D7
330
2D6
330
2D5
 75
     0
 76
     1
 98
        1
 10
-730.0000011883575
 20
-101.9999995897865
450
        0
451
        0
460
0.0
461
0.0
452
        1
462
1.0
453
        2
463
0.0
 63
     5
421
      255
463
1.0
 63
     7
421
 16777215
470
LINEAR
1001
ACAD
1010
0.0
1020
0.0
1030
0.0
1001
AcDbBlockRepETag
1070
     1
1071
        1
1005
2D4
  0
LINE
  5
2D5
102
{ACAD_REACTORS
330
2D4
102
}
330
2CD
100
AcDbEntity
  8
0
100
AcDbLine
 10
-4.0
 20
-24.0
 30
0.0
 11
4.0
 21
-24.0
 31
0.0
1001
AcDbBlockRepETag
1070
     1
1071
        2
1005
2D5
  0
LINE
  5
2D6
102
{ACAD_REACTORS
330
2D4
102
}
330
2CD
100
AcDbEntity
  8
0
100
AcDbLine
 10
4.0
 20
-24.0
 30
0.0
 11
4.0
 21
-32.0
 31
0.0
1001
AcDbBlockRepETag
1070
     1
1071
        3
1005
2D6
  0
LINE
  5
2D7
102
{ACAD_REACTORS
330
2D4
102
}
330
2CD
100
AcDbEntity
  8
0
100
AcDbLine
 10
4.0
 20
-32.0
 30
0.0
 11
4.0
 21
-40.0
 31
0.0
1001
AcDbBlockRepETag
1070
     1
1071
        4
1005
2D7
  0
LINE
  5
2D8
102
{ACAD_REACTORS
330
2D4
102
}
330
2CD
100
AcDbEntity
  8
0
100
AcDbLine
 10
-4.0
 20
-24.0
 30
0.0
 11
-4.0
 21
-40.0
 31
0.0
1001
AcDbBlockRepETag
1070
     1
1071
        5
1005
2D8
  0
LINE
  5
2D9
102
{ACAD_REACTORS
330
2D4
102
}
330
2CD
100
AcDbEntity
  8
0
100
AcDbLine
 10
-4.0
 20
-40.0
 30
0.0
 11
4.0
 21
-40.0
 31
0.0
1001
AcDbBlockRepETag
1070
     1
1071
        6
1005
2D9
  0
LINE
  5
2DA
330
2CD
100
AcDbEntity
  8
0
100
AcDbLine
 10
0.0
 20
-64.0
 30
0.0
 11
0.0
 21
-40.0
 31
0.0
1001
AcDbBlockRepETag
1070
     1
1071
        7
1005
2DA
  0
LINE
  5
2DB
330
2CD
100
AcDbEntity
  8
0
100
AcDbLine
 10
0.0
 20
0.0
 30
0.0
 11
-4.0
 21
-4.0
 31
0.0
1001
AcDbBlockRepETag
1070
     1
1071
        8
1005
2DB
  0
LINE
  5
2DC
330
2CD
100
AcDbEntity
  8
0
100
AcDbLine
 10
0.0
 20
0.0
 30
0.0
 11
4.0
 21
-4.0
 31
0.0
1001
AcDbBlockRepETag
1070
     1
1071
        9
1005
2DC
  0
LINE
  5
2DD
330
2CD
100
AcDbEntity
  8
0
100
AcDbLine
 10
0.0
 20
-4.0
 30
0.0
 11
-4.0
 21
-8.0
 31
0.0
1001
AcDbBlockRepETag
1070
     1
1071
       10
1005
2DD
  0
LINE
  5
2DE
330
2CD
100
AcDbEntity
  8
0
100
AcDbLine
 10
0.0
 20
-4.0
 30
0.0
 11
4.0
 21
-8.0
 31
0.0
1001
AcDbBlockRepETag
1070
     1
1071
       11
1005
2DE
  0
LINE
  5
2DF
330
2CD
100
AcDbEntity
  8
0
100
AcDbLine
 10
0.0
 20
-64.0
 30
0.0
 11
4.0
 21
-60.0
 31
0.0
1001
AcDbBlockRepETag
1070
     1
1071
       12
1005
2DF
  0
LINE
  5
2E0
330
2CD
100
AcDbEntity
  8
0
100
AcDbLine
 10
0.0
 20
-64.0
 30
0.0
 11
-4.0
 21
-60.0
 31
0.0
1001
AcDbBlockRepETag
1070
     1
1071
       13
1005
2E0
  0
LINE
  5
2E1
330
2CD
100
AcDbEntity
  8
0
100
AcDbLine
 10
0.0
 20
-60.0
 30
0.0
 11
4.0
 21
-56.0
 31
0.0
1001
AcDbBlockRepETag
1070
     1
1071
       14
1005
2E1
  0
LINE
  5
2E2
330
2CD
100
AcDbEntity
  8
0
100
AcDbLine
 10
0.0
 20
-60.0
 30
0.0
 11
-4.0
 21
-56.0
 31
0.0
1001
AcDbBlockRepETag
1070
     1
1071
       15
1005
2E2
  0
ENDBLK
  5
2E3
330
2CD
100
AcDbEntity
  8
0
 48
0.1
100
AcDbBlockEnd
  0
BLOCK
  5
2E9
330
2E4
100
AcDbEntity
  8
0
370
   158
100
AcDbBlockBegin
  2
DM-CT
 70
     0
 10
0.0
 20
0.0
 30
0.0
  3
DM-CT
  1

  0
LINE
  5
2EA
330
2E4
100
AcDbEntity
  8
0
100
AcDbLine
 10
0.0
 20
0.0
 30
0.0
 11
0.0
 21
-24.0
 31
0.0
1001
AcDbBlockRepETag
1070
     1
1071
        0
1005
2EA
  0
CIRCLE
  5
2EB
330
2E4
100
AcDbEntity
  8
0
100
AcDbCircle
 10
0.0
 20
-12.0
 30
0.0
 40
4.0
1001
AcDbBlockRepETag
1070
     1
1071
        1
1005
2EB
  0
LINE
  5
2EC
330
2E4
100
AcDbEntity
  8
0
100
AcDbLine
 10
4.0
 20
-12.0
 30
0.0
 11
9.999992328408325
 21
-11.99040525967284
 31
0.0
1001
AcDbBlockRepETag
1070
     1
1071
        2
1005
2EC
  0
LINE
  5
2ED
330
2E4
100
AcDbEntity
  8
0
100
AcDbLine
 10
7.0
 20
-10.0
 30
0.0
 11
5.0
 21
-14.0
 31
0.0
1001
AcDbBlockRepETag
1070
     1
1071
        3
1005
2ED
  0
LINE
  5
2EE
330
2E4
100
AcDbEntity
  8
0
100
AcDbLine
 10
9.0
 20
-10.0
 30
0.0
 11
7.0
 21
-14.0
 31
0.0
1001
AcDbBlockRepETag
1070
     1
1071
        4
1005
2EE
  0
ENDBLK
  5
2EF
330
2E4
100
AcDbEntity
  8
0
370
   158
100
AcDbBlockEnd
  0
BLOCK
  5
2F5
330
2F0
100
AcDbEntity
  8
0
100
AcDbBlockBegin
  2
DM-Handcart
 70
     0
 10
0.0
 20
0.0
 30
0.0
  3
DM-Handcart
  1

  0
LINE
  5
2F6
330
2F0
100
AcDbEntity
  8
0
370
     0
100
AcDbLine
 10
0.0
 20
0.0
 30
0.0
 11
0.0
 21
-10.0
 31
0.0
1001
AcDbBlockRepETag
1070
     1
1071
        0
1005
2F6
  0
LINE
  5
2F7
330
2F0
100
AcDbEntity
  8
0
370
     0
100
AcDbLine
 10
0.0
 20
0.0
 30
0.0
 11
-4.0
 21
-4.0
 31
0.0
1001
AcDbBlockRepETag
1070
     1
1071
        1
1005
2F7
  0
LINE
  5
2F8
330
2F0
100
AcDbEntity
  8
0
370
     0
100
AcDbLine
 10
4.0
 20
-4.0
 30
0.0
 11
0.0
 21
0.0
 31
0.0
1001
AcDbBlockRepETag
1070
     1
1071
        2
1005
2F8
  0
LINE
  5
2F9
330
2F0
100
AcDbEntity
  8
0
370
     0
100
AcDbLine
 10
-4.0
 20
-8.0
 30
0.0
 11
0.0
 21
-4.0
 31
0.0
1001
AcDbBlockRepETag
1070
     1
1071
        3
1005
2F9
  0
LINE
  5
2FA
330
2F0
100
AcDbEntity
  8
0
370
     0
100
AcDbLine
 10
0.0
 20
-4.0
 30
0.0
 11
4.0
 21
-8.0
 31
0.0
1001
AcDbBlockRepETag
1070
     1
1071
        4
1005
2FA
  0
ENDBLK
  5
2FB
330
2F0
100
AcDbEntity
  8
0
100
AcDbBlockEnd
  0
BLOCK
  5
1467
330
1466
100
AcDbEntity
  8
0
100
AcDbBlockBegin
  2
*U11
 70
     1
 10
0.0
 20
0.0
 30
0.0
  3
*U11
  1

  0
LINE
  5
1469
330
1466
100
AcDbEntity
  8
0
100
AcDbLine
 10
0.0
 20
0.0
 30
0.0
 11
0.0
 21
15.0
 31
0.0
1001
AcDbBlockRepETag
1070
     1
1071
        0
1005
1469
  0
HATCH
  5
146A
330
1466
100
AcDbEntity
  8
0
100
AcDbHatch
 10
0.0
 20
0.0
 30
0.0
210
0.0
220
0.0
230
1.0
  2
SOLID
 70
     1
 71
     1
 91
        1
 92
        1
 93
        3
 72
     1
 10
0.0
 20
15.0
 11
-2.0
 21
10.99999910797555
 72
     1
 10
-2.0
 20
10.99999910797555
 11
2.0
 21
10.99999910797555
 72
     1
 10
2.0
 20
10.99999910797555
 11
0.0
 21
15.0
 97
        3
330
146B
330
146C
330
146D
 75
     0
 76
     1
 98
        1
 10
-854.0
 20
84.99999910797555
450
        0
451
        0
460
0.0
461
0.0
452
        1
462
1.0
453
        2
463
0.0
 63
     5
421
      255
463
1.0
 63
     7
421
 16777215
470
LINEAR
1001
ACAD
1010
0.0
1020
0.0
1030
0.0
1001
AcDbBlockRepETag
1070
     1
1071
        1
1005
146A
  0
LINE
  5
146B
102
{ACAD_REACTORS
330
146A
102
}
330
1466
100
AcDbEntity
  8
0
100
AcDbLine
 10
0.0
 20
15.0
 30
0.0
 11
-2.0
 21
10.99999910797555
 31
0.0
1001
AcDbBlockRepETag
1070
     1
1071
        2
1005
146B
  0
LINE
  5
146C
102
{ACAD_REACTORS
330
146A
102
}
330
1466
100
AcDbEntity
  8
0
100
AcDbLine
 10
-2.0
 20
10.99999910797555
 30
0.0
 11
2.0
 21
10.99999910797555
 31
0.0
1001
AcDbBlockRepETag
1070
     1
1071
        3
1005
146C
  0
LINE
  5
146D
102
{ACAD_REACTORS
330
146A
102
}
330
1466
100
AcDbEntity
  8
0
100
AcDbLine
 10
2.0
 20
10.99999910797555
 30
0.0
 11
0.0
 21
15.0
 31
0.0
1001
AcDbBlockRepETag
1070
     1
1071
        4
1005
146D
  0
ENDBLK
  5
1468
330
1466
100
AcDbEntity
  8
0
100
AcDbBlockEnd
  0
BLOCK
  5
14C0
330
14BF
100
AcDbEntity
  8
0
100
AcDbBlockBegin
  2
*U12
 70
     1
 10
0.0
 20
0.0
 30
0.0
  3
*U12
  1

  0
LINE
  5
14C2
330
14BF
100
AcDbEntity
  8
0
100
AcDbLine
 10
0.0
 20
0.0
 30
0.0
 11
0.0
 21
-4.0
 31
0.0
1001
AcDbBlockRepETag
1070
     1
1071
        0
1005
14C2
  0
LINE
  5
14C3
330
14BF
100
AcDbEntity
  8
0
100
AcDbLine
 10
-2.0
 20
-4.0
 30
0.0
 11
2.0
 21
-4.0
 31
0.0
1001
AcDbBlockRepETag
1070
     1
1071
        1
1005
14C3
  0
LINE
  5
14C4
330
14BF
100
AcDbEntity
  8
0
100
AcDbLine
 10
2.0
 20
-4.0
 30
0.0
 11
2.0
 21
-12.0
 31
0.0
1001
AcDbBlockRepETag
1070
     1
1071
        2
1005
14C4
  0
LINE
  5
14C5
330
14BF
100
AcDbEntity
  8
0
100
AcDbLine
 10
2.0
 20
-12.0
 30
0.0
 11
-2.0
 21
-12.0
 31
0.0
1001
AcDbBlockRepETag
1070
     1
1071
        3
1005
14C5
  0
LINE
  5
14C6
330
14BF
100
AcDbEntity
  8
0
100
AcDbLine
 10
-2.0
 20
-12.0
 30
0.0
 11
-2.0
 21
-4.0
 31
0.0
1001
AcDbBlockRepETag
1070
     1
1071
        4
1005
14C6
  0
LINE
  5
14C7
330
14BF
100
AcDbEntity
  8
0
100
AcDbLine
 10
0.0
 20
-16.0
 30
0.0
 11
0.0
 21
-12.0
 31
0.0
1001
AcDbBlockRepETag
1070
     1
1071
        5
1005
14C7
  0
LINE
  5
14C8
330
14BF
100
AcDbEntity
  8
0
100
AcDbLine
 10
0.0
 20
-4.0
 30
0.0
 11
0.0
 21
-4.5
 31
0.0
1001
AcDbBlockRepETag
1070
     1
1071
        6
1005
14C8
  0
HATCH
  5
14C9
330
14BF
100
AcDbEntity
  8
0
100
AcDbHatch
 10
0.0
 20
0.0
 30
0.0
210
0.0
220
0.0
230
1.0
  2
SOLID
 70
     1
 71
     1
 91
        1
 92
        1
 93
        4
 72
     1
 10
0.0
 20
-4.5
 11
1.5
 21
-4.5
 72
     1
 10
1.5
 20
-4.5
 11
0.0
 21
-8.0
 72
     1
 10
0.0
 20
-8.0
 11
-1.5
 21
-4.5
 72
     1
 10
-1.5
 20
-4.5
 11
0.0
 21
-4.5
 97
        4
330
14CA
330
14CC
330
14CD
330
14CB
 75
     0
 76
     1
 98
        1
 10
-3024.0
 20
314.0
450
        0
451
        0
460
0.0
461
0.0
452
        1
462
1.0
453
        2
463
0.0
 63
     5
421
      255
463
1.0
 63
     7
421
 16777215
470
LINEAR
1001
ACAD
1010
0.0
1020
0.0
1030
0.0
1001
AcDbBlockRepETag
1070
     1
1071
       11
1005
14C9
  0
LINE
  5
14CA
102
{ACAD_REACTORS
330
14C9
102
}
330
14BF
100
AcDbEntity
  8
0
100
AcDbLine
 10
0.0
 20
-4.5
 30
0.0
 11
1.5
 21
-4.5
 31
0.0
1001
AcDbBlockRepETag
1070
     1
1071
        7
1005
14CA
  0
LINE
  5
14CB
102
{ACAD_REACTORS
330
14C9
102
}
330
14BF
100
AcDbEntity
  8
0
100
AcDbLine
 10
0.0
 20
-4.5
 30
0.0
 11
-1.5
 21
-4.5
 31
0.0
1001
AcDbBlockRepETag
1070
     1
1071
        8
1005
14CB
  0
LINE
  5
14CC
102
{ACAD_REACTORS
330
14C9
102
}
330
14BF
100
AcDbEntity
  8
0
100
AcDbLine
 10
0.0
 20
-8.0
 30
0.0
 11
1.5
 21
-4.5
 31
0.0
1001
AcDbBlockRepETag
1070
     1
1071
        9
1005
14CC
  0
LINE
  5
14CD
102
{ACAD_REACTORS
330
14C9
102
}
330
14BF
100
AcDbEntity
  8
0
100
AcDbLine
 10
0.0
 20
-8.0
 30
0.0
 11
-1.5
 21
-4.5
 31
0.0
1001
AcDbBlockRepETag
1070
     1
1071
       10
1005
14CD
  0
ENDBLK
  5
14C1
330
14BF
100
AcDbEntity
  8
0
100
AcDbBlockEnd
  0
BLOCK
  5
1BA2
330
1B9D
100
AcDbEntity
  8
0
370
   158
100
AcDbBlockBegin
  2
DM-DblClmnTrans
 70
     0
 10
0.0
 20
0.0
 30
0.0
  3
DM-DblClmnTrans
  1

  0
CIRCLE
  5
1BA3
330
1B9D
100
AcDbEntity
  8
0
100
AcDbCircle
 10
0.0
 20
-12.0
 30
0.0
 40
12.0
1001
AcDbBlockRepETag
1070
     1
1071
        0
1005
1BA3
  0
CIRCLE
  5
1BA4
330
1B9D
100
AcDbEntity
  8
0
100
AcDbCircle
 10
0.0
 20
-28.0
 30
0.0
 40
12.0
1001
AcDbBlockRepETag
1070
     1
1071
        1
1005
1BA4
  0
LINE
  5
1BA5
330
1B9D
100
AcDbEntity
  8
0
100
AcDbLine
 10
0.0
 20
-6.0
 30
0.0
 11
-4.0
 21
-12.0
 31
0.0
1001
AcDbBlockRepETag
1070
     1
1071
        2
1005
1BA5
  0
LINE
  5
1BA6
330
1B9D
100
AcDbEntity
  8
0
100
AcDbLine
 10
-4.0
 20
-12.0
 30
0.0
 11
4.0
 21
-12.0
 31
0.0
1001
AcDbBlockRepETag
1070
     1
1071
        3
1005
1BA6
  0
LINE
  5
1BA7
330
1B9D
100
AcDbEntity
  8
0
100
AcDbLine
 10
4.0
 20
-12.0
 30
0.0
 11
0.0
 21
-6.0
 31
0.0
1001
AcDbBlockRepETag
1070
     1
1071
        4
1005
1BA7
  0
LINE
  5
1BA8
330
1B9D
100
AcDbEntity
  8
0
100
AcDbLine
 10
0.0
 20
-32.0
 30
0.0
 11
0.0
 21
-28.0
 31
0.0
1001
AcDbBlockRepETag
1070
     1
1071
        6
1005
1BA8
  0
LINE
  5
1BA9
330
1B9D
100
AcDbEntity
  8
0
 48
0.1
100
AcDbLine
 10
0.0
 20
-28.0
 30
0.0
 11
-4.0
 21
-25.0
 31
0.0
1001
AcDbBlockRepETag
1070
     1
1071
        9
1005
1BA9
  0
LINE
  5
1BAA
330
1B9D
100
AcDbEntity
  8
0
 48
0.1
100
AcDbLine
 10
0.0
 20
-28.0
 30
0.0
 11
4.0
 21
-25.0
 31
0.0
1001
AcDbBlockRepETag
1070
     1
1071
       10
1005
1BAA
  0
ENDBLK
  5
1BAB
330
1B9D
100
AcDbEntity
  8
0
370
   158
100
AcDbBlockEnd
  0
BLOCK
  5
1C8E
330
1C8D
100
AcDbEntity
  8
0
100
AcDbBlockBegin
  2
*U14
 70
     1
 10
0.0
 20
0.0
 30
0.0
  3
*U14
  1

  0
LINE
  5
1C90
330
1C8D
100
AcDbEntity
  8
0
100
AcDbLine
 10
0.0
 20
0.0
 30
0.0
 11
0.0
 21
15.0
 31
0.0
1001
AcDbBlockRepETag
1070
     1
1071
        0
1005
1C90
  0
HATCH
  5
1C91
330
1C8D
100
AcDbEntity
  8
0
100
AcDbHatch
 10
0.0
 20
0.0
 30
0.0
210
0.0
220
0.0
230
1.0
  2
SOLID
 70
     1
 71
     1
 91
        1
 92
        1
 93
        3
 72
     1
 10
0.0
 20
15.0
 11
-2.0
 21
10.99999910797555
 72
     1
 10
-2.0
 20
10.99999910797555
 11
2.0
 21
10.99999910797555
 72
     1
 10
2.0
 20
10.99999910797555
 11
0.0
 21
15.0
 97
        3
330
1C92
330
1C93
330
1C94
 75
     0
 76
     1
 98
        1
 10
-854.0
 20
84.99999910797555
450
        0
451
        0
460
0.0
461
0.0
452
        1
462
1.0
453
        2
463
0.0
 63
     5
421
      255
463
1.0
 63
     7
421
 16777215
470
LINEAR
1001
ACAD
1010
0.0
1020
0.0
1030
0.0
1001
AcDbBlockRepETag
1070
     1
1071
        1
1005
1C91
  0
LINE
  5
1C92
102
{ACAD_REACTORS
330
1C91
102
}
330
1C8D
100
AcDbEntity
  8
0
100
AcDbLine
 10
0.0
 20
15.0
 30
0.0
 11
-2.0
 21
10.99999910797555
 31
0.0
1001
AcDbBlockRepETag
1070
     1
1071
        2
1005
1C92
  0
LINE
  5
1C93
102
{ACAD_REACTORS
330
1C91
102
}
330
1C8D
100
AcDbEntity
  8
0
100
AcDbLine
 10
-2.0
 20
10.99999910797555
 30
0.0
 11
2.0
 21
10.99999910797555
 31
0.0
1001
AcDbBlockRepETag
1070
     1
1071
        3
1005
1C93
  0
LINE
  5
1C94
102
{ACAD_REACTORS
330
1C91
102
}
330
1C8D
100
AcDbEntity
  8
0
100
AcDbLine
 10
2.0
 20
10.99999910797555
 30
0.0
 11
0.0
 21
15.0
 31
0.0
1001
AcDbBlockRepETag
1070
     1
1071
        4
1005
1C94
  0
ENDBLK
  5
1C8F
330
1C8D
100
AcDbEntity
  8
0
100
AcDbBlockEnd
  0
BLOCK
  5
1CAF
330
1CAE
100
AcDbEntity
  8
0
100
AcDbBlockBegin
  2
*U15
 70
     1
 10
0.0
 20
0.0
 30
0.0
  3
*U15
  1

  0
LINE
  5
1CB1
330
1CAE
100
AcDbEntity
  8
0
100
AcDbLine
 10
0.0
 20
0.0
 30
0.0
 11
0.0
 21
-24.0
 31
0.0
1001
AcDbBlockRepETag
1070
     1
1071
        0
1005
1CB1
  0
HATCH
  5
1CB2
330
1CAE
100
AcDbEntity
  8
0
100
AcDbHatch
 10
0.0
 20
0.0
 30
0.0
210
0.0
220
0.0
230
1.0
  2
SOLID
 70
     1
 71
     1
 91
        1
 92
        1
 93
        5
 72
     1
 10
-4.0
 20
-24.0
 11
-4.0
 21
-40.0
 72
     1
 10
-4.0
 20
-40.0
 11
4.0
 21
-40.0
 72
     1
 10
4.0
 20
-40.0
 11
4.0
 21
-32.0
 72
     1
 10
4.0
 20
-32.0
 11
4.0
 21
-24.0
 72
     1
 10
4.0
 20
-24.0
 11
-4.0
 21
-24.0
 97
        5
330
1CB6
330
1CB7
330
1CB5
330
1CB4
330
1CB3
 75
     0
 76
     1
 98
        1
 10
-730.0000011883575
 20
-101.9999995897865
450
        0
451
        0
460
0.0
461
0.0
452
        1
462
1.0
453
        2
463
0.0
 63
     5
421
      255
463
1.0
 63
     7
421
 16777215
470
LINEAR
1001
ACAD
1010
0.0
1020
0.0
1030
0.0
1001
AcDbBlockRepETag
1070
     1
1071
        1
1005
1CB2
  0
LINE
  5
1CB3
102
{ACAD_REACTORS
330
1CB2
102
}
330
1CAE
100
AcDbEntity
  8
0
100
AcDbLine
 10
-4.0
 20
-24.0
 30
0.0
 11
4.0
 21
-24.0
 31
0.0
1001
AcDbBlockRepETag
1070
     1
1071
        2
1005
1CB3
  0
LINE
  5
1CB4
102
{ACAD_REACTORS
330
1CB2
102
}
330
1CAE
100
AcDbEntity
  8
0
100
AcDbLine
 10
4.0
 20
-24.0
 30
0.0
 11
4.0
 21
-32.0
 31
0.0
1001
AcDbBlockRepETag
1070
     1
1071
        3
1005
1CB4
  0
LINE
  5
1CB5
102
{ACAD_REACTORS
330
1CB2
102
}
330
1CAE
100
AcDbEntity
  8
0
100
AcDbLine
 10
4.0
 20
-32.0
 30
0.0
 11
4.0
 21
-40.0
 31
0.0
1001
AcDbBlockRepETag
1070
     1
1071
        4
1005
1CB5
  0
LINE
  5
1CB6
102
{ACAD_REACTORS
330
1CB2
102
}
330
1CAE
100
AcDbEntity
  8
0
100
AcDbLine
 10
-4.0
 20
-24.0
 30
0.0
 11
-4.0
 21
-40.0
 31
0.0
1001
AcDbBlockRepETag
1070
     1
1071
        5
1005
1CB6
  0
LINE
  5
1CB7
102
{ACAD_REACTORS
330
1CB2
102
}
330
1CAE
100
AcDbEntity
  8
0
100
AcDbLine
 10
-4.0
 20
-40.0
 30
0.0
 11
4.0
 21
-40.0
 31
0.0
1001
AcDbBlockRepETag
1070
     1
1071
        6
1005
1CB7
  0
LINE
  5
1CB8
330
1CAE
100
AcDbEntity
  8
0
100
AcDbLine
 10
0.0
 20
-64.0
 30
0.0
 11
0.0
 21
-40.0
 31
0.0
1001
AcDbBlockRepETag
1070
     1
1071
        7
1005
1CB8
  0
LINE
  5
1CB9
330
1CAE
100
AcDbEntity
  8
0
100
AcDbLine
 10
0.0
 20
0.0
 30
0.0
 11
-4.0
 21
-4.0
 31
0.0
1001
AcDbBlockRepETag
1070
     1
1071
        8
1005
1CB9
  0
LINE
  5
1CBA
330
1CAE
100
AcDbEntity
  8
0
100
AcDbLine
 10
0.0
 20
0.0
 30
0.0
 11
4.0
 21
-4.0
 31
0.0
1001
AcDbBlockRepETag
1070
     1
1071
        9
1005
1CBA
  0
LINE
  5
1CBB
330
1CAE
100
AcDbEntity
  8
0
100
AcDbLine
 10
0.0
 20
-4.0
 30
0.0
 11
-4.0
 21
-8.0
 31
0.0
1001
AcDbBlockRepETag
1070
     1
1071
       10
1005
1CBB
  0
LINE
  5
1CBC
330
1CAE
100
AcDbEntity
  8
0
100
AcDbLine
 10
0.0
 20
-4.0
 30
0.0
 11
4.0
 21
-8.0
 31
0.0
1001
AcDbBlockRepETag
1070
     1
1071
       11
1005
1CBC
  0
LINE
  5
1CBD
330
1CAE
100
AcDbEntity
  8
0
100
AcDbLine
 10
0.0
 20
-64.0
 30
0.0
 11
4.0
 21
-60.0
 31
0.0
1001
AcDbBlockRepETag
1070
     1
1071
       12
1005
1CBD
  0
LINE
  5
1CBE
330
1CAE
100
AcDbEntity
  8
0
100
AcDbLine
 10
0.0
 20
-64.0
 30
0.0
 11
-4.0
 21
-60.0
 31
0.0
1001
AcDbBlockRepETag
1070
     1
1071
       13
1005
1CBE
  0
LINE
  5
1CBF
330
1CAE
100
AcDbEntity
  8
0
100
AcDbLine
 10
0.0
 20
-60.0
 30
0.0
 11
4.0
 21
-56.0
 31
0.0
1001
AcDbBlockRepETag
1070
     1
1071
       14
1005
1CBF
  0
LINE
  5
1CC0
330
1CAE
100
AcDbEntity
  8
0
100
AcDbLine
 10
0.0
 20
-60.0
 30
0.0
 11
-4.0
 21
-56.0
 31
0.0
1001
AcDbBlockRepETag
1070
     1
1071
       15
1005
1CC0
  0
ENDBLK
  5
1CB0
330
1CAE
100
AcDbEntity
  8
0
100
AcDbBlockEnd
  0
BLOCK
  5
1CC5
330
1CC4
100
AcDbEntity
  8
0
100
AcDbBlockBegin
  2
*U16
 70
     1
 10
0.0
 20
0.0
 30
0.0
  3
*U16
  1

  0
LINE
  5
1CC7
330
1CC4
100
AcDbEntity
  8
0
100
AcDbLine
 10
0.0
 20
0.0
 30
0.0
 11
0.0
 21
-24.0
 31
0.0
1001
AcDbBlockRepETag
1070
     1
1071
        0
1005
1CC7
  0
CIRCLE
  5
1CC8
330
1CC4
100
AcDbEntity
  8
0
100
AcDbCircle
 10
0.0
 20
-12.0
 30
0.0
 40
4.0
1001
AcDbBlockRepETag
1070
     1
1071
        1
1005
1CC8
  0
LINE
  5
1CC9
330
1CC4
100
AcDbEntity
  8
0
100
AcDbLine
 10
4.0
 20
-12.0
 30
0.0
 11
9.999992328408325
 21
-11.99040525967284
 31
0.0
1001
AcDbBlockRepETag
1070
     1
1071
        2
1005
1CC9
  0
LINE
  5
1CCA
330
1CC4
100
AcDbEntity
  8
0
100
AcDbLine
 10
7.0
 20
-10.0
 30
0.0
 11
5.0
 21
-14.0
 31
0.0
1001
AcDbBlockRepETag
1070
     1
1071
        3
1005
1CCA
  0
LINE
  5
1CCB
330
1CC4
100
AcDbEntity
  8
0
100
AcDbLine
 10
9.0
 20
-10.0
 30
0.0
 11
7.0
 21
-14.0
 31
0.0
1001
AcDbBlockRepETag
1070
     1
1071
        4
1005
1CCB
  0
ENDBLK
  5
1CC6
330
1CC4
100
AcDbEntity
  8
0
100
AcDbBlockEnd
  0
BLOCK
  5
1CD0
330
1CCF
100
AcDbEntity
  8
0
100
AcDbBlockBegin
  2
*U17
 70
     1
 10
0.0
 20
0.0
 30
0.0
  3
*U17
  1

  0
LINE
  5
1CD2
330
1CCF
100
AcDbEntity
  8
0
100
AcDbLine
 10
0.0
 20
0.0
 30
0.0
 11
0.0
 21
-24.0
 31
0.0
1001
AcDbBlockRepETag
1070
     1
1071
        0
1005
1CD2
  0
CIRCLE
  5
1CD3
330
1CCF
100
AcDbEntity
  8
0
100
AcDbCircle
 10
0.0
 20
-12.0
 30
0.0
 40
4.0
1001
AcDbBlockRepETag
1070
     1
1071
        1
1005
1CD3
  0
LINE
  5
1CD4
330
1CCF
100
AcDbEntity
  8
0
100
AcDbLine
 10
4.0
 20
-12.0
 30
0.0
 11
9.999992328408325
 21
-11.99040525967284
 31
0.0
1001
AcDbBlockRepETag
1070
     1
1071
        2
1005
1CD4
  0
LINE
  5
1CD5
330
1CCF
100
AcDbEntity
  8
0
100
AcDbLine
 10
7.0
 20
-10.0
 30
0.0
 11
5.0
 21
-14.0
 31
0.0
1001
AcDbBlockRepETag
1070
     1
1071
        3
1005
1CD5
  0
LINE
  5
1CD6
330
1CCF
100
AcDbEntity
  8
0
100
AcDbLine
 10
9.0
 20
-10.0
 30
0.0
 11
7.0
 21
-14.0
 31
0.0
1001
AcDbBlockRepETag
1070
     1
1071
        4
1005
1CD6
  0
ENDBLK
  5
1CD1
330
1CCF
100
AcDbEntity
  8
0
100
AcDbBlockEnd
  0
BLOCK
  5
1CDB
330
1CDA
100
AcDbEntity
  8
0
100
AcDbBlockBegin
  2
*U18
 70
     1
 10
0.0
 20
0.0
 30
0.0
  3
*U18
  1

  0
LINE
  5
1CDD
330
1CDA
100
AcDbEntity
  8
0
100
AcDbLine
 10
0.0
 20
0.0
 30
0.0
 11
0.0
 21
-24.0
 31
0.0
1001
AcDbBlockRepETag
1070
     1
1071
        0
1005
1CDD
  0
CIRCLE
  5
1CDE
330
1CDA
100
AcDbEntity
  8
0
100
AcDbCircle
 10
0.0
 20
-12.0
 30
0.0
 40
4.0
1001
AcDbBlockRepETag
1070
     1
1071
        1
1005
1CDE
  0
LINE
  5
1CDF
330
1CDA
100
AcDbEntity
  8
0
100
AcDbLine
 10
4.0
 20
-12.0
 30
0.0
 11
9.999992328408325
 21
-11.99040525967284
 31
0.0
1001
AcDbBlockRepETag
1070
     1
1071
        2
1005
1CDF
  0
LINE
  5
1CE0
330
1CDA
100
AcDbEntity
  8
0
100
AcDbLine
 10
7.0
 20
-10.0
 30
0.0
 11
5.0
 21
-14.0
 31
0.0
1001
AcDbBlockRepETag
1070
     1
1071
        3
1005
1CE0
  0
LINE
  5
1CE1
330
1CDA
100
AcDbEntity
  8
0
100
AcDbLine
 10
9.0
 20
-10.0
 30
0.0
 11
7.0
 21
-14.0
 31
0.0
1001
AcDbBlockRepETag
1070
     1
1071
        4
1005
1CE1
  0
ENDBLK
  5
1CDC
330
1CDA
100
AcDbEntity
  8
0
100
AcDbBlockEnd
  0
BLOCK
  5
1CE6
330
1CE5
100
AcDbEntity
  8
0
100
AcDbBlockBegin
  2
*U19
 70
     1
 10
0.0
 20
0.0
 30
0.0
  3
*U19
  1

  0
LINE
  5
1CE8
330
1CE5
100
AcDbEntity
  8
0
100
AcDbLine
 10
0.0
 20
0.0
 30
0.0
 11
0.0
 21
-24.0
 31
0.0
1001
AcDbBlockRepETag
1070
     1
1071
        0
1005
1CE8
  0
CIRCLE
  5
1CE9
330
1CE5
100
AcDbEntity
  8
0
100
AcDbCircle
 10
0.0
 20
-12.0
 30
0.0
 40
4.0
1001
AcDbBlockRepETag
1070
     1
1071
        1
1005
1CE9
  0
LINE
  5
1CEA
330
1CE5
100
AcDbEntity
  8
0
100
AcDbLine
 10
4.0
 20
-12.0
 30
0.0
 11
9.999992328408325
 21
-11.99040525967284
 31
0.0
1001
AcDbBlockRepETag
1070
     1
1071
        2
1005
1CEA
  0
LINE
  5
1CEB
330
1CE5
100
AcDbEntity
  8
0
100
AcDbLine
 10
7.0
 20
-10.0
 30
0.0
 11
5.0
 21
-14.0
 31
0.0
1001
AcDbBlockRepETag
1070
     1
1071
        3
1005
1CEB
  0
LINE
  5
1CEC
330
1CE5
100
AcDbEntity
  8
0
100
AcDbLine
 10
9.0
 20
-10.0
 30
0.0
 11
7.0
 21
-14.0
 31
0.0
1001
AcDbBlockRepETag
1070
     1
1071
        4
1005
1CEC
  0
ENDBLK
  5
1CE7
330
1CE5
100
AcDbEntity
  8
0
100
AcDbBlockEnd
  0
BLOCK
  5
1CF1
330
1CF0
100
AcDbEntity
  8
0
100
AcDbBlockBegin
  2
*U20
 70
     1
 10
0.0
 20
0.0
 30
0.0
  3
*U20
  1

  0
LINE
  5
1CF3
330
1CF0
100
AcDbEntity
  8
0
100
AcDbLine
 10
0.0
 20
0.0
 30
0.0
 11
0.0
 21
-4.0
 31
0.0
1001
AcDbBlockRepETag
1070
     1
1071
        0
1005
1CF3
  0
LINE
  5
1CF4
330
1CF0
100
AcDbEntity
  8
0
100
AcDbLine
 10
-2.0
 20
-4.0
 30
0.0
 11
2.0
 21
-4.0
 31
0.0
1001
AcDbBlockRepETag
1070
     1
1071
        1
1005
1CF4
  0
LINE
  5
1CF5
330
1CF0
100
AcDbEntity
  8
0
100
AcDbLine
 10
2.0
 20
-4.0
 30
0.0
 11
2.0
 21
-12.0
 31
0.0
1001
AcDbBlockRepETag
1070
     1
1071
        2
1005
1CF5
  0
LINE
  5
1CF6
330
1CF0
100
AcDbEntity
  8
0
100
AcDbLine
 10
2.0
 20
-12.0
 30
0.0
 11
-2.0
 21
-12.0
 31
0.0
1001
AcDbBlockRepETag
1070
     1
1071
        3
1005
1CF6
  0
LINE
  5
1CF7
330
1CF0
100
AcDbEntity
  8
0
100
AcDbLine
 10
-2.0
 20
-12.0
 30
0.0
 11
-2.0
 21
-4.0
 31
0.0
1001
AcDbBlockRepETag
1070
     1
1071
        4
1005
1CF7
  0
LINE
  5
1CF8
330
1CF0
100
AcDbEntity
  8
0
100
AcDbLine
 10
0.0
 20
-16.0
 30
0.0
 11
0.0
 21
-12.0
 31
0.0
1001
AcDbBlockRepETag
1070
     1
1071
        5
1005
1CF8
  0
LINE
  5
1CF9
330
1CF0
100
AcDbEntity
  8
0
100
AcDbLine
 10
0.0
 20
-4.0
 30
0.0
 11
0.0
 21
-4.5
 31
0.0
1001
AcDbBlockRepETag
1070
     1
1071
        6
1005
1CF9
  0
HATCH
  5
1CFA
330
1CF0
100
AcDbEntity
  8
0
100
AcDbHatch
 10
0.0
 20
0.0
 30
0.0
210
0.0
220
0.0
230
1.0
  2
SOLID
 70
     1
 71
     1
 91
        1
 92
        1
 93
        4
 72
     1
 10
0.0
 20
-4.5
 11
1.5
 21
-4.5
 72
     1
 10
1.5
 20
-4.5
 11
0.0
 21
-8.0
 72
     1
 10
0.0
 20
-8.0
 11
-1.5
 21
-4.5
 72
     1
 10
-1.5
 20
-4.5
 11
0.0
 21
-4.5
 97
        4
330
1CFB
330
1CFD
330
1CFE
330
1CFC
 75
     0
 76
     1
 98
        1
 10
-3024.0
 20
314.0
450
        0
451
        0
460
0.0
461
0.0
452
        1
462
1.0
453
        2
463
0.0
 63
     5
421
      255
463
1.0
 63
     7
421
 16777215
470
LINEAR
1001
ACAD
1010
0.0
1020
0.0
1030
0.0
1001
AcDbBlockRepETag
1070
     1
1071
       11
1005
1CFA
  0
LINE
  5
1CFB
102
{ACAD_REACTORS
330
1CFA
102
}
330
1CF0
100
AcDbEntity
  8
0
100
AcDbLine
 10
0.0
 20
-4.5
 30
0.0
 11
1.5
 21
-4.5
 31
0.0
1001
AcDbBlockRepETag
1070
     1
1071
        7
1005
1CFB
  0
LINE
  5
1CFC
102
{ACAD_REACTORS
330
1CFA
102
}
330
1CF0
100
AcDbEntity
  8
0
100
AcDbLine
 10
0.0
 20
-4.5
 30
0.0
 11
-1.5
 21
-4.5
 31
0.0
1001
AcDbBlockRepETag
1070
     1
1071
        8
1005
1CFC
  0
LINE
  5
1CFD
102
{ACAD_REACTORS
330
1CFA
102
}
330
1CF0
100
AcDbEntity
  8
0
100
AcDbLine
 10
0.0
 20
-8.0
 30
0.0
 11
1.5
 21
-4.5
 31
0.0
1001
AcDbBlockRepETag
1070
     1
1071
        9
1005
1CFD
  0
LINE
  5
1CFE
102
{ACAD_REACTORS
330
1CFA
102
}
330
1CF0
100
AcDbEntity
  8
0
100
AcDbLine
 10
0.0
 20
-8.0
 30
0.0
 11
-1.5
 21
-4.5
 31
0.0
1001
AcDbBlockRepETag
1070
     1
1071
       10
1005
1CFE
  0
ENDBLK
  5
1CF2
330
1CF0
100
AcDbEntity
  8
0
100
AcDbBlockEnd
  0
BLOCK
  5
20FB
330
20FA
100
AcDbEntity
  8
0
100
AcDbBlockBegin
  2
*U21
 70
     1
 10
0.0
 20
0.0
 30
0.0
  3
*U21
  1

  0
LINE
  5
20FD
330
20FA
100
AcDbEntity
  8
0
100
AcDbLine
 10
0.0
 20
0.0
 30
0.0
 11
0.0
 21
15.0
 31
0.0
1001
AcDbBlockRepETag
1070
     1
1071
        0
1005
20FD
  0
HATCH
  5
20FE
330
20FA
100
AcDbEntity
  8
0
100
AcDbHatch
 10
0.0
 20
0.0
 30
0.0
210
0.0
220
0.0
230
1.0
  2
SOLID
 70
     1
 71
     1
 91
        1
 92
        1
 93
        3
 72
     1
 10
0.0
 20
15.0
 11
-2.0
 21
10.99999910797555
 72
     1
 10
-2.0
 20
10.99999910797555
 11
2.0
 21
10.99999910797555
 72
     1
 10
2.0
 20
10.99999910797555
 11
0.0
 21
15.0
 97
        3
330
20FF
330
2100
330
2101
 75
     0
 76
     1
 98
        1
 10
-854.0
 20
84.99999910797555
450
        0
451
        0
460
0.0
461
0.0
452
        1
462
1.0
453
        2
463
0.0
 63
     5
421
      255
463
1.0
 63
     7
421
 16777215
470
LINEAR
1001
ACAD
1010
0.0
1020
0.0
1030
0.0
1001
AcDbBlockRepETag
1070
     1
1071
        1
1005
20FE
  0
LINE
  5
20FF
102
{ACAD_REACTORS
330
20FE
102
}
330
20FA
100
AcDbEntity
  8
0
100
AcDbLine
 10
0.0
 20
15.0
 30
0.0
 11
-2.0
 21
10.99999910797555
 31
0.0
1001
AcDbBlockRepETag
1070
     1
1071
        2
1005
20FF
  0
LINE
  5
2100
102
{ACAD_REACTORS
330
20FE
102
}
330
20FA
100
AcDbEntity
  8
0
100
AcDbLine
 10
-2.0
 20
10.99999910797555
 30
0.0
 11
2.0
 21
10.99999910797555
 31
0.0
1001
AcDbBlockRepETag
1070
     1
1071
        3
1005
2100
  0
LINE
  5
2101
102
{ACAD_REACTORS
330
20FE
102
}
330
20FA
100
AcDbEntity
  8
0
100
AcDbLine
 10
2.0
 20
10.99999910797555
 30
0.0
 11
0.0
 21
15.0
 31
0.0
1001
AcDbBlockRepETag
1070
     1
1071
        4
1005
2101
  0
ENDBLK
  5
20FC
330
20FA
100
AcDbEntity
  8
0
100
AcDbBlockEnd
  0
BLOCK
  5
2106
330
2105
100
AcDbEntity
  8
0
100
AcDbBlockBegin
  2
*U22
 70
     1
 10
0.0
 20
0.0
 30
0.0
  3
*U22
  1

  0
LINE
  5
2108
330
2105
100
AcDbEntity
  8
0
100
AcDbLine
 10
0.0
 20
0.0
 30
0.0
 11
0.0
 21
15.0
 31
0.0
1001
AcDbBlockRepETag
1070
     1
1071
        0
1005
2108
  0
HATCH
  5
2109
330
2105
100
AcDbEntity
  8
0
100
AcDbHatch
 10
0.0
 20
0.0
 30
0.0
210
0.0
220
0.0
230
1.0
  2
SOLID
 70
     1
 71
     1
 91
        1
 92
        1
 93
        3
 72
     1
 10
0.0
 20
15.0
 11
-2.0
 21
10.99999910797555
 72
     1
 10
-2.0
 20
10.99999910797555
 11
2.0
 21
10.99999910797555
 72
     1
 10
2.0
 20
10.99999910797555
 11
0.0
 21
15.0
 97
        3
330
210A
330
210B
330
210C
 75
     0
 76
     1
 98
        1
 10
-854.0
 20
84.99999910797555
450
        0
451
        0
460
0.0
461
0.0
452
        1
462
1.0
453
        2
463
0.0
 63
     5
421
      255
463
1.0
 63
     7
421
 16777215
470
LINEAR
1001
ACAD
1010
0.0
1020
0.0
1030
0.0
1001
AcDbBlockRepETag
1070
     1
1071
        1
1005
2109
  0
LINE
  5
210A
102
{ACAD_REACTORS
330
2109
102
}
330
2105
100
AcDbEntity
  8
0
100
AcDbLine
 10
0.0
 20
15.0
 30
0.0
 11
-2.0
 21
10.99999910797555
 31
0.0
1001
AcDbBlockRepETag
1070
     1
1071
        2
1005
210A
  0
LINE
  5
210B
102
{ACAD_REACTORS
330
2109
102
}
330
2105
100
AcDbEntity
  8
0
100
AcDbLine
 10
-2.0
 20
10.99999910797555
 30
0.0
 11
2.0
 21
10.99999910797555
 31
0.0
1001
AcDbBlockRepETag
1070
     1
1071
        3
1005
210B
  0
LINE
  5
210C
102
{ACAD_REACTORS
330
2109
102
}
330
2105
100
AcDbEntity
  8
0
100
AcDbLine
 10
2.0
 20
10.99999910797555
 30
0.0
 11
0.0
 21
15.0
 31
0.0
1001
AcDbBlockRepETag
1070
     1
1071
        4
1005
210C
  0
ENDBLK
  5
2107
330
2105
100
AcDbEntity
  8
0
100
AcDbBlockEnd
  0
BLOCK
  5
2111
330
2110
100
AcDbEntity
  8
0
100
AcDbBlockBegin
  2
*U23
 70
     1
 10
0.0
 20
0.0
 30
0.0
  3
*U23
  1

  0
LINE
  5
2113
330
2110
100
AcDbEntity
  8
0
100
AcDbLine
 10
0.0
 20
0.0
 30
0.0
 11
0.0
 21
15.0
 31
0.0
1001
AcDbBlockRepETag
1070
     1
1071
        0
1005
2113
  0
HATCH
  5
2114
330
2110
100
AcDbEntity
  8
0
100
AcDbHatch
 10
0.0
 20
0.0
 30
0.0
210
0.0
220
0.0
230
1.0
  2
SOLID
 70
     1
 71
     1
 91
        1
 92
        1
 93
        3
 72
     1
 10
0.0
 20
15.0
 11
-2.0
 21
10.99999910797555
 72
     1
 10
-2.0
 20
10.99999910797555
 11
2.0
 21
10.99999910797555
 72
     1
 10
2.0
 20
10.99999910797555
 11
0.0
 21
15.0
 97
        3
330
2115
330
2116
330
2117
 75
     0
 76
     1
 98
        1
 10
-854.0
 20
84.99999910797555
450
        0
451
        0
460
0.0
461
0.0
452
        1
462
1.0
453
        2
463
0.0
 63
     5
421
      255
463
1.0
 63
     7
421
 16777215
470
LINEAR
1001
ACAD
1010
0.0
1020
0.0
1030
0.0
1001
AcDbBlockRepETag
1070
     1
1071
        1
1005
2114
  0
LINE
  5
2115
102
{ACAD_REACTORS
330
2114
102
}
330
2110
100
AcDbEntity
  8
0
100
AcDbLine
 10
0.0
 20
15.0
 30
0.0
 11
-2.0
 21
10.99999910797555
 31
0.0
1001
AcDbBlockRepETag
1070
     1
1071
        2
1005
2115
  0
LINE
  5
2116
102
{ACAD_REACTORS
330
2114
102
}
330
2110
100
AcDbEntity
  8
0
100
AcDbLine
 10
-2.0
 20
10.99999910797555
 30
0.0
 11
2.0
 21
10.99999910797555
 31
0.0
1001
AcDbBlockRepETag
1070
     1
1071
        3
1005
2116
  0
LINE
  5
2117
102
{ACAD_REACTORS
330
2114
102
}
330
2110
100
AcDbEntity
  8
0
100
AcDbLine
 10
2.0
 20
10.99999910797555
 30
0.0
 11
0.0
 21
15.0
 31
0.0
1001
AcDbBlockRepETag
1070
     1
1071
        4
1005
2117
  0
ENDBLK
  5
2112
330
2110
100
AcDbEntity
  8
0
100
AcDbBlockEnd
  0
BLOCK
  5
3B28
330
3B26
100
AcDbEntity
  8
0
100
AcDbBlockBegin
  2
DM-Knife Switch
 70
     0
 10
0.0
 20
0.0
 30
0.0
  3
DM-Knife Switch
  1

  0
LINE
  5
3B29
330
3B26
100
AcDbEntity
  8
0
100
AcDbLine
 10
1781.69991981517
 20
316.1466945805651
 30
0.0
 11
1781.69991981517
 21
313.1466945805651
 31
0.0
  0
CIRCLE
  5
3B2A
330
3B26
100
AcDbEntity
  8
0
100
AcDbCircle
 10
1781.69991981517
 20
312.146694580565
 30
0.0
 40
1.0
  0
LINE
  5
3B2B
330
3B26
100
AcDbEntity
  8
0
100
AcDbLine
 10
1781.69991981517
 20
292.1466945805651
 30
0.0
 11
1781.69991981517
 21
295.146694580565
 31
0.0
  0
CIRCLE
  5
3B2C
330
3B26
100
AcDbEntity
  8
0
100
AcDbCircle
 10
1781.69991981517
 20
296.146694580565
 30
0.0
 40
1.0
  0
LINE
  5
3B2D
330
3B26
100
AcDbEntity
  8
0
100
AcDbLine
 10
1780.69991981517
 20
296.146694580565
 30
0.0
 11
1772.69991981517
 21
312.146694580565
 31
0.0
  0
ENDBLK
  5
3B2E
330
3B26
100
AcDbEntity
  8
0
100
AcDbBlockEnd
  0
BLOCK
  5
3B34
330
3B2F
100
AcDbEntity
  8
0
100
AcDbBlockBegin
  2
DM-HV FUSE
 70
     0
 10
0.0
 20
0.0
 30
0.0
  3
DM-HV FUSE
  1

  0
LINE
  5
3B35
330
3B2F
100
AcDbEntity
  8
0
100
AcDbLine
 10
0.0
 20
24.0
 30
0.0
 11
0.0
 21
20.0
 31
0.0
1001
AcDbBlockRepETag
1070
     1
1071
        0
1005
3B35
  0
LWPOLYLINE
  5
3B36
330
3B2F
100
AcDbEntity
  8
0
100
AcDbPolyline
 90
        4
 70
     1
 43
0.0
 10
-4.0
 20
20.0
 10
4.0
 20
20.0
 10
4.0
 20
4.0
 10
-4.0
 20
4.0
1001
AcDbBlockRepETag
1070
     1
1071
        1
1005
3B36
  0
LINE
  5
3B37
330
3B2F
100
AcDbEntity
  8
0
100
AcDbLine
 10
0.0
 20
0.0
 30
0.0
 11
0.0
 21
4.0
 31
0.0
1001
AcDbBlockRepETag
1070
     1
1071
        2
1005
3B37
  0
LINE
  5
3B38
330
3B2F
100
AcDbEntity
  8
0
100
AcDbLine
 10
0.0
 20
4.0
 30
0.0
 11
0.0
 21
20.0
 31
0.0
1001
AcDbBlockRepETag
1070
     1
1071
        3
1005
3B38
  0
ENDBLK
  5
3B39
330
3B2F
100
AcDbEntity
  8
0
100
AcDbBlockEnd
  0
BLOCK
  5
4B23
330
4B22
100
AcDbEntity
  8
0
100
AcDbBlockBegin
  2
*U26
 70
     1
 10
0.0
 20
0.0
 30
0.0
  3
*U26
  1

  0
LINE
  5
4B25
330
4B22
100
AcDbEntity
  8
0
100
AcDbLine
 10
0.0
 20
0.0
 30
0.0
 11
0.0
 21
-4.0
 31
0.0
1001
AcDbBlockRepETag
1070
     1
1071
        0
1005
4B25
  0
LINE
  5
4B26
330
4B22
100
AcDbEntity
  8
0
100
AcDbLine
 10
-2.0
 20
-4.0
 30
0.0
 11
2.0
 21
-4.0
 31
0.0
1001
AcDbBlockRepETag
1070
     1
1071
        1
1005
4B26
  0
LINE
  5
4B27
330
4B22
100
AcDbEntity
  8
0
100
AcDbLine
 10
-1.0
 20
-5.0
 30
0.0
 11
1.0
 21
-5.0
 31
0.0
1001
AcDbBlockRepETag
1070
     1
1071
        2
1005
4B27
  0
LINE
  5
4B28
330
4B22
100
AcDbEntity
  8
0
100
AcDbLine
 10
0.0
 20
-6.0
 30
0.0
 11
0.0
 21
-6.0
 31
0.0
1001
AcDbBlockRepETag
1070
     1
1071
        3
1005
4B28
  0
LINE
  5
4B29
330
4B22
100
AcDbEntity
  8
0
100
AcDbLine
 10
0.5
 20
-6.0
 30
0.0
 11
-0.5
 21
-6.0
 31
0.0
1001
AcDbBlockRepETag
1070
     1
1071
        4
1005
4B29
  0
ENDBLK
  5
4B24
330
4B22
100
AcDbEntity
  8
0
100
AcDbBlockEnd
  0
BLOCK
  5
4B39
330
4B38
100
AcDbEntity
  8
0
100
AcDbBlockBegin
  2
*U27
 70
     1
 10
0.0
 20
0.0
 30
0.0
  3
*U27
  1

  0
LINE
  5
4B3B
330
4B38
100
AcDbEntity
  8
0
100
AcDbLine
 10
0.0
 20
0.0
 30
0.0
 11
0.0
 21
-4.0
 31
0.0
1001
AcDbBlockRepETag
1070
     1
1071
        0
1005
4B3B
  0
LINE
  5
4B3C
330
4B38
100
AcDbEntity
  8
0
100
AcDbLine
 10
-2.0
 20
-4.0
 30
0.0
 11
2.0
 21
-4.0
 31
0.0
1001
AcDbBlockRepETag
1070
     1
1071
        1
1005
4B3C
  0
LINE
  5
4B3D
330
4B38
100
AcDbEntity
  8
0
100
AcDbLine
 10
-1.0
 20
-5.0
 30
0.0
 11
1.0
 21
-5.0
 31
0.0
1001
AcDbBlockRepETag
1070
     1
1071
        2
1005
4B3D
  0
LINE
  5
4B3E
330
4B38
100
AcDbEntity
  8
0
100
AcDbLine
 10
0.0
 20
-6.0
 30
0.0
 11
0.0
 21
-6.0
 31
0.0
1001
AcDbBlockRepETag
1070
     1
1071
        3
1005
4B3E
  0
LINE
  5
4B3F
330
4B38
100
AcDbEntity
  8
0
100
AcDbLine
 10
0.5
 20
-6.0
 30
0.0
 11
-0.5
 21
-6.0
 31
0.0
1001
AcDbBlockRepETag
1070
     1
1071
        4
1005
4B3F
  0
ENDBLK
  5
4B3A
330
4B38
100
AcDbEntity
  8
0
100
AcDbBlockEnd
  0
BLOCK
  5
518D
330
518C
100
AcDbEntity
  8
0
100
AcDbBlockBegin
  2
*U28
 70
     1
 10
0.0
 20
0.0
 30
0.0
  3
*U28
  1

  0
LINE
  5
518F
330
518C
100
AcDbEntity
  8
0
100
AcDbLine
 10
0.0
 20
0.0
 30
0.0
 11
0.0
 21
15.0
 31
0.0
1001
AcDbBlockRepETag
1070
     1
1071
        0
1005
518F
  0
HATCH
  5
5190
330
518C
100
AcDbEntity
  8
0
100
AcDbHatch
 10
0.0
 20
0.0
 30
0.0
210
0.0
220
0.0
230
1.0
  2
SOLID
 70
     1
 71
     1
 91
        1
 92
        1
 93
        3
 72
     1
 10
0.0
 20
15.0
 11
-2.0
 21
10.99999910797555
 72
     1
 10
-2.0
 20
10.99999910797555
 11
2.0
 21
10.99999910797555
 72
     1
 10
2.0
 20
10.99999910797555
 11
0.0
 21
15.0
 97
        3
330
5191
330
5192
330
5193
 75
     0
 76
     1
 98
        1
 10
-854.0
 20
84.99999910797555
450
        0
451
        0
460
0.0
461
0.0
452
        1
462
1.0
453
        2
463
0.0
 63
     5
421
      255
463
1.0
 63
     7
421
 16777215
470
LINEAR
1001
ACAD
1010
0.0
1020
0.0
1030
0.0
1001
AcDbBlockRepETag
1070
     1
1071
        1
1005
5190
  0
LINE
  5
5191
102
{ACAD_REACTORS
330
5190
102
}
330
518C
100
AcDbEntity
  8
0
100
AcDbLine
 10
0.0
 20
15.0
 30
0.0
 11
-2.0
 21
10.99999910797555
 31
0.0
1001
AcDbBlockRepETag
1070
     1
1071
        2
1005
5191
  0
LINE
  5
5192
102
{ACAD_REACTORS
330
5190
102
}
330
518C
100
AcDbEntity
  8
0
100
AcDbLine
 10
-2.0
 20
10.99999910797555
 30
0.0
 11
2.0
 21
10.99999910797555
 31
0.0
1001
AcDbBlockRepETag
1070
     1
1071
        3
1005
5192
  0
LINE
  5
5193
102
{ACAD_REACTORS
330
5190
102
}
330
518C
100
AcDbEntity
  8
0
100
AcDbLine
 10
2.0
 20
10.99999910797555
 30
0.0
 11
0.0
 21
15.0
 31
0.0
1001
AcDbBlockRepETag
1070
     1
1071
        4
1005
5193
  0
ENDBLK
  5
518E
330
518C
100
AcDbEntity
  8
0
100
AcDbBlockEnd
  0
BLOCK
  5
5198
330
5197
100
AcDbEntity
  8
0
100
AcDbBlockBegin
  2
*U29
 70
     1
 10
0.0
 20
0.0
 30
0.0
  3
*U29
  1

  0
LINE
  5
519A
330
5197
100
AcDbEntity
  8
0
100
AcDbLine
 10
0.0
 20
0.0
 30
0.0
 11
0.0
 21
-3.0
 31
0.0
1001
AcDbBlockRepETag
1070
     1
1071
        0
1005
519A
  0
LINE
  5
519B
330
5197
100
AcDbEntity
  8
0
100
AcDbLine
 10
2.0
 20
-3.0
 30
0.0
 11
-2.0
 21
-3.0
 31
0.0
1001
AcDbBlockRepETag
1070
     1
1071
        1
1005
519B
  0
LINE
  5
519C
330
5197
100
AcDbEntity
  8
0
100
AcDbLine
 10
-2.0
 20
-5.0
 30
0.0
 11
2.0
 21
-5.0
 31
0.0
1001
AcDbBlockRepETag
1070
     1
1071
        2
1005
519C
  0
LINE
  5
519D
330
5197
100
AcDbEntity
  8
0
100
AcDbLine
 10
0.0
 20
-8.0
 30
0.0
 11
0.0
 21
-5.0
 31
0.0
1001
AcDbBlockRepETag
1070
     1
1071
        3
1005
519D
  0
CIRCLE
  5
519E
330
5197
100
AcDbEntity
  8
0
100
AcDbCircle
 10
0.0
 20
-10.5
 30
0.0
 40
2.5
1001
AcDbBlockRepETag
1070
     1
1071
        4
1005
519E
  0
LINE
  5
519F
330
5197
100
AcDbEntity
  8
0
100
AcDbLine
 10
0.0
 20
-16.0
 30
0.0
 11
0.0
 21
-13.0
 31
0.0
1001
AcDbBlockRepETag
1070
     1
1071
        5
1005
519F
  0
LINE
  5
51A0
330
5197
100
AcDbEntity
  8
0
100
AcDbLine
 10
0.0
 20
-10.5
 30
0.0
 11
0.0
 21
-10.5
 31
0.0
1001
AcDbBlockRepETag
1070
     1
1071
        6
1005
51A0
  0
LINE
  5
51A1
330
5197
100
AcDbEntity
  8
0
100
AcDbLine
 10
0.0
 20
-10.5
 30
0.0
 11
0.0
 21
-10.5
 31
0.0
1001
AcDbBlockRepETag
1070
     1
1071
        7
1005
51A1
  0
LINE
  5
51A2
330
5197
100
AcDbEntity
  8
0
100
AcDbLine
 10
0.0
 20
-10.5
 30
0.0
 11
0.0
 21
-10.5
 31
0.0
1001
AcDbBlockRepETag
1070
     1
1071
        8
1005
51A2
  0
LINE
  5
51A3
330
5197
100
AcDbEntity
  8
0
100
AcDbLine
 10
0.0
 20
-10.5
 30
0.0
 11
0.0
 21
-10.5
 31
0.0
1001
AcDbBlockRepETag
1070
     1
1071
        9
1005
51A3
  0
LINE
  5
51A4
330
5197
100
AcDbEntity
  8
0
100
AcDbLine
 10
0.0
 20
-10.5
 30
0.0
 11
0.0
 21
-10.5
 31
0.0
1001
AcDbBlockRepETag
1070
     1
1071
       10
1005
51A4
  0
LINE
  5
51A5
330
5197
100
AcDbEntity
  8
0
100
AcDbLine
 10
0.0
 20
-10.5
 30
0.0
 11
0.0
 21
-10.5
 31
0.0
1001
AcDbBlockRepETag
1070
     1
1071
       11
1005
51A5
  0
LINE
  5
51A6
330
5197
100
AcDbEntity
  8
0
100
AcDbLine
 10
0.0
 20
-10.5
 30
0.0
 11
-1.767766952966212
 21
-8.732233047033616
 31
0.0
1001
AcDbBlockRepETag
1070
     1
1071
       12
1005
51A6
  0
LINE
  5
51A7
330
5197
100
AcDbEntity
  8
0
100
AcDbLine
 10
0.0
 20
-10.5
 30
0.0
 11
1.767766952966212
 21
-8.732233047033616
 31
0.0
1001
AcDbBlockRepETag
1070
     1
1071
       13
1005
51A7
  0
LINE
  5
51A8
330
5197
100
AcDbEntity
  8
0
100
AcDbLine
 10
0.0
 20
-10.5
 30
0.0
 11
1.767766952966212
 21
-12.26776695296638
 31
0.0
1001
AcDbBlockRepETag
1070
     1
1071
       14
1005
51A8
  0
LINE
  5
51A9
330
5197
100
AcDbEntity
  8
0
100
AcDbLine
 10
0.0
 20
-10.5
 30
0.0
 11
-1.767766952966212
 21
-12.26776695296638
 31
0.0
1001
AcDbBlockRepETag
1070
     1
1071
       15
1005
51A9
  0
ENDBLK
  5
5199
330
5197
100
AcDbEntity
  8
0
100
AcDbBlockEnd
  0
BLOCK
  5
51AE
330
51AD
100
AcDbEntity
  8
0
100
AcDbBlockBegin
  2
*U30
 70
     1
 10
0.0
 20
0.0
 30
0.0
  3
*U30
  1

  0
LINE
  5
51B0
330
51AD
100
AcDbEntity
  8
0
100
AcDbLine
 10
0.0
 20
0.0
 30
0.0
 11
0.0
 21
-4.0
 31
0.0
1001
AcDbBlockRepETag
1070
     1
1071
        0
1005
51B0
  0
LINE
  5
51B1
330
51AD
100
AcDbEntity
  8
0
100
AcDbLine
 10
-2.0
 20
-4.0
 30
0.0
 11
2.0
 21
-4.0
 31
0.0
1001
AcDbBlockRepETag
1070
     1
1071
        1
1005
51B1
  0
LINE
  5
51B2
330
51AD
100
AcDbEntity
  8
0
100
AcDbLine
 10
-1.0
 20
-5.0
 30
0.0
 11
1.0
 21
-5.0
 31
0.0
1001
AcDbBlockRepETag
1070
     1
1071
        2
1005
51B2
  0
LINE
  5
51B3
330
51AD
100
AcDbEntity
  8
0
100
AcDbLine
 10
0.0
 20
-6.0
 30
0.0
 11
0.0
 21
-6.0
 31
0.0
1001
AcDbBlockRepETag
1070
     1
1071
        3
1005
51B3
  0
LINE
  5
51B4
330
51AD
100
AcDbEntity
  8
0
100
AcDbLine
 10
0.5
 20
-6.0
 30
0.0
 11
-0.5
 21
-6.0
 31
0.0
1001
AcDbBlockRepETag
1070
     1
1071
        4
1005
51B4
  0
ENDBLK
  5
51AF
330
51AD
100
AcDbEntity
  8
0
100
AcDbBlockEnd
  0
BLOCK
  5
51B9
330
51B8
100
AcDbEntity
  8
0
100
AcDbBlockBegin
  2
*U31
 70
     1
 10
0.0
 20
0.0
 30
0.0
  3
*U31
  1

  0
LINE
  5
51BB
330
51B8
100
AcDbEntity
  8
0
100
AcDbLine
 10
0.0
 20
0.0
 30
0.0
 11
0.0
 21
-4.0
 31
0.0
1001
AcDbBlockRepETag
1070
     1
1071
        0
1005
51BB
  0
LINE
  5
51BC
330
51B8
100
AcDbEntity
  8
0
100
AcDbLine
 10
-2.0
 20
-4.0
 30
0.0
 11
2.0
 21
-4.0
 31
0.0
1001
AcDbBlockRepETag
1070
     1
1071
        1
1005
51BC
  0
LINE
  5
51BD
330
51B8
100
AcDbEntity
  8
0
100
AcDbLine
 10
-1.0
 20
-5.0
 30
0.0
 11
1.0
 21
-5.0
 31
0.0
1001
AcDbBlockRepETag
1070
     1
1071
        2
1005
51BD
  0
LINE
  5
51BE
330
51B8
100
AcDbEntity
  8
0
100
AcDbLine
 10
0.0
 20
-6.0
 30
0.0
 11
0.0
 21
-6.0
 31
0.0
1001
AcDbBlockRepETag
1070
     1
1071
        3
1005
51BE
  0
LINE
  5
51BF
330
51B8
100
AcDbEntity
  8
0
100
AcDbLine
 10
0.5
 20
-6.0
 30
0.0
 11
-0.5
 21
-6.0
 31
0.0
1001
AcDbBlockRepETag
1070
     1
1071
        4
1005
51BF
  0
ENDBLK
  5
51BA
330
51B8
100
AcDbEntity
  8
0
100
AcDbBlockEnd
  0
BLOCK
  5
526A
330
5269
100
AcDbEntity
  8
0
100
AcDbBlockBegin
  2
*U32
 70
     1
 10
0.0
 20
0.0
 30
0.0
  3
*U32
  1

  0
LINE
  5
526C
330
5269
100
AcDbEntity
  8
0
100
AcDbLine
 10
0.0
 20
0.0
 30
0.0
 11
0.0
 21
15.0
 31
0.0
1001
AcDbBlockRepETag
1070
     1
1071
        0
1005
526C
  0
HATCH
  5
526D
330
5269
100
AcDbEntity
  8
0
100
AcDbHatch
 10
0.0
 20
0.0
 30
0.0
210
0.0
220
0.0
230
1.0
  2
SOLID
 70
     1
 71
     1
 91
        1
 92
        1
 93
        3
 72
     1
 10
0.0
 20
15.0
 11
-2.0
 21
10.99999910797555
 72
     1
 10
-2.0
 20
10.99999910797555
 11
2.0
 21
10.99999910797555
 72
     1
 10
2.0
 20
10.99999910797555
 11
0.0
 21
15.0
 97
        3
330
526E
330
526F
330
5270
 75
     0
 76
     1
 98
        1
 10
-854.0
 20
84.99999910797555
450
        0
451
        0
460
0.0
461
0.0
452
        1
462
1.0
453
        2
463
0.0
 63
     5
421
      255
463
1.0
 63
     7
421
 16777215
470
LINEAR
1001
ACAD
1010
0.0
1020
0.0
1030
0.0
1001
AcDbBlockRepETag
1070
     1
1071
        1
1005
526D
  0
LINE
  5
526E
102
{ACAD_REACTORS
330
526D
102
}
330
5269
100
AcDbEntity
  8
0
100
AcDbLine
 10
0.0
 20
15.0
 30
0.0
 11
-2.0
 21
10.99999910797555
 31
0.0
1001
AcDbBlockRepETag
1070
     1
1071
        2
1005
526E
  0
LINE
  5
526F
102
{ACAD_REACTORS
330
526D
102
}
330
5269
100
AcDbEntity
  8
0
100
AcDbLine
 10
-2.0
 20
10.99999910797555
 30
0.0
 11
2.0
 21
10.99999910797555
 31
0.0
1001
AcDbBlockRepETag
1070
     1
1071
        3
1005
526F
  0
LINE
  5
5270
102
{ACAD_REACTORS
330
526D
102
}
330
5269
100
AcDbEntity
  8
0
100
AcDbLine
 10
2.0
 20
10.99999910797555
 30
0.0
 11
0.0
 21
15.0
 31
0.0
1001
AcDbBlockRepETag
1070
     1
1071
        4
1005
5270
  0
ENDBLK
  5
526B
330
5269
100
AcDbEntity
  8
0
100
AcDbBlockEnd
  0
BLOCK
  5
5275
330
5274
100
AcDbEntity
  8
0
100
AcDbBlockBegin
  2
*U33
 70
     1
 10
0.0
 20
0.0
 30
0.0
  3
*U33
  1

  0
LINE
  5
5277
330
5274
100
AcDbEntity
  8
0
100
AcDbLine
 10
-4.0
 20
-6.0
 30
0.0
 11
4.0
 21
-6.0
 31
0.0
1001
AcDbBlockRepETag
1070
     1
1071
        1
1005
5277
  0
LINE
  5
5278
330
5274
100
AcDbEntity
  8
0
100
AcDbLine
 10
0.0
 20
0.0
 30
0.0
 11
0.0
 21
-6.0
 31
0.0
1001
AcDbBlockRepETag
1070
     1
1071
        2
1005
5278
  0
LINE
  5
5279
330
5274
100
AcDbEntity
  8
0
100
AcDbLine
 10
0.0000004987477951
 20
-20.0
 30
0.0
 11
-8.0
 21
-6.0
 31
0.0
1001
AcDbBlockRepETag
1070
     1
1071
        3
1005
5279
  0
LINE
  5
527A
330
5274
100
AcDbEntity
  8
0
 48
0.1
100
AcDbLine
 10
0.0000004987477951
 20
-20.0
 30
0.0
 11
0.0000004987477951
 21
-32.0
 31
0.0
1001
AcDbBlockRepETag
1070
     1
1071
        4
1005
527A
  0
LINE
  5
527B
330
5274
100
AcDbEntity
  8
0
100
AcDbLine
 10
0.0000004987477951
 20
-32.0
 30
0.0
 11
0.0000004987477951
 21
-40.0
 31
0.0
1001
AcDbBlockRepETag
1070
     1
1071
        0
1005
527B
  0
LINE
  5
527C
330
5274
100
AcDbEntity
  8
0
100
AcDbLine
 10
-3.999999501252204
 20
-40.0
 30
0.0
 11
4.000000498747795
 21
-40.0
 31
0.0
1001
AcDbBlockRepETag
1070
     1
1071
        5
1005
527C
  0
LINE
  5
527D
330
5274
100
AcDbEntity
  8
0
100
AcDbLine
 10
-1.999999501252204
 20
-42.0
 30
0.0
 11
2.000000498747795
 21
-42.0
 31
0.0
1001
AcDbBlockRepETag
1070
     1
1071
        6
1005
527D
  0
LINE
  5
527E
330
5274
100
AcDbEntity
  8
0
100
AcDbLine
 10
0.0000004987477951
 20
-44.0
 30
0.0
 11
0.0000004987477951
 21
-44.0
 31
0.0
1001
AcDbBlockRepETag
1070
     1
1071
        7
1005
527E
  0
LINE
  5
527F
330
5274
100
AcDbEntity
  8
0
100
AcDbLine
 10
1.000000498747795
 20
-44.0
 30
0.0
 11
-0.9999995012522049
 21
-44.0
 31
0.0
1001
AcDbBlockRepETag
1070
     1
1071
        8
1005
527F
  0
ENDBLK
  5
5276
330
5274
100
AcDbEntity
  8
0
100
AcDbBlockEnd
  0
BLOCK
  5
5284
330
5283
100
AcDbEntity
  8
0
100
AcDbBlockBegin
  2
*U34
 70
     1
 10
0.0
 20
0.0
 30
0.0
  3
*U34
  1

  0
LINE
  5
5286
330
5283
100
AcDbEntity
  8
0
100
AcDbLine
 10
0.0
 20
0.0
 30
0.0
 11
0.0
 21
-3.0
 31
0.0
1001
AcDbBlockRepETag
1070
     1
1071
        0
1005
5286
  0
LINE
  5
5287
330
5283
100
AcDbEntity
  8
0
100
AcDbLine
 10
2.0
 20
-3.0
 30
0.0
 11
-2.0
 21
-3.0
 31
0.0
1001
AcDbBlockRepETag
1070
     1
1071
        1
1005
5287
  0
LINE
  5
5288
330
5283
100
AcDbEntity
  8
0
100
AcDbLine
 10
-2.0
 20
-5.0
 30
0.0
 11
2.0
 21
-5.0
 31
0.0
1001
AcDbBlockRepETag
1070
     1
1071
        2
1005
5288
  0
LINE
  5
5289
330
5283
100
AcDbEntity
  8
0
100
AcDbLine
 10
0.0
 20
-8.0
 30
0.0
 11
0.0
 21
-5.0
 31
0.0
1001
AcDbBlockRepETag
1070
     1
1071
        3
1005
5289
  0
CIRCLE
  5
528A
330
5283
100
AcDbEntity
  8
0
100
AcDbCircle
 10
0.0
 20
-10.5
 30
0.0
 40
2.5
1001
AcDbBlockRepETag
1070
     1
1071
        4
1005
528A
  0
LINE
  5
528B
330
5283
100
AcDbEntity
  8
0
100
AcDbLine
 10
0.0
 20
-16.0
 30
0.0
 11
0.0
 21
-13.0
 31
0.0
1001
AcDbBlockRepETag
1070
     1
1071
        5
1005
528B
  0
LINE
  5
528C
330
5283
100
AcDbEntity
  8
0
100
AcDbLine
 10
0.0
 20
-10.5
 30
0.0
 11
0.0
 21
-10.5
 31
0.0
1001
AcDbBlockRepETag
1070
     1
1071
        6
1005
528C
  0
LINE
  5
528D
330
5283
100
AcDbEntity
  8
0
100
AcDbLine
 10
0.0
 20
-10.5
 30
0.0
 11
0.0
 21
-10.5
 31
0.0
1001
AcDbBlockRepETag
1070
     1
1071
        7
1005
528D
  0
LINE
  5
528E
330
5283
100
AcDbEntity
  8
0
100
AcDbLine
 10
0.0
 20
-10.5
 30
0.0
 11
0.0
 21
-10.5
 31
0.0
1001
AcDbBlockRepETag
1070
     1
1071
        8
1005
528E
  0
LINE
  5
528F
330
5283
100
AcDbEntity
  8
0
100
AcDbLine
 10
0.0
 20
-10.5
 30
0.0
 11
0.0
 21
-10.5
 31
0.0
1001
AcDbBlockRepETag
1070
     1
1071
        9
1005
528F
  0
LINE
  5
5290
330
5283
100
AcDbEntity
  8
0
100
AcDbLine
 10
0.0
 20
-10.5
 30
0.0
 11
0.0
 21
-10.5
 31
0.0
1001
AcDbBlockRepETag
1070
     1
1071
       10
1005
5290
  0
LINE
  5
5291
330
5283
100
AcDbEntity
  8
0
100
AcDbLine
 10
0.0
 20
-10.5
 30
0.0
 11
0.0
 21
-10.5
 31
0.0
1001
AcDbBlockRepETag
1070
     1
1071
       11
1005
5291
  0
LINE
  5
5292
330
5283
100
AcDbEntity
  8
0
100
AcDbLine
 10
0.0
 20
-10.5
 30
0.0
 11
-1.767766952966212
 21
-8.732233047033616
 31
0.0
1001
AcDbBlockRepETag
1070
     1
1071
       12
1005
5292
  0
LINE
  5
5293
330
5283
100
AcDbEntity
  8
0
100
AcDbLine
 10
0.0
 20
-10.5
 30
0.0
 11
1.767766952966212
 21
-8.732233047033616
 31
0.0
1001
AcDbBlockRepETag
1070
     1
1071
       13
1005
5293
  0
LINE
  5
5294
330
5283
100
AcDbEntity
  8
0
100
AcDbLine
 10
0.0
 20
-10.5
 30
0.0
 11
1.767766952966212
 21
-12.26776695296638
 31
0.0
1001
AcDbBlockRepETag
1070
     1
1071
       14
1005
5294
  0
LINE
  5
5295
330
5283
100
AcDbEntity
  8
0
100
AcDbLine
 10
0.0
 20
-10.5
 30
0.0
 11
-1.767766952966212
 21
-12.26776695296638
 31
0.0
1001
AcDbBlockRepETag
1070
     1
1071
       15
1005
5295
  0
ENDBLK
  5
5285
330
5283
100
AcDbEntity
  8
0
100
AcDbBlockEnd
  0
BLOCK
  5
529A
330
5299
100
AcDbEntity
  8
0
100
AcDbBlockBegin
  2
*U35
 70
     1
 10
0.0
 20
0.0
 30
0.0
  3
*U35
  1

  0
LINE
  5
529C
330
5299
100
AcDbEntity
  8
0
100
AcDbLine
 10
0.0
 20
0.0
 30
0.0
 11
0.0
 21
-4.0
 31
0.0
1001
AcDbBlockRepETag
1070
     1
1071
        0
1005
529C
  0
LINE
  5
529D
330
5299
100
AcDbEntity
  8
0
100
AcDbLine
 10
-2.0
 20
-4.0
 30
0.0
 11
2.0
 21
-4.0
 31
0.0
1001
AcDbBlockRepETag
1070
     1
1071
        1
1005
529D
  0
LINE
  5
529E
330
5299
100
AcDbEntity
  8
0
100
AcDbLine
 10
-1.0
 20
-5.0
 30
0.0
 11
1.0
 21
-5.0
 31
0.0
1001
AcDbBlockRepETag
1070
     1
1071
        2
1005
529E
  0
LINE
  5
529F
330
5299
100
AcDbEntity
  8
0
100
AcDbLine
 10
0.0
 20
-6.0
 30
0.0
 11
0.0
 21
-6.0
 31
0.0
1001
AcDbBlockRepETag
1070
     1
1071
        3
1005
529F
  0
LINE
  5
52A0
330
5299
100
AcDbEntity
  8
0
100
AcDbLine
 10
0.5
 20
-6.0
 30
0.0
 11
-0.5
 21
-6.0
 31
0.0
1001
AcDbBlockRepETag
1070
     1
1071
        4
1005
52A0
  0
ENDBLK
  5
529B
330
5299
100
AcDbEntity
  8
0
100
AcDbBlockEnd
  0
BLOCK
  5
52A5
330
52A4
100
AcDbEntity
  8
0
100
AcDbBlockBegin
  2
*U36
 70
     1
 10
0.0
 20
0.0
 30
0.0
  3
*U36
  1

  0
LINE
  5
52A7
330
52A4
100
AcDbEntity
  8
0
100
AcDbLine
 10
0.0
 20
0.0
 30
0.0
 11
0.0
 21
-4.0
 31
0.0
1001
AcDbBlockRepETag
1070
     1
1071
        0
1005
52A7
  0
LINE
  5
52A8
330
52A4
100
AcDbEntity
  8
0
100
AcDbLine
 10
-2.0
 20
-4.0
 30
0.0
 11
2.0
 21
-4.0
 31
0.0
1001
AcDbBlockRepETag
1070
     1
1071
        1
1005
52A8
  0
LINE
  5
52A9
330
52A4
100
AcDbEntity
  8
0
100
AcDbLine
 10
-1.0
 20
-5.0
 30
0.0
 11
1.0
 21
-5.0
 31
0.0
1001
AcDbBlockRepETag
1070
     1
1071
        2
1005
52A9
  0
LINE
  5
52AA
330
52A4
100
AcDbEntity
  8
0
100
AcDbLine
 10
0.0
 20
-6.0
 30
0.0
 11
0.0
 21
-6.0
 31
0.0
1001
AcDbBlockRepETag
1070
     1
1071
        3
1005
52AA
  0
LINE
  5
52AB
330
52A4
100
AcDbEntity
  8
0
100
AcDbLine
 10
0.5
 20
-6.0
 30
0.0
 11
-0.5
 21
-6.0
 31
0.0
1001
AcDbBlockRepETag
1070
     1
1071
        4
1005
52AB
  0
ENDBLK
  5
52A6
330
52A4
100
AcDbEntity
  8
0
100
AcDbBlockEnd
  0
BLOCK
  5
52B0
330
52AF
100
AcDbEntity
  8
0
100
AcDbBlockBegin
  2
*U37
 70
     1
 10
0.0
 20
0.0
 30
0.0
  3
*U37
  1

  0
LINE
  5
52B2
330
52AF
100
AcDbEntity
  8
0
100
AcDbLine
 10
0.0
 20
24.0
 30
0.0
 11
0.0
 21
20.0
 31
0.0
1001
AcDbBlockRepETag
1070
     1
1071
        0
1005
52B2
  0
LWPOLYLINE
  5
52B3
330
52AF
100
AcDbEntity
  8
0
100
AcDbPolyline
 90
        4
 70
     1
 43
0.0
 10
-4.0
 20
20.0
 10
4.0
 20
20.0
 10
4.0
 20
4.0
 10
-4.0
 20
4.0
1001
AcDbBlockRepETag
1070
     1
1071
        1
1005
52B3
  0
LINE
  5
52B4
330
52AF
100
AcDbEntity
  8
0
100
AcDbLine
 10
0.0
 20
0.0
 30
0.0
 11
0.0
 21
4.0
 31
0.0
1001
AcDbBlockRepETag
1070
     1
1071
        2
1005
52B4
  0
LINE
  5
52B5
330
52AF
100
AcDbEntity
  8
0
100
AcDbLine
 10
0.0
 20
4.0
 30
0.0
 11
0.0
 21
20.0
 31
0.0
1001
AcDbBlockRepETag
1070
     1
1071
        3
1005
52B5
  0
ENDBLK
  5
52B1
330
52AF
100
AcDbEntity
  8
0
100
AcDbBlockEnd
  0
BLOCK
  5
53F6
330
53F5
100
AcDbEntity
  8
0
100
AcDbBlockBegin
  2
*U38
 70
     1
 10
0.0
 20
0.0
 30
0.0
  3
*U38
  1

  0
LINE
  5
53F8
330
53F5
100
AcDbEntity
  8
0
100
AcDbLine
 10
0.0
 20
0.0
 30
0.0
 11
0.0
 21
15.0
 31
0.0
1001
AcDbBlockRepETag
1070
     1
1071
        0
1005
53F8
  0
HATCH
  5
53F9
330
53F5
100
AcDbEntity
  8
0
100
AcDbHatch
 10
0.0
 20
0.0
 30
0.0
210
0.0
220
0.0
230
1.0
  2
SOLID
 70
     1
 71
     1
 91
        1
 92
        1
 93
        3
 72
     1
 10
0.0
 20
15.0
 11
-2.0
 21
10.99999910797555
 72
     1
 10
-2.0
 20
10.99999910797555
 11
2.0
 21
10.99999910797555
 72
     1
 10
2.0
 20
10.99999910797555
 11
0.0
 21
15.0
 97
        3
330
53FA
330
53FB
330
53FC
 75
     0
 76
     1
 98
        1
 10
-854.0
 20
84.99999910797555
450
        0
451
        0
460
0.0
461
0.0
452
        1
462
1.0
453
        2
463
0.0
 63
     5
421
      255
463
1.0
 63
     7
421
 16777215
470
LINEAR
1001
ACAD
1010
0.0
1020
0.0
1030
0.0
1001
AcDbBlockRepETag
1070
     1
1071
        1
1005
53F9
  0
LINE
  5
53FA
102
{ACAD_REACTORS
330
53F9
102
}
330
53F5
100
AcDbEntity
  8
0
100
AcDbLine
 10
0.0
 20
15.0
 30
0.0
 11
-2.0
 21
10.99999910797555
 31
0.0
1001
AcDbBlockRepETag
1070
     1
1071
        2
1005
53FA
  0
LINE
  5
53FB
102
{ACAD_REACTORS
330
53F9
102
}
330
53F5
100
AcDbEntity
  8
0
100
AcDbLine
 10
-2.0
 20
10.99999910797555
 30
0.0
 11
2.0
 21
10.99999910797555
 31
0.0
1001
AcDbBlockRepETag
1070
     1
1071
        3
1005
53FB
  0
LINE
  5
53FC
102
{ACAD_REACTORS
330
53F9
102
}
330
53F5
100
AcDbEntity
  8
0
100
AcDbLine
 10
2.0
 20
10.99999910797555
 30
0.0
 11
0.0
 21
15.0
 31
0.0
1001
AcDbBlockRepETag
1070
     1
1071
        4
1005
53FC
  0
ENDBLK
  5
53F7
330
53F5
100
AcDbEntity
  8
0
100
AcDbBlockEnd
  0
BLOCK
  5
5401
330
5400
100
AcDbEntity
  8
0
100
AcDbBlockBegin
  2
*U39
 70
     1
 10
0.0
 20
0.0
 30
0.0
  3
*U39
  1

  0
LINE
  5
5403
330
5400
100
AcDbEntity
  8
0
100
AcDbLine
 10
0.0
 20
0.0
 30
0.0
 11
0.0
 21
-24.0
 31
0.0
1001
AcDbBlockRepETag
1070
     1
1071
        0
1005
5403
  0
CIRCLE
  5
5404
330
5400
100
AcDbEntity
  8
0
100
AcDbCircle
 10
0.0
 20
-12.0
 30
0.0
 40
4.0
1001
AcDbBlockRepETag
1070
     1
1071
        1
1005
5404
  0
LINE
  5
5405
330
5400
100
AcDbEntity
  8
0
100
AcDbLine
 10
4.0
 20
-12.0
 30
0.0
 11
9.999992328408325
 21
-11.99040525967284
 31
0.0
1001
AcDbBlockRepETag
1070
     1
1071
        2
1005
5405
  0
LINE
  5
5406
330
5400
100
AcDbEntity
  8
0
100
AcDbLine
 10
7.0
 20
-10.0
 30
0.0
 11
5.0
 21
-14.0
 31
0.0
1001
AcDbBlockRepETag
1070
     1
1071
        3
1005
5406
  0
LINE
  5
5407
330
5400
100
AcDbEntity
  8
0
100
AcDbLine
 10
9.0
 20
-10.0
 30
0.0
 11
7.0
 21
-14.0
 31
0.0
1001
AcDbBlockRepETag
1070
     1
1071
        4
1005
5407
  0
ENDBLK
  5
5402
330
5400
100
AcDbEntity
  8
0
100
AcDbBlockEnd
  0
BLOCK
  5
540C
330
540B
100
AcDbEntity
  8
0
100
AcDbBlockBegin
  2
*U40
 70
     1
 10
0.0
 20
0.0
 30
0.0
  3
*U40
  1

  0
LINE
  5
540E
330
540B
100
AcDbEntity
  8
0
100
AcDbLine
 10
0.0
 20
0.0
 30
0.0
 11
0.0
 21
-24.0
 31
0.0
1001
AcDbBlockRepETag
1070
     1
1071
        0
1005
540E
  0
CIRCLE
  5
540F
330
540B
100
AcDbEntity
  8
0
100
AcDbCircle
 10
0.0
 20
-12.0
 30
0.0
 40
4.0
1001
AcDbBlockRepETag
1070
     1
1071
        1
1005
540F
  0
LINE
  5
5410
330
540B
100
AcDbEntity
  8
0
100
AcDbLine
 10
4.0
 20
-12.0
 30
0.0
 11
9.999992328408325
 21
-11.99040525967284
 31
0.0
1001
AcDbBlockRepETag
1070
     1
1071
        2
1005
5410
  0
LINE
  5
5411
330
540B
100
AcDbEntity
  8
0
100
AcDbLine
 10
7.0
 20
-10.0
 30
0.0
 11
5.0
 21
-14.0
 31
0.0
1001
AcDbBlockRepETag
1070
     1
1071
        3
1005
5411
  0
LINE
  5
5412
330
540B
100
AcDbEntity
  8
0
100
AcDbLine
 10
9.0
 20
-10.0
 30
0.0
 11
7.0
 21
-14.0
 31
0.0
1001
AcDbBlockRepETag
1070
     1
1071
        4
1005
5412
  0
ENDBLK
  5
540D
330
540B
100
AcDbEntity
  8
0
100
AcDbBlockEnd
  0
BLOCK
  5
5467
330
5466
100
AcDbEntity
  8
0
100
AcDbBlockBegin
  2
*U41
 70
     1
 10
0.0
 20
0.0
 30
0.0
  3
*U41
  1

  0
LINE
  5
5469
330
5466
100
AcDbEntity
  8
0
370
     0
100
AcDbLine
 10
0.0
 20
0.0
 30
0.0
 11
0.0
 21
-10.0
 31
0.0
1001
AcDbBlockRepETag
1070
     1
1071
        0
1005
5469
  0
LINE
  5
546A
330
5466
100
AcDbEntity
  8
0
370
     0
100
AcDbLine
 10
0.0
 20
0.0
 30
0.0
 11
-4.0
 21
-4.0
 31
0.0
1001
AcDbBlockRepETag
1070
     1
1071
        1
1005
546A
  0
LINE
  5
546B
330
5466
100
AcDbEntity
  8
0
370
     0
100
AcDbLine
 10
4.0
 20
-4.0
 30
0.0
 11
0.0
 21
0.0
 31
0.0
1001
AcDbBlockRepETag
1070
     1
1071
        2
1005
546B
  0
LINE
  5
546C
330
5466
100
AcDbEntity
  8
0
370
     0
100
AcDbLine
 10
-4.0
 20
-8.0
 30
0.0
 11
0.0
 21
-4.0
 31
0.0
1001
AcDbBlockRepETag
1070
     1
1071
        3
1005
546C
  0
LINE
  5
546D
330
5466
100
AcDbEntity
  8
0
370
     0
100
AcDbLine
 10
0.0
 20
-4.0
 30
0.0
 11
4.0
 21
-8.0
 31
0.0
1001
AcDbBlockRepETag
1070
     1
1071
        4
1005
546D
  0
ENDBLK
  5
5468
330
5466
100
AcDbEntity
  8
0
100
AcDbBlockEnd
  0
BLOCK
  5
5472
330
5471
100
AcDbEntity
  8
0
100
AcDbBlockBegin
  2
*U42
 70
     1
 10
0.0
 20
0.0
 30
0.0
  3
*U42
  1

  0
LINE
  5
5474
330
5471
100
AcDbEntity
  8
0
100
AcDbLine
 10
0.0
 20
0.0
 30
0.0
 11
0.0
 21
-48.0
 31
0.0
1001
AcDbBlockRepETag
1070
     1
1071
        0
1005
5474
  0
LINE
  5
5475
330
5471
100
AcDbEntity
  8
0
100
AcDbLine
 10
-4.0
 20
-16.0
 30
0.0
 11
4.0
 21
-16.0
 31
0.0
1001
AcDbBlockRepETag
1070
     1
1071
        1
1005
5475
  0
LINE
  5
5476
330
5471
100
AcDbEntity
  8
0
100
AcDbLine
 10
4.0
 20
-16.0
 30
0.0
 11
4.0
 21
-32.0
 31
0.0
1001
AcDbBlockRepETag
1070
     1
1071
        2
1005
5476
  0
LINE
  5
5477
330
5471
100
AcDbEntity
  8
0
100
AcDbLine
 10
4.0
 20
-32.0
 30
0.0
 11
-4.0
 21
-32.0
 31
0.0
1001
AcDbBlockRepETag
1070
     1
1071
        3
1005
5477
  0
LINE
  5
5478
330
5471
100
AcDbEntity
  8
0
100
AcDbLine
 10
-4.0
 20
-32.0
 30
0.0
 11
-4.0
 21
-16.0
 31
0.0
1001
AcDbBlockRepETag
1070
     1
1071
        4
1005
5478
  0
CIRCLE
  5
5479
330
5471
100
AcDbEntity
  8
0
100
AcDbCircle
 10
15.0
 20
-53.0
 30
0.0
 40
8.0
1001
AcDbBlockRepETag
1070
     1
1071
        5
1005
5479
  0
CIRCLE
  5
547A
330
5471
100
AcDbEntity
  8
0
100
AcDbCircle
 10
-15.0
 20
-43.0
 30
0.0
 40
8.0
1001
AcDbBlockRepETag
1070
     1
1071
        6
1005
547A
  0
CIRCLE
  5
547B
330
5471
100
AcDbEntity
  8
0
100
AcDbCircle
 10
15.0
 20
-43.0
 30
0.0
 40
8.0
1001
AcDbBlockRepETag
1070
     1
1071
        7
1005
547B
  0
LINE
  5
547C
330
5471
100
AcDbEntity
  8
0
100
AcDbLine
 10
0.0
 20
-48.0
 30
0.0
 11
8.75500200160161
 21
-48.0
 31
0.0
1001
AcDbBlockRepETag
1070
     1
1071
       12
1005
547C
  0
LINE
  5
547D
330
5471
100
AcDbEntity
  8
0
100
AcDbLine
 10
0.0
 20
-48.0
 30
0.0
 11
-8.75500200160161
 21
-48.0
 31
0.0
1001
AcDbBlockRepETag
1070
     1
1071
       13
1005
547D
  0
CIRCLE
  5
547E
330
5471
100
AcDbEntity
  8
0
100
AcDbCircle
 10
-15.0
 20
-53.0
 30
0.0
 40
8.0
1001
AcDbBlockRepETag
1070
     1
1071
       14
1005
547E
  0
ENDBLK
  5
5473
330
5471
100
AcDbEntity
  8
0
100
AcDbBlockEnd
  0
ENDSEC
  0
SECTION
  2
ENTITIES
  0
INSERT
  5
1D1A
102
{ACAD_XDICTIONARY
360
1D1B
102
}
330
1F
100
AcDbEntity
  8
DM-VCB
 48
0.1
370
     0
100
AcDbBlockReference
  2
*U15
 10
2097.193739664574
 20
2110.92026777726
 30
0.0
  0
LINE
  5
1D21
330
1F
100
AcDbEntity
  8
DM-0.4kV-Wire
 48
0.1
100
AcDbLine
 10
2097.193739664574
 20
2046.920267777259
 30
0.0
 11
2097.193739664574
 21
1997.920267777259
 31
0.0
  0
INSERT
  5
1D22
102
{ACAD_XDICTIONARY
360
1D23
102
}
330
1F
100
AcDbEntity
  8
DM-CT
370
     0
100
AcDbBlockReference
  2
*U16
 10
2082.193739664574
 20
2026.920268386149
 30
0.0
  0
INSERT
  5
1D29
102
{ACAD_XDICTIONARY
360
1D2A
102
}
330
1F
100
AcDbEntity
  8
DM-CT
370
     0
100
AcDbBlockReference
  2
*U17
 10
2097.193739664574
 20
1997.920267777259
 30
0.0
  0
INSERT
  5
1D30
102
{ACAD_XDICTIONARY
360
1D31
102
}
330
1F
100
AcDbEntity
  8
DM-CT
370
     0
100
AcDbBlockReference
  2
*U18
 10
2082.193739664574
 20
1997.920267777259
 30
0.0
  0
INSERT
  5
1D37
102
{ACAD_XDICTIONARY
360
1D38
102
}
330
1F
100
AcDbEntity
  8
DM-CT
370
     0
100
AcDbBlockReference
  2
*U19
 10
2112.193739664574
 20
1997.453731769434
 30
0.0
  0
LINE
  5
1D3E
330
1F
100
AcDbEntity
  8
DM-0.4kV-Wire
100
AcDbLine
 10
2122.193739664574
 20
2145.920267777259
 30
0.0
 11
2122.193739664574
 21
2105.920267777259
 31
0.0
  0
INSERT
  5
1D3F
102
{ACAD_XDICTIONARY
360
1D40
102
}
330
1F
100
AcDbEntity
  8
DM-Arrester
370
     0
100
AcDbBlockReference
  2
*U20
 10
2122.193739664574
 20
2105.920267777259
 30
0.0
 41
2.0
 42
2.0
 43
2.0
  0
INSERT
  5
1D46
102
{ACAD_XDICTIONARY
360
1D47
102
}
330
1F
100
AcDbEntity
  8
DM-GND
370
     0
100
AcDbBlockReference
  2
*U27
 10
2122.193739664574
 20
2073.920267777259
 30
0.0
 41
2.0
 42
2.0
 43
2.0
  0
LINE
  5
1D4D
330
1F
100
AcDbEntity
  8
DM-0.4kV-Wire
100
AcDbLine
 10
2067.193739664574
 20
2145.920267777259
 30
0.0
 11
2067.193739664574
 21
2020.920267777259
 31
0.0
  0
INSERT
  5
1D4E
102
{ACAD_XDICTIONARY
360
1D4F
102
}
330
1F
100
AcDbEntity
  8
DM-Outgoing Line-180
370
     0
100
AcDbBlockReference
  2
*U14
 10
2067.193739664574
 20
2020.920267777259
 30
0.0
 50
180.0
  0
LINE
  5
1D55
330
1F
100
AcDbEntity
  8
DM-0.4kV-Wire
100
AcDbLine
 10
2097.193739664574
 20
1973.920267777259
 30
0.0
 11
2097.19373966457
 21
1910.920267777259
 31
0.0
  0
LWPOLYLINE
  5
1D56
330
1F
100
AcDbEntity
  8
DM-Wireframe
  6
ACAD_ISO03W100
370
     0
100
AcDbPolyline
 90
        4
 70
     1
 43
0.0
 10
2154.693739664574
 20
1940.920267777259
 10
2039.693739664574
 20
1940.920267777259
 10
2039.693739664574
 20
2160.920267777259
 10
2154.693739664574
 20
2160.920267777259
  0
MTEXT
  5
1D57
330
1F
100
AcDbEntity
  8
DM-Text
370
     0
100
AcDbMText
 10
2154.693739664574
 20
2165.33366926907
 30
0.0
 40
10.0
 41
51.58707615633011
 46
0.0
 71
     9
 72
     5
  1
P01
 73
     1
 44
1.0
1001
ACAD
1000
ACAD_MTEXT_COLUMN_INFO_BEGIN
1070
    75
1070
     2
1070
    79
1070
     0
1070
    76
1070
     1
1070
    78
1070
     0
1070
    48
1040
51.58707615633011
1070
    49
1040
12.5
1070
    50
1070
     1
1040
0.0
1000
ACAD_MTEXT_COLUMN_INFO_END
  0
LINE
  5
1D58
330
1F
100
AcDbEntity
  8
DM-0.4kV-Wire
100
AcDbLine
 10
2122.193739664574
 20
2145.920267777259
 30
0.0
 11
2067.193739664574
 21
2145.920267777259
 31
0.0
  0
LINE
  5
1D59
330
1F
100
AcDbEntity
  8
DM-0.4kV-Wire
100
AcDbLine
 10
2097.193739664574
 20
2190.920267777257
 30
0.0
 11
2097.193739664574
 21
2110.92026777726
 31
0.0
  0
LWPOLYLINE
  5
211C
330
1F
100
AcDbEntity
  8
DM-Wireframe
  6
ACAD_ISO03W100
370
     0
100
AcDbPolyline
 90
        4
 70
     1
 43
0.0
 10
2177.19373966457
 20
1660.92026777726
 10
2017.193739664568
 20
1660.92026777726
 10
2017.193739664568
 20
1880.92026777726
 10
2177.19373966457
 20
1880.920267777258
  0
LINE
  5
211D
330
1F
100
AcDbEntity
  8
DM-0.4kV-Wire
100
AcDbLine
 10
2097.19373966457
 20
1910.920267777258
 30
0.0
 11
2097.193739664569
 21
1690.920268736874
 31
0.0
  0
INSERT
  5
211E
102
{ACAD_XDICTIONARY
360
211F
102
}
330
1F
100
AcDbEntity
  8
DM-Outgoing Line-180
370
     0
100
AcDbBlockReference
  2
*U21
 10
2097.193739664569
 20
1690.920268736874
 30
0.0
 50
180.0
  0
MTEXT
  5
2125
330
1F
100
AcDbEntity
  8
DM-Text
370
     0
100
AcDbMText
 10
2177.19373966457
 20
1643.119777821567
 30
0.0
 40
10.0
 41
51.58707615633011
 46
0.0
 71
     9
 72
     5
  1
P00{\fSimSun|b0|i0|c134|p2;、}P02-P08
 73
     1
 44
1.0
1001
ACAD
1000
ACAD_MTEXT_COLUMN_INFO_BEGIN
1070
    75
1070
     2
1070
    79
1070
     0
1070
    76
1070
     1
1070
    78
1070
     0
1070
    48
1040
51.58707615633011
1070
    49
1040
12.5
1070
    50
1070
     1
1040
0.0
1000
ACAD_MTEXT_COLUMN_INFO_END
  0
LINE
  5
2126
330
1F
100
AcDbEntity
  8
DM-0.4kV-Wire
100
AcDbLine
 10
2062.193739664567
 20
1910.92026777726
 30
0.0
 11
2062.193739664568
 21
1690.92026920823
 31
0.0
  0
INSERT
  5
2127
102
{ACAD_XDICTIONARY
360
2128
102
}
330
1F
100
AcDbEntity
  8
DM-Outgoing Line-180
370
     0
100
AcDbBlockReference
  2
*U22
 10
2062.193739664568
 20
1690.92026920823
 30
0.0
 50
180.0
  0
LINE
  5
212E
330
1F
100
AcDbEntity
  8
DM-0.4kV-Wire
100
AcDbLine
 10
2132.19373966457
 20
1910.920267777258
 30
0.0
 11
2132.19373966457
 21
1690.920268736874
 31
0.0
  0
INSERT
  5
212F
102
{ACAD_XDICTIONARY
360
2130
102
}
330
1F
100
AcDbEntity
  8
DM-Outgoing Line-180
370
     0
100
AcDbBlockReference
  2
*U23
 10
2132.19373966457
 20
1690.920268736874
 30
0.0
 50
180.0
  0
LINE
  5
4D11
330
1F
100
AcDbEntity
  8
DM-10kV-Cable
370
   200
100
AcDbLine
 10
1920.330411089327
 20
2330.920086545747
 30
0.0
 11
1553.056753473052
 21
2330.920086545755
 31
0.0
  0
LINE
  5
4D2A
330
1F
100
AcDbEntity
  8
DM-0.4kV-Cable
370
   200
100
AcDbLine
 10
2206.192420371829
 20
1910.920267777259
 30
0.0
 11
1975.314191600457
 21
1910.920267777259
 31
0.0
  0
LWPOLYLINE
  5
4E75
330
1F
100
AcDbEntity
  8
Defpoints
 62
     1
100
AcDbPolyline
 90
        4
 70
     1
 43
0.0
 10
1203.916241049775
 20
1575.183624674504
 10
3597.916241049776
 20
1577.183624674504
 10
3597.916241049776
 20
2717.183624674504
 10
1203.916241049775
 20
2719.183624674505
  0
LWPOLYLINE
  5
4E76
330
1F
100
AcDbEntity
  8
0
 48
100.0
100
AcDbPolyline
 90
        5
 70
     0
 43
4.0
 10
3597.916241049776
 20
2717.183624674504
 10
1277.916241049775
 20
2717.183624674504
 10
1277.916241049775
 20
1577.183624674504
 10
3597.916241049776
 20
1577.183624674504
 10
3597.916241049776
 20
2717.183624674504
  0
LWPOLYLINE
  5
4E77
330
1F
100
AcDbEntity
  8
0
 48
100.0
100
AcDbPolyline
 90
        3
 70
     0
 43
4.0
 10
2877.916241049776
 20
1575.183624674504
 10
2877.916241049776
 20
1657.183624674504
 10
3597.916241049776
 20
1657.183624674504
  0
LINE
  5
4E78
330
1F
100
AcDbEntity
  8
0
100
AcDbLine
 10
3387.916241049776
 20
1657.18362467448
 30
0.0
 11
3387.916241049776
 21
1577.183624674504
 31
0.0
  0
LINE
  5
4E79
330
1F
100
AcDbEntity
  8
0
100
AcDbLine
 10
3387.916241049776
 20
1617.183624674481
 30
0.0
 11
3597.916241049776
 21
1617.183624674504
 31
0.0
  0
LINE
  5
4E7A
330
1F
100
AcDbEntity
  8
0
100
AcDbLine
 10
3459.916241049775
 20
1657.183624674504
 30
0.0
 11
3459.916241049775
 21
1577.183624674504
 31
0.0
  0
TEXT
  5
4E7B
330
1F
100
AcDbEntity
  8
0
100
AcDbText
 10
3406.20397187973
 20
1628.86423605359
 30
0.0
 40
14.0
  1
图  号
 41
0.7
 72
     4
 11
3423.698242002512
 21
1635.854686258229
 31
0.0
100
AcDbText
  0
TEXT
  5
4E7C
330
1F
100
AcDbEntity
  8
0
100
AcDbText
 10
3406.20397187973
 20
1590.029613132251
 30
0.0
 40
14.0
  1
页  码
 41
0.7
 72
     4
 11
3423.698242002512
 21
1597.058262518336
 31
0.0
100
AcDbText
  0
MTEXT
  5
4E7D
330
1F
100
AcDbEntity
  8
0
370
   158
100
AcDbMText
 10
3142.22621677735
 20
1613.287683722369
 30
0.0
 40
20.0
 41
469.7539227692778
 46
0.0
 71
     5
 72
     5
  1
{\fSimSun|b0|i0|c134|p2;肇庆大旺城市发展集团有限公司（劳动大楼）一次接线图}
 73
     1
 44
1.0
1001
ACAD
1000
ACAD_MTEXT_COLUMN_INFO_BEGIN
1070
    75
1070
     2
1070
    79
1070
     0
1070
    76
1070
     1
1070
    78
1070
     0
1070
    48
1040
469.7539227692778
1070
    49
1040
12.5
1070
    50
1070
     1
1040
0.0
1000
ACAD_MTEXT_COLUMN_INFO_END
  0
MTEXT
  5
4E7E
330
1F
100
AcDbEntity
  8
0
370
   158
100
AcDbMText
 10
3470.446757029982
 20
1640.249808451951
 30
0.0
 40
10.0
 41
165.8123706162532
 46
0.0
 71
     1
 72
     5
  1
ZQ20161211-01
 73
     1
 44
1.0
1001
ACAD
1000
ACAD_MTEXT_COLUMN_INFO_BEGIN
1070
    75
1070
     2
1070
    79
1070
     0
1070
    76
1070
     1
1070
    78
1070
     0
1070
    48
1040
165.8123706162532
1070
    49
1040
12.5
1070
    50
1070
     1
1040
0.0
1000
ACAD_MTEXT_COLUMN_INFO_END
  0
LWPOLYLINE
  5
4E7F
330
1F
100
AcDbEntity
  8
DM-10kV-Cable
370
    -2
100
AcDbPolyline
 90
        4
 70
     1
 43
0.0
 10
1277.916241049775
 20
2717.183624674504
 10
2877.916241049776
 20
2717.183624674504
 10
2877.916241049776
 20
1637.183624674504
 10
1277.916241049775
 20
1637.183624674504
  0
MTEXT
  5
4E80
330
1F
100
AcDbEntity
  8
DM-Text
 62
     1
370
     0
100
AcDbMText
 10
1478.907202261158
 20
2704.206772829419
 30
0.0
 40
20.0
 41
321.4113459558735
 46
0.0
 71
     5
 72
     5
  1
{\fSimSun|b0|i0|c134|p2;大旺站10KV场部线}
 73
     1
 44
1.0
1001
ACAD
1000
ACAD_MTEXT_COLUMN_INFO_BEGIN
1070
    75
1070
     2
1070
    79
1070
     0
1070
    76
1070
     1
1070
    78
1070
     0
1070
    48
1040
321.4113459558735
1070
    49
1040
217.6058878148997
1070
    50
1070
     1
1040
50.40285920535109
1000
ACAD_MTEXT_COLUMN_INFO_END
  0
MTEXT
  5
4F23
330
1F
100
AcDbEntity
  8
0
370
     0
100
AcDbMText
 10
2984.659970378743
 20
2495.2734917983
 30
0.0
 40
10.0
 41
18.25118149904483
 46
0.0
 71
     5
 72
     5
  1
G01
 73
     1
 44
1.0
1001
ACAD
1000
ACAD_MTEXT_COLUMN_INFO_BEGIN
1070
    75
1070
     2
1070
    79
1070
     0
1070
    76
1070
     1
1070
    78
1070
     0
1070
    48
1040
18.25118149904483
1070
    49
1040
12.5
1070
    50
1070
     1
1040
0.0
1000
ACAD_MTEXT_COLUMN_INFO_END
  0
LINE
  5
4F24
330
1F
100
AcDbEntity
  8
0
370
     0
100
AcDbLine
 10
2964.659970378744
 20
2478.164066545499
 30
0.0
 11
3524.659971010591
 21
2478.164066545499
 31
0.0
  0
LINE
  5
4F25
330
1F
100
AcDbEntity
  8
0
370
     0
100
AcDbLine
 10
2964.659970378744
 20
2448.164066545499
 30
0.0
 11
3524.659971010591
 21
2448.164066545499
 31
0.0
  0
LINE
  5
4F26
330
1F
100
AcDbEntity
  8
0
370
     0
100
AcDbLine
 10
2964.659970378744
 20
2418.164066545499
 30
0.0
 11
3524.659971010591
 21
2418.164066545498
 31
0.0
  0
LINE
  5
4F27
330
1F
100
AcDbEntity
  8
0
370
     0
100
AcDbLine
 10
2964.659970378744
 20
2388.164066545499
 30
0.0
 11
3524.659971010591
 21
2388.164066545499
 31
0.0
  0
LINE
  5
4F28
330
1F
100
AcDbEntity
  8
0
370
     0
100
AcDbLine
 10
2964.659970378744
 20
2358.164066545499
 30
0.0
 11
3524.659971010591
 21
2358.164066545499
 31
0.0
  0
LINE
  5
4F29
330
1F
100
AcDbEntity
  8
0
370
     0
100
AcDbLine
 10
2964.659970378744
 20
2328.164066545499
 30
0.0
 11
3524.659971010591
 21
2328.164066545498
 31
0.0
  0
MTEXT
  5
4F2A
330
1F
100
AcDbEntity
  8
0
370
     0
100
AcDbMText
 10
2984.659970378743
 20
2465.273490409142
 30
0.0
 40
10.0
 41
18.25118149904483
 46
0.0
 71
     5
 72
     5
  1
G02
 73
     1
 44
1.0
1001
ACAD
1000
ACAD_MTEXT_COLUMN_INFO_BEGIN
1070
    75
1070
     2
1070
    79
1070
     0
1070
    76
1070
     1
1070
    78
1070
     0
1070
    48
1040
18.25118149904483
1070
    49
1040
12.5
1070
    50
1070
     1
1040
0.0
1000
ACAD_MTEXT_COLUMN_INFO_END
  0
MTEXT
  5
4F2B
330
1F
100
AcDbEntity
  8
0
370
     0
100
AcDbMText
 10
2984.659970378741
 20
2435.273490409143
 30
0.0
 40
10.0
 41
18.25118149904483
 46
0.0
 71
     5
 72
     5
  1
G03
 73
     1
 44
1.0
1001
ACAD
1000
ACAD_MTEXT_COLUMN_INFO_BEGIN
1070
    75
1070
     2
1070
    79
1070
     0
1070
    76
1070
     1
1070
    78
1070
     0
1070
    48
1040
18.25118149904483
1070
    49
1040
12.5
1070
    50
1070
     1
1040
0.0
1000
ACAD_MTEXT_COLUMN_INFO_END
  0
LINE
  5
4F2D
330
1F
100
AcDbEntity
  8
0
370
     0
100
AcDbLine
 10
2964.659970378744
 20
2508.164066545499
 30
0.0
 11
3004.659970378743
 21
2508.164066545499
 31
0.0
  0
LINE
  5
4F2E
330
1F
100
AcDbEntity
  8
0
370
     0
100
AcDbLine
 10
3004.659970378743
 20
2508.164066545499
 30
0.0
 11
3004.659970378743
 21
2298.164066545499
 31
0.0
  0
LINE
  5
4F32
330
1F
100
AcDbEntity
  8
0
370
     0
100
AcDbLine
 10
3004.659970378743
 20
2508.164066545499
 30
0.0
 11
3104.659970378743
 21
2508.164066545499
 31
0.0
  0
LINE
  5
4F33
330
1F
100
AcDbEntity
  8
0
370
     0
100
AcDbLine
 10
3104.659970378743
 20
2538.164067934655
 30
0.0
 11
3104.659970378743
 21
2298.164066545498
 31
0.0
  0
LINE
  5
4F34
330
1F
100
AcDbEntity
  8
0
370
     0
100
AcDbLine
 10
3104.659970378743
 20
2508.164066545499
 30
0.0
 11
3144.659970378743
 21
2508.164066545499
 31
0.0
  0
MTEXT
  5
4F35
330
1F
100
AcDbEntity
  8
0
370
     0
100
AcDbMText
 10
3124.659970378736
 20
2493.164067934655
 30
0.0
 40
10.0
 41
18.25118149904483
 46
0.0
 71
     5
 72
     5
  1
P01
 73
     1
 44
1.0
1001
ACAD
1000
ACAD_MTEXT_COLUMN_INFO_BEGIN
1070
    75
1070
     2
1070
    79
1070
     0
1070
    76
1070
     1
1070
    78
1070
     0
1070
    48
1040
18.25118149904483
1070
    49
1040
12.5
1070
    50
1070
     1
1040
0.0
1000
ACAD_MTEXT_COLUMN_INFO_END
  0
LINE
  5
4F36
330
1F
100
AcDbEntity
  8
0
370
     0
100
AcDbLine
 10
3144.659970378743
 20
2508.164066545499
 30
0.0
 11
3144.659970378743
 21
2298.164066545499
 31
0.0
  0
LINE
  5
4F37
330
1F
100
AcDbEntity
  8
0
370
     0
100
AcDbLine
 10
3144.659964422983
 20
2508.164066545499
 30
0.0
 11
3244.659964422983
 21
2508.164066545499
 31
0.0
  0
LINE
  5
4F39
330
1F
100
AcDbEntity
  8
0
370
     0
100
AcDbLine
 10
3244.659964422983
 20
2508.164066545499
 30
0.0
 11
3244.659964422983
 21
2298.164066545499
 31
0.0
  0
LINE
  5
4F3A
330
1F
100
AcDbEntity
  8
0
370
     0
100
AcDbLine
 10
3244.659964422983
 20
2508.164066545499
 30
0.0
 11
3284.659964422983
 21
2508.164066545499
 31
0.0
  0
LINE
  5
4F3B
330
1F
100
AcDbEntity
  8
0
370
     0
100
AcDbLine
 10
3284.659964422983
 20
2508.164066545499
 30
0.0
 11
3284.659964422985
 21
2298.164066545499
 31
0.0
  0
LINE
  5
4F3C
330
1F
100
AcDbEntity
  8
0
370
     0
100
AcDbLine
 10
3284.659967716788
 20
2508.164066545499
 30
0.0
 11
3524.659971010591
 21
2508.164066545499
 31
0.0
  0
LINE
  5
4F3D
330
1F
100
AcDbEntity
  8
0
370
     0
100
AcDbLine
 10
3384.659967716788
 20
2508.164066545499
 30
0.0
 11
3384.659967716788
 21
2298.164066545498
 31
0.0
  0
LINE
  5
4F3E
330
1F
100
AcDbEntity
  8
0
370
     0
100
AcDbLine
 10
2964.659970378744
 20
2538.164067934655
 30
0.0
 11
3104.659970378743
 21
2538.164067934655
 31
0.0
  0
LINE
  5
4F3F
330
1F
100
AcDbEntity
  8
0
370
     0
100
AcDbLine
 10
3104.659970378743
 20
2538.164067934655
 30
0.0
 11
3524.659971010591
 21
2538.164067934655
 31
0.0
  0
MTEXT
  5
4F40
330
1F
100
AcDbEntity
  8
0
370
     0
100
AcDbMText
 10
3034.659970378744
 20
2523.164067934656
 30
0.0
 40
10.0
 41
94.41753695478656
 46
0.0
 71
     5
 72
     5
  1
高压开关柜
 73
     1
 44
1.0
1001
ACAD
1000
ACAD_MTEXT_COLUMN_INFO_BEGIN
1070
    75
1070
     2
1070
    79
1070
     0
1070
    76
1070
     1
1070
    78
1070
     0
1070
    48
1040
94.41753695478656
1070
    49
1040
12.5
1070
    50
1070
     1
1040
0.0
1000
ACAD_MTEXT_COLUMN_INFO_END
  0
MTEXT
  5
4F41
330
1F
100
AcDbEntity
  8
0
370
     0
100
AcDbMText
 10
3244.659969047763
 20
2523.164067934655
 30
0.0
 40
10.0
 41
94.41753695478656
 46
0.0
 71
     5
 72
     5
  1
低压开关柜
 73
     1
 44
1.0
1001
ACAD
1000
ACAD_MTEXT_COLUMN_INFO_BEGIN
1070
    75
1070
     2
1070
    79
1070
     0
1070
    76
1070
     1
1070
    78
1070
     0
1070
    48
1040
94.41753695478656
1070
    49
1040
12.5
1070
    50
1070
     1
1040
0.0
1000
ACAD_MTEXT_COLUMN_INFO_END
  0
MTEXT
  5
4F44
330
1F
100
AcDbEntity
  8
0
370
     0
100
AcDbMText
 10
3054.659970378742
 20
2494.327739722543
 30
0.0
 40
10.0
 41
49.08315300982213
 46
0.0
 71
     5
 72
     5
  1
进线柜
 73
     1
 44
1.0
1001
ACAD
1000
ACAD_MTEXT_COLUMN_INFO_BEGIN
1070
    75
1070
     2
1070
    79
1070
     0
1070
    76
1070
     1
1070
    78
1070
     0
1070
    48
1040
49.08315300982213
1070
    49
1040
12.5
1070
    50
1070
     1
1040
0.0
1000
ACAD_MTEXT_COLUMN_INFO_END
  0
LINE
  5
4F46
330
1F
100
AcDbEntity
  8
0
370
     0
100
AcDbLine
 10
2964.659970378744
 20
2298.164066545499
 30
0.0
 11
3524.659971010591
 21
2298.164066545499
 31
0.0
  0
MTEXT
  5
4F48
330
1F
100
AcDbEntity
  8
0
370
     0
100
AcDbMText
 10
3054.659970378742
 20
2463.156356161342
 30
0.0
 40
10.0
 41
49.08315300982213
 46
0.0
 71
     5
 72
     5
  1
{\fSimSun|b0|i0|c134|p2;负荷柜}
 73
     1
 44
1.0
1001
ACAD
1000
ACAD_MTEXT_COLUMN_INFO_BEGIN
1070
    75
1070
     2
1070
    79
1070
     0
1070
    76
1070
     1
1070
    78
1070
     0
1070
    48
1040
49.08315300982213
1070
    49
1040
12.5
1070
    50
1070
     1
1040
0.0
1000
ACAD_MTEXT_COLUMN_INFO_END
  0
LINE
  5
4F49
330
1F
100
AcDbEntity
  8
0
370
     0
100
AcDbLine
 10
2964.659970378744
 20
2538.164067934655
 30
0.0
 11
2964.659970378744
 21
2298.164066545498
 31
0.0
  0
MTEXT
  5
4F4A
330
1F
100
AcDbEntity
  8
0
370
     0
100
AcDbMText
 10
3124.659970378736
 20
2433.164067934654
 30
0.0
 40
10.0
 41
18.25118149904483
 46
0.0
 71
     5
 72
     5
  1
P02
 73
     1
 44
1.0
1001
ACAD
1000
ACAD_MTEXT_COLUMN_INFO_BEGIN
1070
    75
1070
     2
1070
    79
1070
     0
1070
    76
1070
     1
1070
    78
1070
     0
1070
    48
1040
18.25118149904483
1070
    49
1040
12.5
1070
    50
1070
     1
1040
0.0
1000
ACAD_MTEXT_COLUMN_INFO_END
  0
MTEXT
  5
4F4B
330
1F
100
AcDbEntity
  8
0
370
     0
100
AcDbMText
 10
3124.659970378736
 20
2403.164067934654
 30
0.0
 40
10.0
 41
18.25118149904483
 46
0.0
 71
     5
 72
     5
  1
P03
 73
     1
 44
1.0
1001
ACAD
1000
ACAD_MTEXT_COLUMN_INFO_BEGIN
1070
    75
1070
     2
1070
    79
1070
     0
1070
    76
1070
     1
1070
    78
1070
     0
1070
    48
1040
18.25118149904483
1070
    49
1040
12.5
1070
    50
1070
     1
1040
0.0
1000
ACAD_MTEXT_COLUMN_INFO_END
  0
MTEXT
  5
4F4C
330
1F
100
AcDbEntity
  8
0
370
     0
100
AcDbMText
 10
3124.659970378736
 20
2373.164067934654
 30
0.0
 40
10.0
 41
18.25118149904483
 46
0.0
 71
     5
 72
     5
  1
P04
 73
     1
 44
1.0
1001
ACAD
1000
ACAD_MTEXT_COLUMN_INFO_BEGIN
1070
    75
1070
     2
1070
    79
1070
     0
1070
    76
1070
     1
1070
    78
1070
     0
1070
    48
1040
18.25118149904483
1070
    49
1040
12.5
1070
    50
1070
     1
1040
0.0
1000
ACAD_MTEXT_COLUMN_INFO_END
  0
MTEXT
  5
4F4D
330
1F
100
AcDbEntity
  8
0
370
     0
100
AcDbMText
 10
3124.659970378736
 20
2343.164067934654
 30
0.0
 40
10.0
 41
18.25118149904483
 46
0.0
 71
     5
 72
     5
  1
P05
 73
     1
 44
1.0
1001
ACAD
1000
ACAD_MTEXT_COLUMN_INFO_BEGIN
1070
    75
1070
     2
1070
    79
1070
     0
1070
    76
1070
     1
1070
    78
1070
     0
1070
    48
1040
18.25118149904483
1070
    49
1040
12.5
1070
    50
1070
     1
1040
0.0
1000
ACAD_MTEXT_COLUMN_INFO_END
  0
MTEXT
  5
4F4E
330
1F
100
AcDbEntity
  8
0
370
     0
100
AcDbMText
 10
3124.659970378736
 20
2313.164067934654
 30
0.0
 40
10.0
 41
18.25118149904483
 46
0.0
 71
     5
 72
     5
  1
P06
 73
     1
 44
1.0
1001
ACAD
1000
ACAD_MTEXT_COLUMN_INFO_BEGIN
1070
    75
1070
     2
1070
    79
1070
     0
1070
    76
1070
     1
1070
    78
1070
     0
1070
    48
1040
18.25118149904483
1070
    49
1040
12.5
1070
    50
1070
     1
1040
0.0
1000
ACAD_MTEXT_COLUMN_INFO_END
  0
MTEXT
  5
4F4F
330
1F
100
AcDbEntity
  8
0
370
     0
100
AcDbMText
 10
3264.659964422975
 20
2493.164067934655
 30
0.0
 40
10.0
 41
18.25118149904483
 46
0.0
 71
     5
 72
     5
  1
P07
 73
     1
 44
1.0
1001
ACAD
1000
ACAD_MTEXT_COLUMN_INFO_BEGIN
1070
    75
1070
     2
1070
    79
1070
     0
1070
    76
1070
     1
1070
    78
1070
     0
1070
    48
1040
18.25118149904483
1070
    49
1040
12.5
1070
    50
1070
     1
1040
0.0
1000
ACAD_MTEXT_COLUMN_INFO_END
  0
MTEXT
  5
4F50
330
1F
100
AcDbEntity
  8
0
370
     0
100
AcDbMText
 10
3264.659964422975
 20
2463.164067934655
 30
0.0
 40
10.0
 41
18.25118149904483
 46
0.0
 71
     5
 72
     5
  1
P08
 73
     1
 44
1.0
1001
ACAD
1000
ACAD_MTEXT_COLUMN_INFO_BEGIN
1070
    75
1070
     2
1070
    79
1070
     0
1070
    76
1070
     1
1070
    78
1070
     0
1070
    48
1040
18.25118149904483
1070
    49
1040
12.5
1070
    50
1070
     1
1040
0.0
1000
ACAD_MTEXT_COLUMN_INFO_END
  0
LINE
  5
4F57
330
1F
100
AcDbEntity
  8
0
370
     0
100
AcDbLine
 10
3424.659967716787
 20
2508.164066545499
 30
0.0
 11
3424.659967716789
 21
2298.164066545499
 31
0.0
  0
LINE
  5
4F58
330
1F
100
AcDbEntity
  8
0
370
     0
100
AcDbLine
 10
3424.659971010591
 20
2508.164066545499
 30
0.0
 11
3524.659971010591
 21
2508.164066545499
 31
0.0
  0
LINE
  5
4F59
330
1F
100
AcDbEntity
  8
0
370
     0
100
AcDbLine
 10
3524.659971010591
 20
2538.164067934655
 30
0.0
 11
3524.659971010591
 21
2298.164066545498
 31
0.0
  0
MTEXT
  5
4F5D
330
1F
100
AcDbEntity
  8
0
370
     0
100
AcDbMText
 10
3194.659970378742
 20
2433.646303985236
 30
0.0
 40
10.0
 41
49.08315300982213
 46
0.0
 71
     5
 72
     5
  1
电容柜
 73
     1
 44
1.0
1001
ACAD
1000
ACAD_MTEXT_COLUMN_INFO_BEGIN
1070
    75
1070
     2
1070
    79
1070
     0
1070
    76
1070
     1
1070
    78
1070
     0
1070
    48
1040
49.08315300982213
1070
    49
1040
12.5
1070
    50
1070
     1
1040
0.0
1000
ACAD_MTEXT_COLUMN_INFO_END
  0
MTEXT
  5
4F6A
330
1F
100
AcDbEntity
  8
0
370
     0
100
AcDbMText
 10
3052.266303717053
 20
2434.789108079607
 30
0.0
 40
10.0
 41
67.44409132037254
 46
0.0
 71
     5
 72
     5
  1
{\fSimSun|b0|i0|c134|p2;计量、出线柜}
 73
     1
 44
1.0
1001
ACAD
1000
ACAD_MTEXT_COLUMN_INFO_BEGIN
1070
    75
1070
     2
1070
    79
1070
     0
1070
    76
1070
     1
1070
    78
1070
     0
1070
    48
1040
67.44409132037254
1070
    49
1040
12.5
1070
    50
1070
     1
1040
0.0
1000
ACAD_MTEXT_COLUMN_INFO_END
  0
INSERT
  5
5001
102
{ACAD_XDICTIONARY
360
5002
102
}
330
1F
100
AcDbEntity
  8
DM-Arrester-270
370
     0
100
AcDbBlockReference
  2
*U12
 10
1639.160663550924
 20
2546.420085359067
 30
0.0
 41
2.0
 42
2.0
 43
2.0
 50
89.99999999999998
  0
INSERT
  5
5008
102
{ACAD_XDICTIONARY
360
5009
102
}
330
1F
100
AcDbEntity
  8
DM-GND-90
370
     0
100
AcDbBlockReference
  2
*U26
 10
1671.160663550924
 20
2546.420085359067
 30
0.0
 41
2.0
 42
2.0
 43
2.0
 50
89.99999999999998
  0
LINE
  5
5010
330
1F
100
AcDbEntity
  8
DM-10kV-Wire
 48
0.1
100
AcDbLine
 10
1619.160663550924
 20
2546.420085359067
 30
0.0
 11
1639.160663550924
 21
2546.420085359067
 31
0.0
  0
INSERT
  5
5054
330
1F
100
AcDbEntity
  8
DM-DblClmnTrans
100
AcDbBlockReference
  2
DM-DblClmnTrans
 10
2097.259690582179
 20
2245.920086545742
 30
0.0
  0
INSERT
  5
5055
102
{ACAD_XDICTIONARY
360
5056
102
}
330
1F
100
AcDbEntity
  8
DM-Outgoing Line
370
     0
100
AcDbBlockReference
  2
*U11
 10
2097.259690582179
 20
2245.920086545742
 30
0.0
  0
INSERT
  5
505C
102
{ACAD_XDICTIONARY
360
505D
102
}
330
1F
100
AcDbEntity
  8
DM-Outgoing Line-180
370
     0
100
AcDbBlockReference
  2
*U11
 10
2097.193739664574
 20
2205.920267777258
 30
0.0
 50
180.0
  0
MTEXT
  5
506B
330
1F
100
AcDbEntity
  8
0
370
     0
100
AcDbMText
 10
3193.086945857166
 20
2494.327739722543
 30
0.0
 40
10.0
 41
49.08315300982213
 46
0.0
 71
     5
 72
     5
  1
进线柜
 73
     1
 44
1.0
1001
ACAD
1000
ACAD_MTEXT_COLUMN_INFO_BEGIN
1070
    75
1070
     2
1070
    79
1070
     0
1070
    76
1070
     1
1070
    78
1070
     0
1070
    48
1040
49.08315300982213
1070
    49
1040
12.5
1070
    50
1070
     1
1040
0.0
1000
ACAD_MTEXT_COLUMN_INFO_END
  0
MTEXT
  5
506C
330
1F
100
AcDbEntity
  8
0
370
     0
100
AcDbMText
 10
3193.086945857166
 20
2316.053214842748
 30
0.0
 40
10.0
 41
49.08315300982213
 46
0.0
 71
     5
 72
     5
  1
进线柜
 73
     1
 44
1.0
1001
ACAD
1000
ACAD_MTEXT_COLUMN_INFO_BEGIN
1070
    75
1070
     2
1070
    79
1070
     0
1070
    76
1070
     1
1070
    78
1070
     0
1070
    48
1040
49.08315300982213
1070
    49
1040
12.5
1070
    50
1070
     1
1040
0.0
1000
ACAD_MTEXT_COLUMN_INFO_END
  0
MTEXT
  5
506D
330
1F
100
AcDbEntity
  8
0
370
     0
100
AcDbMText
 10
3193.086945857166
 20
2405.51053366078
 30
0.0
 40
10.0
 41
49.08315300982213
 46
0.0
 71
     5
 72
     5
  1
{\fSimSun|b0|i0|c134|p2;出线柜}
 73
     1
 44
1.0
1001
ACAD
1000
ACAD_MTEXT_COLUMN_INFO_BEGIN
1070
    75
1070
     2
1070
    79
1070
     0
1070
    76
1070
     1
1070
    78
1070
     0
1070
    48
1040
49.08315300982213
1070
    49
1040
12.5
1070
    50
1070
     1
1040
0.0
1000
ACAD_MTEXT_COLUMN_INFO_END
  0
MTEXT
  5
506E
330
1F
100
AcDbEntity
  8
0
370
     0
100
AcDbMText
 10
3193.086945857166
 20
2375.210472204578
 30
0.0
 40
10.0
 41
49.08315300982213
 46
0.0
 71
     5
 72
     5
  1
{\fSimSun|b0|i0|c134|p2;出线柜}
 73
     1
 44
1.0
1001
ACAD
1000
ACAD_MTEXT_COLUMN_INFO_BEGIN
1070
    75
1070
     2
1070
    79
1070
     0
1070
    76
1070
     1
1070
    78
1070
     0
1070
    48
1040
49.08315300982213
1070
    49
1040
12.5
1070
    50
1070
     1
1040
0.0
1000
ACAD_MTEXT_COLUMN_INFO_END
  0
MTEXT
  5
506F
330
1F
100
AcDbEntity
  8
0
370
     0
100
AcDbMText
 10
3193.086945857166
 20
2347.074701880123
 30
0.0
 40
10.0
 41
49.08315300982213
 46
0.0
 71
     5
 72
     5
  1
{\fSimSun|b0|i0|c134|p2;出线柜}
 73
     1
 44
1.0
1001
ACAD
1000
ACAD_MTEXT_COLUMN_INFO_BEGIN
1070
    75
1070
     2
1070
    79
1070
     0
1070
    76
1070
     1
1070
    78
1070
     0
1070
    48
1040
49.08315300982213
1070
    49
1040
12.5
1070
    50
1070
     1
1040
0.0
1000
ACAD_MTEXT_COLUMN_INFO_END
  0
MTEXT
  5
5070
330
1F
100
AcDbEntity
  8
0
370
     0
100
AcDbMText
 10
3333.086939901405
 20
2493.588862254803
 30
0.0
 40
10.0
 41
49.08315300982213
 46
0.0
 71
     5
 72
     5
  1
{\fSimSun|b0|i0|c134|p2;出线柜}
 73
     1
 44
1.0
1001
ACAD
1000
ACAD_MTEXT_COLUMN_INFO_BEGIN
1070
    75
1070
     2
1070
    79
1070
     0
1070
    76
1070
     1
1070
    78
1070
     0
1070
    48
1040
49.08315300982213
1070
    49
1040
12.5
1070
    50
1070
     1
1040
0.0
1000
ACAD_MTEXT_COLUMN_INFO_END
  0
MTEXT
  5
5073
330
1F
100
AcDbEntity
  8
0
370
     0
100
AcDbMText
 10
3331.390994738282
 20
2463.115833953165
 30
0.0
 40
10.0
 41
49.08315300982213
 46
0.0
 71
     5
 72
     5
  1
{\fSimSun|b0|i0|c134|p2;出线柜}
 73
     1
 44
1.0
1001
ACAD
1000
ACAD_MTEXT_COLUMN_INFO_BEGIN
1070
    75
1070
     2
1070
    79
1070
     0
1070
    76
1070
     1
1070
    78
1070
     0
1070
    48
1040
49.08315300982213
1070
    49
1040
12.5
1070
    50
1070
     1
1040
0.0
1000
ACAD_MTEXT_COLUMN_INFO_END
  0
LINE
  5
51C4
330
1F
100
AcDbEntity
  8
DM-10kV-Wire
 48
0.1
100
AcDbLine
 10
1619.160660284137
 20
2470.820087001011
 30
0.0
 11
1619.160667051054
 21
2627.420085359069
 31
0.0
  0
LINE
  5
51C5
330
1F
100
AcDbEntity
  8
DM-10kV-Wire
100
AcDbLine
 10
1619.160661278873
 20
2330.920086545755
 30
0.0
 11
1619.160660284137
 21
2438.420087001011
 31
0.0
  0
INSERT
  5
51C6
102
{ACAD_XDICTIONARY
360
51C7
102
}
330
1F
100
AcDbEntity
  8
DM-Outgoing Line
370
     0
100
AcDbBlockReference
  2
*U28
 10
1619.160676398123
 20
2647.670092987811
 30
0.0
 41
1.350000000000363
 42
1.350000000000363
 43
1.350000000000363
 50
180.0
  0
LINE
  5
51CD
330
1F
100
AcDbEntity
  8
DM-10kV-Wire
100
AcDbLine
 10
1619.160665300986
 20
2546.420085359067
 30
0.0
 11
1585.410665300986
 21
2546.420085359067
 31
0.0
  0
INSERT
  5
51CE
102
{ACAD_XDICTIONARY
360
51CF
102
}
330
1F
100
AcDbEntity
  8
DM-DXN-T-180
370
     0
100
AcDbBlockReference
  2
*U29
 10
1585.410665300986
 20
2553.170085359067
 30
0.0
 41
2.699999999999818
 42
2.699999999999818
 43
2.699999999999818
 50
180.0
  0
INSERT
  5
51D5
102
{ACAD_XDICTIONARY
360
51D6
102
}
330
1F
100
AcDbEntity
  8
DM-GND-180
370
     0
100
AcDbBlockReference
  2
*U30
 10
1585.410665300986
 20
2596.370085359069
 30
0.0
 41
2.699999999999818
 42
2.699999999999818
 43
2.699999999999818
 50
180.0
  0
LINE
  5
51DC
330
1F
100
AcDbEntity
  8
DM-10kV-Wire
100
AcDbLine
 10
1585.410665300986
 20
2546.420085359067
 30
0.0
 11
1585.410665300986
 21
2553.170085359067
 31
0.0
  0
INSERT
  5
51DD
330
1F
100
AcDbEntity
  8
DM-Knife Switch
100
AcDbBlockReference
  2
DM-Knife Switch
 10
-786.134231466343
 20
2044.022049317252
 30
0.0
 41
1.349999999999909
 42
1.349999999999909
 43
1.349999999999909
  0
INSERT
  5
51DE
102
{ACAD_XDICTIONARY
360
51DF
102
}
330
1F
100
AcDbEntity
  8
DM-GND-270
370
     0
100
AcDbBlockReference
  2
*U31
 10
1601.610660284136
 20
2458.670087001014
 30
0.0
 41
2.699999999999818
 42
2.699999999999818
 43
2.699999999999818
 50
270.0
  0
LINE
  5
51E5
330
1F
100
AcDbEntity
  8
DM-10kV-Wire
100
AcDbLine
 10
1619.160676398123
 20
2647.670092987811
 30
0.0
 11
1619.160676398121
 21
2703.920087001011
 31
0.0
  0
LWPOLYLINE
  5
51E6
330
1F
100
AcDbEntity
  8
DM-Wireframe
  6
ACAD_ISO03W100
370
     0
100
AcDbPolyline
 90
        4
 70
     1
 43
0.0
 10
1549.160661278873
 20
2663.39851019897
 10
1549.160661278873
 20
2370.39851019897
 10
1689.160661278872
 20
2370.39851019897
 10
1689.160661278872
 20
2663.39851019897
  0
MTEXT
  5
51E7
330
1F
100
AcDbEntity
  8
DM-Text
370
     0
100
AcDbMText
 10
1686.433736691348
 20
2667.71907471013
 30
0.0
 40
10.0
 41
51.58707615633011
 46
0.0
 71
     9
 72
     5
  1
G01
 73
     1
 44
1.0
1001
ACAD
1000
ACAD_MTEXT_COLUMN_INFO_BEGIN
1070
    75
1070
     2
1070
    79
1070
     0
1070
    76
1070
     1
1070
    78
1070
     0
1070
    48
1040
51.58707615633011
1070
    49
1040
12.5
1070
    50
1070
     1
1040
0.0
1000
ACAD_MTEXT_COLUMN_INFO_END
  0
INSERT
  5
52BA
102
{ACAD_XDICTIONARY
360
52BB
102
}
330
1F
100
AcDbEntity
  8
DM-HV FUSE
100
AcDbBlockReference
  2
*U37
 10
1868.730975568844
 20
2485.720086950414
 30
0.0
 41
1.199999999999818
 42
1.199999999999818
 43
1.199999999999818
  0
LINE
  5
52C1
330
1F
100
AcDbEntity
  8
DM-10kV-Wire
 48
0.1
100
AcDbLine
 10
1868.730978576362
 20
2537.32008622066
 30
0.0
 11
1868.730981583881
 21
2606.920085490906
 31
0.0
  0
LINE
  5
52C2
330
1F
100
AcDbEntity
  8
DM-10kV-Wire
100
AcDbLine
 10
1868.730975568844
 20
2330.920086545741
 30
0.0
 11
1868.730975568844
 21
2438.920086950413
 31
0.0
  0
INSERT
  5
52C3
102
{ACAD_XDICTIONARY
360
52C4
102
}
330
1F
100
AcDbEntity
  8
DM-Outgoing Line
370
     0
100
AcDbBlockReference
  2
*U32
 10
1868.730981583881
 20
2606.920085490906
 30
0.0
 41
1.199999999999818
 42
1.199999999999818
 43
1.199999999999818
  0
LINE
  5
52CA
330
1F
100
AcDbEntity
  8
DM-10kV-Wire
100
AcDbLine
 10
1868.730980028267
 20
2534.920085490906
 30
0.0
 11
1838.730980028267
 21
2534.920085490906
 31
0.0
  0
LINE
  5
52CB
330
1F
100
AcDbEntity
  8
DM-10kV-Wire
100
AcDbLine
 10
1868.730975568844
 20
2467.720086950413
 30
0.0
 11
1868.730975568844
 21
2485.720086950414
 31
0.0
  0
INSERT
  5
52CC
102
{ACAD_XDICTIONARY
360
52CD
102
}
330
1F
100
AcDbEntity
  8
DM-Earthing Switch-90
370
     0
100
AcDbBlockReference
  2
*U33
 10
1880.730980028267
 20
2534.920085490906
 30
0.0
 41
1.199999999999818
 42
1.199999999999818
 43
1.199999999999818
 50
90.0
  0
LINE
  5
52D3
330
1F
100
AcDbEntity
  8
DM-10kV-Wire
100
AcDbLine
 10
1868.730980028267
 20
2534.920085490906
 30
0.0
 11
1868.730975568844
 21
2514.520086950414
 31
0.0
  0
LINE
  5
52D4
330
1F
100
AcDbEntity
  8
DM-Ctrl-Wire
  6
DASHED
100
AcDbLine
 10
1863.930975568844
 20
2500.120086950413
 30
0.0
 11
1851.930975568843
 21
2500.120086950413
 31
0.0
  0
LINE
  5
52D5
330
1F
100
AcDbEntity
  8
DM-Ctrl-Wire
  6
DASHED
100
AcDbLine
 10
1851.930975568843
 20
2500.120086950413
 30
0.0
 11
1851.930975568843
 21
2461.720086950413
 31
0.0
  0
LINE
  5
52D6
330
1F
100
AcDbEntity
  8
DM-Ctrl-Wire
  6
DASHED
100
AcDbLine
 10
1851.930975568843
 20
2461.720086950413
 30
0.0
 11
1895.130980028267
 21
2461.720086950413
 31
0.0
  0
LINE
  5
52D7
330
1F
100
AcDbEntity
  8
DM-10kV-Wire
100
AcDbLine
 10
1868.730980028267
 20
2534.920085490906
 30
0.0
 11
1880.730980028267
 21
2534.920085490906
 31
0.0
  0
LINE
  5
52D8
330
1F
100
AcDbEntity
  8
DM-Ctrl-Wire
  6
DASHED
100
AcDbLine
 10
1895.130980028267
 20
2461.720086950413
 30
0.0
 11
1895.130980028267
 21
2529.434371461692
 31
0.0
  0
INSERT
  5
52D9
102
{ACAD_XDICTIONARY
360
52DA
102
}
330
1F
100
AcDbEntity
  8
DM-DXN-T-180
370
     0
100
AcDbBlockReference
  2
*U34
 10
1838.730980028267
 20
2540.920085490906
 30
0.0
 41
2.40000000000009
 42
2.40000000000009
 43
2.40000000000009
 50
180.0
  0
INSERT
  5
52E0
102
{ACAD_XDICTIONARY
360
52E1
102
}
330
1F
100
AcDbEntity
  8
DM-GND-180
370
     0
100
AcDbBlockReference
  2
*U35
 10
1838.730980028267
 20
2579.320085490906
 30
0.0
 41
2.40000000000009
 42
2.40000000000009
 43
2.40000000000009
 50
180.0
  0
LINE
  5
52E7
330
1F
100
AcDbEntity
  8
DM-10kV-Wire
100
AcDbLine
 10
1838.730980028267
 20
2534.920085490906
 30
0.0
 11
1838.730980028267
 21
2540.920085490906
 31
0.0
  0
INSERT
  5
52E8
330
1F
100
AcDbEntity
  8
DM-Knife Switch
100
AcDbBlockReference
  2
DM-Knife Switch
 10
-269.3089282093595
 20
2088.344053453735
 30
0.0
 41
1.199999999999818
 42
1.199999999999818
 43
1.199999999999818
  0
INSERT
  5
52E9
102
{ACAD_XDICTIONARY
360
52EA
102
}
330
1F
100
AcDbEntity
  8
DM-GND-270
370
     0
100
AcDbBlockReference
  2
*U36
 10
1853.130975568845
 20
2456.920086950413
 30
0.0
 41
2.399999999999636
 42
2.399999999999636
 43
2.399999999999636
 50
270.0
  0
LINE
  5
52F0
330
1F
100
AcDbEntity
  8
DM-10kV-Wire
 48
0.1
100
AcDbLine
 10
1868.730981583881
 20
2624.920085490906
 30
0.0
 11
1868.730981583881
 21
2703.920086545742
 31
0.0
  0
LWPOLYLINE
  5
52F2
330
1F
100
AcDbEntity
  8
DM-Wireframe
  6
ACAD_ISO03W100
370
     0
100
AcDbPolyline
 90
        4
 70
     1
 43
0.0
 10
1798.730975568844
 20
2663.920086545741
 10
1938.730975568844
 20
2663.920086545741
 10
1938.730975568844
 20
2370.920086545741
 10
1798.730975568834
 20
2370.920086545741
  0
MTEXT
  5
52F3
330
1F
100
AcDbEntity
  8
DM-Text
370
     0
100
AcDbMText
 10
2167.259690582179
 20
2668.41020624072
 30
0.0
 40
10.0
 41
51.58707615633011
 46
0.0
 71
     9
 72
     5
  1
G03
 73
     1
 44
1.0
1001
ACAD
1000
ACAD_MTEXT_COLUMN_INFO_BEGIN
1070
    75
1070
     2
1070
    79
1070
     0
1070
    76
1070
     1
1070
    78
1070
     0
1070
    48
1040
51.58707615633011
1070
    49
1040
12.5
1070
    50
1070
     1
1040
0.0
1000
ACAD_MTEXT_COLUMN_INFO_END
  0
LINE
  5
54BC
330
1F
100
AcDbEntity
  8
DM-10kV-Wire
100
AcDbLine
 10
2097.259690582179
 20
2703.920086545742
 30
0.0
 11
2097.259690582179
 21
2416.898510198959
 31
0.0
  0
INSERT
  5
54BD
102
{ACAD_XDICTIONARY
360
54BE
102
}
330
1F
100
AcDbEntity
  8
DM-Handcart
370
     0
100
AcDbBlockReference
  2
*U41
 10
2057.259695229586
 20
2560.29554818
 30
0.0
 41
1.1
 42
1.1
 43
1.1
  0
INSERT
  5
54C4
102
{ACAD_XDICTIONARY
360
54C5
102
}
330
1F
100
AcDbEntity
  8
DM-HPT
370
     0
100
AcDbBlockReference
  2
*U42
 10
2057.259695229586
 20
2549.29554818
 30
0.0
 41
1.1
 42
1.1
 43
1.1
  0
INSERT
  5
54CC
102
{ACAD_XDICTIONARY
360
54CD
102
}
330
1F
100
AcDbEntity
  8
DM-Outgoing Line-180
370
     0
100
AcDbBlockReference
  2
*U38
 10
2097.259690582179
 20
2416.898510198959
 30
0.0
 41
1.1
 42
1.1
 43
1.1
 50
180.0
  0
LINE
  5
54D3
330
1F
100
AcDbEntity
  8
DM-10kV-Wire
100
AcDbLine
 10
2097.259690582179
 20
2400.398510198959
 30
0.0
 11
2097.259690582179
 21
2260.920086545741
 31
0.0
  0
INSERT
  5
54D4
102
{ACAD_XDICTIONARY
360
54D5
102
}
330
1F
100
AcDbEntity
  8
DM-CT
370
     0
100
AcDbBlockReference
  2
*U39
 10
2080.759695229597
 20
2614.195548180001
 30
0.0
 41
1.1
 42
1.1
 43
1.1
  0
INSERT
  5
54DB
102
{ACAD_XDICTIONARY
360
54DC
102
}
330
1F
100
AcDbEntity
  8
DM-CT
370
     0
100
AcDbBlockReference
  2
*U40
 10
2113.759695229585
 20
2614.19554818
 30
0.0
 41
1.1
 42
1.1
 43
1.1
  0
LWPOLYLINE
  5
54E3
330
1F
100
AcDbEntity
  8
DM-Wireframe
  6
ACAD_ISO03W100
370
     0
100
AcDbPolyline
 90
        4
 70
     1
 43
0.0
 10
2027.259690582179
 20
2663.398510198959
 10
2027.259690582179
 20
2370.398510198959
 10
2167.259690582179
 20
2370.398510198959
 10
2167.259690582179
 20
2663.398510198959
  0
LINE
  5
54E4
330
1F
100
AcDbEntity
  8
DM-10kV-Wire
 48
0.1
100
AcDbLine
 10
2097.259695229586
 20
2560.29554818
 30
0.0
 11
2057.259695229586
 21
2560.29554818
 31
0.0
  0
LINE
  5
54EC
330
1F
100
AcDbEntity
  8
DM-10kV-Wire
100
AcDbLine
 10
1868.730981583881
 20
2703.920086545742
 30
0.0
 11
2097.259690582179
 21
2703.920086545742
 31
0.0
  0
MTEXT
  5
54EE
330
1F
100
AcDbEntity
  8
DM-Text
370
     0
100
AcDbMText
 10
1938.730975568844
 20
2668.931782587502
 30
0.0
 40
10.0
 41
51.58707615633011
 46
0.0
 71
     9
 72
     5
  1
G02
 73
     1
 44
1.0
1001
ACAD
1000
ACAD_MTEXT_COLUMN_INFO_BEGIN
1070
    75
1070
     2
1070
    79
1070
     0
1070
    76
1070
     1
1070
    78
1070
     0
1070
    48
1040
51.58707615633011
1070
    49
1040
12.5
1070
    50
1070
     1
1040
0.0
1000
ACAD_MTEXT_COLUMN_INFO_END
  0
MTEXT
  5
5586
330
1F
100
AcDbEntity
  8
0
370
     0
100
AcDbMText
 10
3124.659970378736
 20
2463.164067934655
 30
0.0
 40
10.0
 41
18.25118149904483
 46
0.0
 71
     5
 72
     5
  1
P00
 73
     1
 44
1.0
1001
ACAD
1000
ACAD_MTEXT_COLUMN_INFO_BEGIN
1070
    75
1070
     2
1070
    79
1070
     0
1070
    76
1070
     1
1070
    78
1070
     0
1070
    48
1040
18.25118149904483
1070
    49
1040
12.5
1070
    50
1070
     1
1040
0.0
1000
ACAD_MTEXT_COLUMN_INFO_END
  0
MTEXT
  5
5587
330
1F
100
AcDbEntity
  8
0
370
     0
100
AcDbMText
 10
3194.659970378742
 20
2463.646303985236
 30
0.0
 40
10.0
 41
49.08315300982213
 46
0.0
 71
     5
 72
     5
  1
电容柜
 73
     1
 44
1.0
1001
ACAD
1000
ACAD_MTEXT_COLUMN_INFO_BEGIN
1070
    75
1070
     2
1070
    79
1070
     0
1070
    76
1070
     1
1070
    78
1070
     0
1070
    48
1040
49.08315300982213
1070
    49
1040
12.5
1070
    50
1070
     1
1040
0.0
1000
ACAD_MTEXT_COLUMN_INFO_END
  0
ENDSEC
  0
SECTION
  2
OBJECTS
  0
DICTIONARY
  5
C
330
0
100
AcDbDictionary
281
     1
  3
ACAD_ASSOCPERSSUBENTMANAGER
350
1B79
  3
ACAD_CIP_PREVIOUS_PRODUCT_INFO
350
216
  3
ACAD_COLOR
350
6B
  3
ACAD_DETAILVIEWSTYLE
350
21B
  3
ACAD_GROUP
350
D
  3
ACAD_LAYOUT
350
1A
  3
ACAD_MATERIAL
350
6A
  3
ACAD_MLEADERSTYLE
350
12D
  3
ACAD_MLINESTYLE
350
17
  3
ACAD_PERSUBENTMGR
350
1B7A
  3
ACAD_PLOTSETTINGS
350
19
  3
ACAD_PLOTSTYLENAME
350
E
  3
ACAD_SCALELIST
350
10C
  3
ACAD_SECTIONVIEWSTYLE
350
219
  3
ACAD_TABLESTYLE
350
7E
  3
ACAD_VISUALSTYLE
350
EF
  3
ACDB_RECOMPOSE_DATA
350
55C5
  3
AcDbVariableDictionary
350
5E
  3
AcDsDecomposeData
350
55CB
  0
DICTIONARY
  5
4F8F
330
8
100
AcDbDictionary
280
     1
281
     1
  0
DICTIONARY
  5
1FF
330
2
100
AcDbDictionary
280
     1
281
     1
  3
ACAD_LAYERSTATES
360
200
  0
DICTIONARY
  5
13C
330
10
100
AcDbDictionary
280
     1
281
     1
  0
DICTIONARY
  5
1CE
330
1F
100
AcDbDictionary
280
     1
281
     1
  0
DICTIONARY
  5
260
330
25F
100
AcDbDictionary
280
     1
281
     1
  3
ACAD_ENHANCEDBLOCK
360
261
  3
AcDbDynamicBlockRoundTripPurgePreventer
360
263
  0
DICTIONARY
  5
4AB4
330
26D
100
AcDbDictionary
280
     1
281
     1
  3
ACAD_ENHANCEDBLOCK
360
4AB5
  3
AcDbDynamicBlockRoundTripPurgePreventer
360
4ABB
  0
DICTIONARY
  5
4C05
330
279
100
AcDbDictionary
280
     1
281
     1
  3
ACAD_ENHANCEDBLOCK
360
4C06
  3
AcDbDynamicBlockRoundTripPurgePreventer
360
4C22
  0
DICTIONARY
  5
285
330
284
100
AcDbDictionary
280
     1
281
     1
  3
ACAD_ENHANCEDBLOCK
360
286
  3
AcDbDynamicBlockRoundTripPurgePreventer
360
288
  0
DICTIONARY
  5
291
330
290
100
AcDbDictionary
280
     1
281
     1
  3
ACAD_ENHANCEDBLOCK
360
292
  3
ACAD_SORTENTS
360
294
  3
AcDbDynamicBlockRoundTripPurgePreventer
360
295
  0
DICTIONARY
  5
2A5
330
2A4
100
AcDbDictionary
280
     1
281
     1
  3
ACAD_ENHANCEDBLOCK
360
2A6
  3
AcDbDynamicBlockRoundTripPurgePreventer
360
2A8
  0
DICTIONARY
  5
2BC
330
2BB
100
AcDbDictionary
280
     1
281
     1
  3
ACAD_ENHANCEDBLOCK
360
2BD
  3
AcDbDynamicBlockRoundTripPurgePreventer
360
2BF
  0
DICTIONARY
  5
2CE
330
2CD
100
AcDbDictionary
280
     1
281
     1
  3
ACAD_ENHANCEDBLOCK
360
2CF
  3
AcDbDynamicBlockRoundTripPurgePreventer
360
2D1
  0
DICTIONARY
  5
2E5
330
2E4
100
AcDbDictionary
280
     1
281
     1
  3
ACAD_ENHANCEDBLOCK
360
2E6
  3
AcDbDynamicBlockRoundTripPurgePreventer
360
2E8
  0
DICTIONARY
  5
2F1
330
2F0
100
AcDbDictionary
280
     1
281
     1
  3
ACAD_ENHANCEDBLOCK
360
2F2
  3
AcDbDynamicBlockRoundTripPurgePreventer
360
2F4
  0
DICTIONARY
  5
146E
330
1466
100
AcDbDictionary
280
     1
281
     1
  0
DICTIONARY
  5
14CE
330
14BF
100
AcDbDictionary
280
     1
281
     1
  3
ACAD_SORTENTS
360
14CF
  0
DICTIONARY
  5
1B9E
330
1B9D
100
AcDbDictionary
280
     1
281
     1
  3
ACAD_ENHANCEDBLOCK
360
1B9F
  3
AcDbDynamicBlockRoundTripPurgePreventer
360
1BA1
  0
DICTIONARY
  5
1C95
330
1C8D
100
AcDbDictionary
280
     1
281
     1
  0
DICTIONARY
  5
1CC1
330
1CAE
100
AcDbDictionary
280
     1
281
     1
  0
DICTIONARY
  5
1CCC
330
1CC4
100
AcDbDictionary
280
     1
281
     1
  0
DICTIONARY
  5
1CD7
330
1CCF
100
AcDbDictionary
280
     1
281
     1
  0
DICTIONARY
  5
1CE2
330
1CDA
100
AcDbDictionary
280
     1
281
     1
  0
DICTIONARY
  5
1CED
330
1CE5
100
AcDbDictionary
280
     1
281
     1
  0
DICTIONARY
  5
1CFF
330
1CF0
100
AcDbDictionary
280
     1
281
     1
  3
ACAD_SORTENTS
360
1D00
  0
DICTIONARY
  5
2102
330
20FA
100
AcDbDictionary
280
     1
281
     1
  0
DICTIONARY
  5
210D
330
2105
100
AcDbDictionary
280
     1
281
     1
  0
DICTIONARY
  5
2118
330
2110
100
AcDbDictionary
280
     1
281
     1
  0
DICTIONARY
  5
3B27
330
3B26
100
AcDbDictionary
280
     1
281
     1
  0
DICTIONARY
  5
3B30
330
3B2F
100
AcDbDictionary
280
     1
281
     1
  3
ACAD_ENHANCEDBLOCK
360
3B31
  3
AcDbDynamicBlockRoundTripPurgePreventer
360
3B33
  0
DICTIONARY
  5
4B2A
330
4B22
100
AcDbDictionary
280
     1
281
     1
  0
DICTIONARY
  5
4B40
330
4B38
100
AcDbDictionary
280
     1
281
     1
  0
DICTIONARY
  5
5194
330
518C
100
AcDbDictionary
280
     1
281
     1
  0
DICTIONARY
  5
51AA
330
5197
100
AcDbDictionary
280
     1
281
     1
  0
DICTIONARY
  5
51B5
330
51AD
100
AcDbDictionary
280
     1
281
     1
  0
DICTIONARY
  5
51C0
330
51B8
100
AcDbDictionary
280
     1
281
     1
  0
DICTIONARY
  5
5271
330
5269
100
AcDbDictionary
280
     1
281
     1
  0
DICTIONARY
  5
5280
330
5274
100
AcDbDictionary
280
     1
281
     1
  0
DICTIONARY
  5
5296
330
5283
100
AcDbDictionary
280
     1
281
     1
  0
DICTIONARY
  5
52A1
330
5299
100
AcDbDictionary
280
     1
281
     1
  0
DICTIONARY
  5
52AC
330
52A4
100
AcDbDictionary
280
     1
281
     1
  0
DICTIONARY
  5
52B6
330
52AF
100
AcDbDictionary
280
     1
281
     1
  0
DICTIONARY
  5
53FD
330
53F5
100
AcDbDictionary
280
     1
281
     1
  0
DICTIONARY
  5
5408
330
5400
100
AcDbDictionary
280
     1
281
     1
  0
DICTIONARY
  5
5413
330
540B
100
AcDbDictionary
280
     1
281
     1
  0
DICTIONARY
  5
546E
330
5466
100
AcDbDictionary
280
     1
281
     1
  0
DICTIONARY
  5
547F
330
5471
100
AcDbDictionary
280
     1
281
     1
  0
DICTIONARY
  5
1D1B
330
1D1A
100
AcDbDictionary
280
     1
281
     1
  3
AcDbBlockRepresentation
360
1D1C
  0
DICTIONARY
  5
1D23
330
1D22
100
AcDbDictionary
280
     1
281
     1
  3
AcDbBlockRepresentation
360
1D24
  0
DICTIONARY
  5
1D2A
330
1D29
100
AcDbDictionary
280
     1
281
     1
  3
AcDbBlockRepresentation
360
1D2B
  0
DICTIONARY
  5
1D31
330
1D30
100
AcDbDictionary
280
     1
281
     1
  3
AcDbBlockRepresentation
360
1D32
  0
DICTIONARY
  5
1D38
330
1D37
100
AcDbDictionary
280
     1
281
     1
  3
AcDbBlockRepresentation
360
1D39
  0
DICTIONARY
  5
1D40
330
1D3F
100
AcDbDictionary
280
     1
281
     1
  3
AcDbBlockRepresentation
360
1D41
  0
DICTIONARY
  5
1D47
330
1D46
100
AcDbDictionary
280
     1
281
     1
  3
AcDbBlockRepresentation
360
1D48
  0
DICTIONARY
  5
1D4F
330
1D4E
100
AcDbDictionary
280
     1
281
     1
  3
AcDbBlockRepresentation
360
1D50
  0
DICTIONARY
  5
211F
330
211E
100
AcDbDictionary
280
     1
281
     1
  3
AcDbBlockRepresentation
360
2120
  0
DICTIONARY
  5
2128
330
2127
100
AcDbDictionary
280
     1
281
     1
  3
AcDbBlockRepresentation
360
2129
  0
DICTIONARY
  5
2130
330
212F
100
AcDbDictionary
280
     1
281
     1
  3
AcDbBlockRepresentation
360
2131
  0
DICTIONARY
  5
5002
330
5001
100
AcDbDictionary
280
     1
281
     1
  3
AcDbBlockRepresentation
360
5003
  0
DICTIONARY
  5
5009
330
5008
100
AcDbDictionary
280
     1
281
     1
  3
AcDbBlockRepresentation
360
500A
  0
DICTIONARY
  5
5056
330
5055
100
AcDbDictionary
280
     1
281
     1
  3
AcDbBlockRepresentation
360
5057
  0
DICTIONARY
  5
505D
330
505C
100
AcDbDictionary
280
     1
281
     1
  3
AcDbBlockRepresentation
360
505E
  0
DICTIONARY
  5
51C7
330
51C6
100
AcDbDictionary
280
     1
281
     1
  3
AcDbBlockRepresentation
360
51C8
  0
DICTIONARY
  5
51CF
330
51CE
100
AcDbDictionary
280
     1
281
     1
  3
AcDbBlockRepresentation
360
51D0
  0
DICTIONARY
  5
51D6
330
51D5
100
AcDbDictionary
280
     1
281
     1
  3
AcDbBlockRepresentation
360
51D7
  0
DICTIONARY
  5
51DF
330
51DE
100
AcDbDictionary
280
     1
281
     1
  3
AcDbBlockRepresentation
360
51E0
  0
DICTIONARY
  5
52BB
330
52BA
100
AcDbDictionary
280
     1
281
     1
  3
AcDbBlockRepresentation
360
52BC
  0
DICTIONARY
  5
52C4
330
52C3
100
AcDbDictionary
280
     1
281
     1
  3
AcDbBlockRepresentation
360
52C5
  0
DICTIONARY
  5
52CD
330
52CC
100
AcDbDictionary
280
     1
281
     1
  3
AcDbBlockRepresentation
360
52CE
  0
DICTIONARY
  5
52DA
330
52D9
100
AcDbDictionary
280
     1
281
     1
  3
AcDbBlockRepresentation
360
52DB
  0
DICTIONARY
  5
52E1
330
52E0
100
AcDbDictionary
280
     1
281
     1
  3
AcDbBlockRepresentation
360
52E2
  0
DICTIONARY
  5
52EA
330
52E9
100
AcDbDictionary
280
     1
281
     1
  3
AcDbBlockRepresentation
360
52EB
  0
DICTIONARY
  5
54BE
330
54BD
100
AcDbDictionary
280
     1
281
     1
  3
AcDbBlockRepresentation
360
54BF
  0
DICTIONARY
  5
54C5
330
54C4
100
AcDbDictionary
280
     1
281
     1
  3
AcDbBlockRepresentation
360
54C6
  0
DICTIONARY
  5
54CD
330
54CC
100
AcDbDictionary
280
     1
281
     1
  3
AcDbBlockRepresentation
360
54CE
  0
DICTIONARY
  5
54D5
330
54D4
100
AcDbDictionary
280
     1
281
     1
  3
AcDbBlockRepresentation
360
54D6
  0
DICTIONARY
  5
54DC
330
54DB
100
AcDbDictionary
280
     1
281
     1
  3
AcDbBlockRepresentation
360
54DD
  0
ACAD_PROXY_OBJECT
  5
1B79
102
{ACAD_REACTORS
330
C
102
}
330
C
100
AcDbProxyObject
 90
      499
 91
      522
 95
   393245
 70
     0
162
                 0
161
               997
310
4050390242EA23AC600DC0074008200C6008800C4008200E600E600DE00C600A000CA00E400E600A600EA00C400CA00DC00E8009A00C200DC00C200CE00CA00E4008EB18037001D00208031802200310020803980398037803180280032803900398029803A803100328037003A0026803080370030803380328039004
 94
        0
  0
XRECORD
  5
216
102
{ACAD_REACTORS
330
C
102
}
330
C
100
AcDbXrecord
280
     1
300
ACD
300
2016
300
ACD_F_S
  0
DICTIONARY
  5
6B
102
{ACAD_REACTORS
330
C
102
}
330
C
100
AcDbDictionary
281
     1
  0
DICTIONARY
  5
21B
102
{ACAD_REACTORS
330
C
102
}
330
C
100
AcDbDictionary
281
     1
  3
Metric50
350
21C
  0
DICTIONARY
  5
D
102
{ACAD_REACTORS
330
C
102
}
330
C
100
AcDbDictionary
281
     1
  0
DICTIONARY
  5
1A
102
{ACAD_REACTORS
330
C
102
}
330
C
100
AcDbDictionary
281
     1
  3
Model
350
22
  3
布局1
350
D3
  3
布局2
350
D7
  0
DICTIONARY
  5
6A
102
{ACAD_REACTORS
330
C
102
}
330
C
100
AcDbDictionary
281
     1
  3
ByBlock
350
ED
  3
ByLayer
350
EC
  3
Global
350
EE
  0
DICTIONARY
  5
12D
102
{ACAD_REACTORS
330
C
102
}
330
C
100
AcDbDictionary
281
     1
  3
Annotative
350
13B
  3
Standard
350
12E
  0
DICTIONARY
  5
17
102
{ACAD_REACTORS
330
C
102
}
330
C
100
AcDbDictionary
281
     1
  3
Standard
350
18
  0
ACDBPERSSUBENTMANAGER
  5
1B7A
102
{ACAD_REACTORS
330
C
102
}
330
C
100
AcDbPersSubentManager
 90
        2
 90
        0
 90
        2
 90
       11
 90
        0
 90
        0
  0
DICTIONARY
  5
19
102
{ACAD_REACTORS
330
C
102
}
330
C
100
AcDbDictionary
281
     1
  0
ACDBDICTIONARYWDFLT
  5
E
102
{ACAD_REACTORS
330
C
102
}
330
C
100
AcDbDictionary
281
     1
  3
Normal
350
F
100
AcDbDictionaryWithDefault
340
F
  0
DICTIONARY
  5
10C
102
{ACAD_REACTORS
330
C
102
}
330
C
100
AcDbDictionary
281
     1
  3
A0
350
10D
  3
A1
350
1BE
  3
A2
350
1BF
  3
A3
350
1C0
  3
A4
350
1C1
  3
A5
350
1C2
  3
A6
350
1C3
  3
A7
350
1C4
  3
A8
350
1C5
  3
A9
350
1C6
  3
B0
350
1C7
  3
B1
350
1C8
  3
B2
350
1C9
  3
B3
350
1CA
  3
B4
350
1CB
  3
B5
350
1CC
  3
B6
350
1CD
  0
DICTIONARY
  5
219
102
{ACAD_REACTORS
330
C
102
}
330
C
100
AcDbDictionary
281
     1
  3
Metric50
350
21A
  0
DICTIONARY
  5
7E
102
{ACAD_REACTORS
330
C
102
}
330
C
100
AcDbDictionary
281
     1
  3
Standard
350
7F
  0
DICTIONARY
  5
EF
102
{ACAD_REACTORS
330
C
102
}
330
C
100
AcDbDictionary
281
     1
  3
2dWireframe
350
F5
  3
3D Hidden
350
4E1B
  3
3dWireframe
350
549
  3
Basic
350
F4
  3
Brighten
350
FB
  3
ColorChange
350
FF
  3
Conceptual
350
F8
  3
Dim
350
FA
  3
EdgeColorOff
350
1E6
  3
Facepattern
350
FE
  3
Flat
350
F0
  3
FlatWithEdges
350
F1
  3
Gouraud
350
F2
  3
GouraudWithEdges
350
F3
  3
Hidden
350
F7
  3
JitterOff
350
1E4
  3
Linepattern
350
FD
  3
OverhangOff
350
1E5
  3
Realistic
350
F9
  3
Shaded
350
1F3
  3
Shaded with edges
350
1F2
  3
Shades of Gray
350
1EF
  3
Sketchy
350
1F0
  3
Thicken
350
FC
  3
Wireframe
350
F6
  3
X-Ray
350
1F1
  0
XRECORD
  5
55C5
102
{ACAD_REACTORS
330
C
102
}
330
C
100
AcDbXrecord
280
     1
 90
        1
330
7F
330
1D57
330
2125
330
4E7D
330
4E7E
330
4E80
330
4F23
330
4F2A
330
4F2B
330
4F35
330
4F40
330
4F41
330
4F44
330
4F48
330
4F4A
330
4F4B
330
4F4C
330
4F4D
330
4F4E
330
4F4F
330
4F50
330
4F5D
330
4F6A
330
506B
330
506C
330
506D
330
506E
330
506F
330
5070
330
5073
330
51E7
330
52F3
330
54EE
330
5586
330
5587
  0
DICTIONARY
  5
5E
102
{ACAD_REACTORS
330
C
102
}
330
C
100
AcDbDictionary
281
     1
  3
CANNOSCALE
350
146
  3
CMLEADERSTYLE
350
145
  3
CTABLESTYLE
350
84
  3
CVIEWDETAILSTYLE
350
227
  3
CVIEWSECTIONSTYLE
350
228
  3
DIMASSOC
350
5F
  3
HIDETEXT
350
63
  3
LAYEREVAL
350
1AE
  3
LAYERNOTIFY
350
1AF
  3
LIGHTINGUNITS
350
4FD2
  3
MSLTSCALE
350
4FD1
  3
SOLIDHIST
350
4FD3
  0
DICTIONARY
  5
55CB
102
{ACAD_REACTORS
330
C
102
}
330
C
100
AcDbDictionary
281
     1
  3
AcDsRecords
350
55CD
  3
AcDsSchemas
350
55CC
1001
ACAD
1070
     2
  0
DICTIONARY
  5
200
102
{ACAD_REACTORS
330
1FF
102
}
330
1FF
100
AcDbDictionary
281
     1
  0
ACAD_EVALUATION_GRAPH
  5
261
102
{ACAD_REACTORS
330
260
102
}
330
260
100
AcDbEvalGraph
 96
        1
 97
        1
 91
        0
 93
       32
 95
        1
360
262
 92
       -1
 92
       -1
 92
       -1
 92
       -1
  0
ACDB_DYNAMICBLOCKPURGEPREVENTER_VERSION
  5
263
102
{ACAD_REACTORS
330
260
102
}
330
260
100
AcDbDynamicBlockPurgePreventer
 70
     1
  0
ACAD_EVALUATION_GRAPH
  5
4AB5
102
{ACAD_REACTORS
330
4AB4
102
}
330
4AB4
100
AcDbEvalGraph
 96
        3
 97
        3
 91
        0
 93
       32
 95
        3
360
4AB6
 92
       -1
 92
       -1
 92
       -1
 92
       -1
  0
ACDB_DYNAMICBLOCKPURGEPREVENTER_VERSION
  5
4ABB
102
{ACAD_REACTORS
330
4AB4
102
}
330
4AB4
100
AcDbDynamicBlockPurgePreventer
 70
     1
  0
ACAD_EVALUATION_GRAPH
  5
4C06
102
{ACAD_REACTORS
330
4C05
102
}
330
4C05
100
AcDbEvalGraph
 96
        1
 97
        1
 91
        0
 93
       32
 95
        1
360
4C07
 92
       -1
 92
       -1
 92
       -1
 92
       -1
  0
ACDB_DYNAMICBLOCKPURGEPREVENTER_VERSION
  5
4C22
102
{ACAD_REACTORS
330
4C05
102
}
330
4C05
100
AcDbDynamicBlockPurgePreventer
 70
     1
  0
ACAD_EVALUATION_GRAPH
  5
286
102
{ACAD_REACTORS
330
285
102
}
330
285
100
AcDbEvalGraph
 96
        1
 97
        1
 91
        0
 93
       32
 95
        1
360
287
 92
       -1
 92
       -1
 92
       -1
 92
       -1
  0
ACDB_DYNAMICBLOCKPURGEPREVENTER_VERSION
  5
288
102
{ACAD_REACTORS
330
285
102
}
330
285
100
AcDbDynamicBlockPurgePreventer
 70
     1
  0
ACAD_EVALUATION_GRAPH
  5
292
102
{ACAD_REACTORS
330
291
102
}
330
291
100
AcDbEvalGraph
 96
        2
 97
        2
 91
        0
 93
       32
 95
        2
360
293
 92
       -1
 92
       -1
 92
       -1
 92
       -1
  0
SORTENTSTABLE
  5
294
102
{ACAD_REACTORS
330
291
102
}
330
291
100
AcDbSortentsTable
330
290
  0
ACDB_DYNAMICBLOCKPURGEPREVENTER_VERSION
  5
295
102
{ACAD_REACTORS
330
291
102
}
330
291
100
AcDbDynamicBlockPurgePreventer
 70
     1
  0
ACAD_EVALUATION_GRAPH
  5
2A6
102
{ACAD_REACTORS
330
2A5
102
}
330
2A5
100
AcDbEvalGraph
 96
        2
 97
        2
 91
        0
 93
       32
 95
        2
360
2A7
 92
       -1
 92
       -1
 92
       -1
 92
       -1
  0
ACDB_DYNAMICBLOCKPURGEPREVENTER_VERSION
  5
2A8
102
{ACAD_REACTORS
330
2A5
102
}
330
2A5
100
AcDbDynamicBlockPurgePreventer
 70
     1
  0
ACAD_EVALUATION_GRAPH
  5
2BD
102
{ACAD_REACTORS
330
2BC
102
}
330
2BC
100
AcDbEvalGraph
 96
        1
 97
        1
 91
        0
 93
       32
 95
        1
360
2BE
 92
       -1
 92
       -1
 92
       -1
 92
       -1
  0
ACDB_DYNAMICBLOCKPURGEPREVENTER_VERSION
  5
2BF
102
{ACAD_REACTORS
330
2BC
102
}
330
2BC
100
AcDbDynamicBlockPurgePreventer
 70
     1
  0
ACAD_EVALUATION_GRAPH
  5
2CF
102
{ACAD_REACTORS
330
2CE
102
}
330
2CE
100
AcDbEvalGraph
 96
        1
 97
        1
 91
        0
 93
       32
 95
        1
360
2D0
 92
       -1
 92
       -1
 92
       -1
 92
       -1
  0
ACDB_DYNAMICBLOCKPURGEPREVENTER_VERSION
  5
2D1
102
{ACAD_REACTORS
330
2CE
102
}
330
2CE
100
AcDbDynamicBlockPurgePreventer
 70
     1
  0
ACAD_EVALUATION_GRAPH
  5
2E6
102
{ACAD_REACTORS
330
2E5
102
}
330
2E5
100
AcDbEvalGraph
 96
        1
 97
        1
 91
        0
 93
       32
 95
        1
360
2E7
 92
       -1
 92
       -1
 92
       -1
 92
       -1
  0
ACDB_DYNAMICBLOCKPURGEPREVENTER_VERSION
  5
2E8
102
{ACAD_REACTORS
330
2E5
102
}
330
2E5
100
AcDbDynamicBlockPurgePreventer
 70
     1
  0
ACAD_EVALUATION_GRAPH
  5
2F2
102
{ACAD_REACTORS
330
2F1
102
}
330
2F1
100
AcDbEvalGraph
 96
        1
 97
        1
 91
        0
 93
       32
 95
        1
360
2F3
 92
       -1
 92
       -1
 92
       -1
 92
       -1
  0
ACDB_DYNAMICBLOCKPURGEPREVENTER_VERSION
  5
2F4
102
{ACAD_REACTORS
330
2F1
102
}
330
2F1
100
AcDbDynamicBlockPurgePreventer
 70
     1
  0
SORTENTSTABLE
  5
14CF
102
{ACAD_REACTORS
330
14CE
102
}
330
14CE
100
AcDbSortentsTable
330
14BF
  0
ACAD_EVALUATION_GRAPH
  5
1B9F
102
{ACAD_REACTORS
330
1B9E
102
}
330
1B9E
100
AcDbEvalGraph
 96
        1
 97
        1
 91
        0
 93
       32
 95
        1
360
1BA0
 92
       -1
 92
       -1
 92
       -1
 92
       -1
  0
ACDB_DYNAMICBLOCKPURGEPREVENTER_VERSION
  5
1BA1
102
{ACAD_REACTORS
330
1B9E
102
}
330
1B9E
100
AcDbDynamicBlockPurgePreventer
 70
     1
  0
SORTENTSTABLE
  5
1D00
102
{ACAD_REACTORS
330
1CFF
102
}
330
1CFF
100
AcDbSortentsTable
330
1CF0
  0
ACAD_EVALUATION_GRAPH
  5
3B31
102
{ACAD_REACTORS
330
3B30
102
}
330
3B30
100
AcDbEvalGraph
 96
        1
 97
        1
 91
        0
 93
       32
 95
        1
360
3B32
 92
       -1
 92
       -1
 92
       -1
 92
       -1
  0
ACDB_DYNAMICBLOCKPURGEPREVENTER_VERSION
  5
3B33
102
{ACAD_REACTORS
330
3B30
102
}
330
3B30
100
AcDbDynamicBlockPurgePreventer
 70
     1
  0
DICTIONARY
  5
1D1C
102
{ACAD_REACTORS
330
1D1B
102
}
330
1D1B
100
AcDbDictionary
280
     1
281
     1
  3
AcDbRepData
360
1D1D
  3
AppDataCache
360
1D1E
  0
DICTIONARY
  5
1D24
102
{ACAD_REACTORS
330
1D23
102
}
330
1D23
100
AcDbDictionary
280
     1
281
     1
  3
AcDbRepData
360
1D25
  3
AppDataCache
360
1D26
  0
DICTIONARY
  5
1D2B
102
{ACAD_REACTORS
330
1D2A
102
}
330
1D2A
100
AcDbDictionary
280
     1
281
     1
  3
AcDbRepData
360
1D2C
  3
AppDataCache
360
1D2D
  0
DICTIONARY
  5
1D32
102
{ACAD_REACTORS
330
1D31
102
}
330
1D31
100
AcDbDictionary
280
     1
281
     1
  3
AcDbRepData
360
1D33
  3
AppDataCache
360
1D34
  0
DICTIONARY
  5
1D39
102
{ACAD_REACTORS
330
1D38
102
}
330
1D38
100
AcDbDictionary
280
     1
281
     1
  3
AcDbRepData
360
1D3A
  3
AppDataCache
360
1D3B
  0
DICTIONARY
  5
1D41
102
{ACAD_REACTORS
330
1D40
102
}
330
1D40
100
AcDbDictionary
280
     1
281
     1
  3
AcDbRepData
360
1D42
  3
AppDataCache
360
1D43
  0
DICTIONARY
  5
1D48
102
{ACAD_REACTORS
330
1D47
102
}
330
1D47
100
AcDbDictionary
280
     1
281
     1
  3
AcDbRepData
360
1D49
  3
AppDataCache
360
1D4A
  0
DICTIONARY
  5
1D50
102
{ACAD_REACTORS
330
1D4F
102
}
330
1D4F
100
AcDbDictionary
280
     1
281
     1
  3
AcDbRepData
360
1D51
  3
AppDataCache
360
1D52
  0
DICTIONARY
  5
2120
102
{ACAD_REACTORS
330
211F
102
}
330
211F
100
AcDbDictionary
280
     1
281
     1
  3
AcDbRepData
360
2121
  3
AppDataCache
360
2122
  0
DICTIONARY
  5
2129
102
{ACAD_REACTORS
330
2128
102
}
330
2128
100
AcDbDictionary
280
     1
281
     1
  3
AcDbRepData
360
212A
  3
AppDataCache
360
212B
  0
DICTIONARY
  5
2131
102
{ACAD_REACTORS
330
2130
102
}
330
2130
100
AcDbDictionary
280
     1
281
     1
  3
AcDbRepData
360
2132
  3
AppDataCache
360
2133
  0
DICTIONARY
  5
5003
102
{ACAD_REACTORS
330
5002
102
}
330
5002
100
AcDbDictionary
280
     1
281
     1
  3
AcDbRepData
360
5004
  3
AppDataCache
360
5005
  0
DICTIONARY
  5
500A
102
{ACAD_REACTORS
330
5009
102
}
330
5009
100
AcDbDictionary
280
     1
281
     1
  3
AcDbRepData
360
500B
  3
AppDataCache
360
500C
  0
DICTIONARY
  5
5057
102
{ACAD_REACTORS
330
5056
102
}
330
5056
100
AcDbDictionary
280
     1
281
     1
  3
AcDbRepData
360
5058
  3
AppDataCache
360
5059
  0
DICTIONARY
  5
505E
102
{ACAD_REACTORS
330
505D
102
}
330
505D
100
AcDbDictionary
280
     1
281
     1
  3
AcDbRepData
360
505F
  3
AppDataCache
360
5060
  0
DICTIONARY
  5
51C8
102
{ACAD_REACTORS
330
51C7
102
}
330
51C7
100
AcDbDictionary
280
     1
281
     1
  3
AcDbRepData
360
51C9
  3
AppDataCache
360
51CA
  0
DICTIONARY
  5
51D0
102
{ACAD_REACTORS
330
51CF
102
}
330
51CF
100
AcDbDictionary
280
     1
281
     1
  3
AcDbRepData
360
51D1
  3
AppDataCache
360
51D2
  0
DICTIONARY
  5
51D7
102
{ACAD_REACTORS
330
51D6
102
}
330
51D6
100
AcDbDictionary
280
     1
281
     1
  3
AcDbRepData
360
51D8
  3
AppDataCache
360
51D9
  0
DICTIONARY
  5
51E0
102
{ACAD_REACTORS
330
51DF
102
}
330
51DF
100
AcDbDictionary
280
     1
281
     1
  3
AcDbRepData
360
51E1
  3
AppDataCache
360
51E2
  0
DICTIONARY
  5
52BC
102
{ACAD_REACTORS
330
52BB
102
}
330
52BB
100
AcDbDictionary
280
     1
281
     1
  3
AcDbRepData
360
52BD
  3
AppDataCache
360
52BE
  0
DICTIONARY
  5
52C5
102
{ACAD_REACTORS
330
52C4
102
}
330
52C4
100
AcDbDictionary
280
     1
281
     1
  3
AcDbRepData
360
52C6
  3
AppDataCache
360
52C7
  0
DICTIONARY
  5
52CE
102
{ACAD_REACTORS
330
52CD
102
}
330
52CD
100
AcDbDictionary
280
     1
281
     1
  3
AcDbRepData
360
52CF
  3
AppDataCache
360
52D0
  0
DICTIONARY
  5
52DB
102
{ACAD_REACTORS
330
52DA
102
}
330
52DA
100
AcDbDictionary
280
     1
281
     1
  3
AcDbRepData
360
52DC
  3
AppDataCache
360
52DD
  0
DICTIONARY
  5
52E2
102
{ACAD_REACTORS
330
52E1
102
}
330
52E1
100
AcDbDictionary
280
     1
281
     1
  3
AcDbRepData
360
52E3
  3
AppDataCache
360
52E4
  0
DICTIONARY
  5
52EB
102
{ACAD_REACTORS
330
52EA
102
}
330
52EA
100
AcDbDictionary
280
     1
281
     1
  3
AcDbRepData
360
52EC
  3
AppDataCache
360
52ED
  0
DICTIONARY
  5
54BF
102
{ACAD_REACTORS
330
54BE
102
}
330
54BE
100
AcDbDictionary
280
     1
281
     1
  3
AcDbRepData
360
54C0
  3
AppDataCache
360
54C1
  0
DICTIONARY
  5
54C6
102
{ACAD_REACTORS
330
54C5
102
}
330
54C5
100
AcDbDictionary
280
     1
281
     1
  3
AcDbRepData
360
54C7
  3
AppDataCache
360
54C8
  0
DICTIONARY
  5
54CE
102
{ACAD_REACTORS
330
54CD
102
}
330
54CD
100
AcDbDictionary
280
     1
281
     1
  3
AcDbRepData
360
54CF
  3
AppDataCache
360
54D0
  0
DICTIONARY
  5
54D6
102
{ACAD_REACTORS
330
54D5
102
}
330
54D5
100
AcDbDictionary
280
     1
281
     1
  3
AcDbRepData
360
54D7
  3
AppDataCache
360
54D8
  0
DICTIONARY
  5
54DD
102
{ACAD_REACTORS
330
54DC
102
}
330
54DC
100
AcDbDictionary
280
     1
281
     1
  3
AcDbRepData
360
54DE
  3
AppDataCache
360
54DF
  0
ACAD_PROXY_OBJECT
  5
21C
102
{ACAD_REACTORS
330
21B
102
}
330
21B
100
AcDbProxyObject
 90
      499
 91
      516
 95
   393245
 70
     0
162
              1030
311
42134019401D001C801A4018C00D400C0024DC9400F001700104018C0158018401C80080015801A4019401DC0110019401D0018401A401B00124019000F80094008000A0009400F001700104018C0158018401C80080015801A4019401DC014C018C018401B0019400800170019800800088009401CC01B8008800F8009400
311
A400
161
              1327
310
9207000000180000000000000000A20403000000180000000000000000A2023300000018001000000180000000000000000A20400000000000017202028CC000000600023300000018000008B318037001D002080318022003100220032803A003080348036002B00348032803B8029803A003C803600328022CC600DC0074
310
008200C6008800C4008800CA00E800C200D200D800AC00D200CA00EE00A600E800F200D800CA00
340
11
340
0
340
16
340
11
340
16
340
16
 94
        0
  0
LAYOUT
  5
22
102
{ACAD_XDICTIONARY
360
205
102
}
102
{ACAD_REACTORS
330
1A
102
}
330
1A
100
AcDbPlotSettings
  1

  2
none_device
  4
ISO_A4_(210.00_x_297.00_MM)
  6

 40
7.5
 41
20.0
 42
7.5
 43
20.0
 44
210.0
 45
297.0
 46
11.54999923706054
 47
-13.65000009536743
 48
0.0
 49
0.0
140
0.0
141
0.0
142
1.0
143
8.704084754739808
 70
 11952
 72
     1
 73
     0
 74
     0
  7

 75
     0
147
0.1148885871608098
 76
     0
 77
     2
 78
   300
148
0.0
149
0.0
100
AcDbLayout
  1
Model
 70
     1
 71
     0
 10
0.0
 20
0.0
 11
12.0
 21
9.0
 12
0.0
 22
0.0
 32
0.0
 14
0.0
 24
0.0
 34
0.0
 15
0.0
 25
0.0
 35
0.0
146
0.0
 13
0.0
 23
0.0
 33
0.0
 16
1.0
 26
0.0
 36
0.0
 17
0.0
 27
1.0
 37
0.0
 76
     0
330
1F
331
EA
1001
ACAD_PSEXT
1000
None
1000
None
1000
Not applicable
1000
The layout will not be plotted unless a new plotter configuration name is selected.
1070
     0
  0
LAYOUT
  5
D3
102
{ACAD_REACTORS
330
1A
102
}
330
1A
100
AcDbPlotSettings
  1

  2
C:\Documents and Settings\basas\Application Data\Autodesk\AutoCAD 2005\R16.1\enu\plotters\Default Windows System Printer.pc3
  4

  6

 40
0.0
 41
0.0
 42
0.0
 43
0.0
 44
0.0
 45
0.0
 46
0.0
 47
0.0
 48
0.0
 49
0.0
140
0.0
141
0.0
142
1.0
143
1.0
 70
   688
 72
     0
 73
     0
 74
     5
  7

 75
    16
147
1.0
 76
     0
 77
     2
 78
   300
148
0.0
149
0.0
100
AcDbLayout
  1
布局1
 70
     1
 71
     1
 10
0.0
 20
0.0
 11
12.0
 21
9.0
 12
0.0
 22
0.0
 32
0.0
 14
0.0
 24
0.0
 34
0.0
 15
0.0
 25
0.0
 35
0.0
146
0.0
 13
0.0
 23
0.0
 33
0.0
 16
1.0
 26
0.0
 36
0.0
 17
0.0
 27
1.0
 37
0.0
 76
     0
330
D2
  0
LAYOUT
  5
D7
102
{ACAD_REACTORS
330
1A
102
}
330
1A
100
AcDbPlotSettings
  1

  2
C:\Documents and Settings\basas\Application Data\Autodesk\AutoCAD 2005\R16.1\enu\plotters\Default Windows System Printer.pc3
  4

  6

 40
0.0
 41
0.0
 42
0.0
 43
0.0
 44
0.0
 45
0.0
 46
0.0
 47
0.0
 48
0.0
 49
0.0
140
0.0
141
0.0
142
1.0
143
1.0
 70
   688
 72
     0
 73
     0
 74
     5
  7

 75
    16
147
1.0
 76
     0
 77
     2
 78
   300
148
0.0
149
0.0
100
AcDbLayout
  1
布局2
 70
     1
 71
     2
 10
0.0
 20
0.0
 11
12.0
 21
9.0
 12
0.0
 22
0.0
 32
0.0
 14
0.0
 24
0.0
 34
0.0
 15
0.0
 25
0.0
 35
0.0
146
0.0
 13
0.0
 23
0.0
 33
0.0
 16
1.0
 26
0.0
 36
0.0
 17
0.0
 27
1.0
 37
0.0
 76
     0
330
D6
  0
MATERIAL
  5
ED
102
{ACAD_XDICTIONARY
360
1F9
102
}
102
{ACAD_REACTORS
330
6A
102
}
330
6A
100
AcDbMaterial
  1
ByBlock
 94
       63
  0
MATERIAL
  5
EC
102
{ACAD_XDICTIONARY
360
1F7
102
}
102
{ACAD_REACTORS
330
6A
102
}
330
6A
100
AcDbMaterial
  1
ByLayer
 94
       63
  0
MATERIAL
  5
EE
102
{ACAD_XDICTIONARY
360
173
102
}
102
{ACAD_REACTORS
330
6A
102
}
330
6A
100
AcDbMaterial
  1
Global
 43
0.0007999999797903
 43
0.0
 43
0.0
 43
0.0
 43
0.0
 43
0.0007999999797903
 43
0.0
 43
0.0
 43
0.0
 43
0.0
 43
1.0
 43
0.0
 43
0.0
 43
0.0
 43
0.0
 43
1.0
 49
0.0007999999797903
 49
0.0
 49
0.0
 49
0.0
 49
0.0
 49
0.0007999999797903
 49
0.0
 49
0.0
 49
0.0
 49
0.0
 49
1.0
 49
0.0
 49
0.0
 49
0.0
 49
0.0
 49
1.0
142
0.0007999999797903
142
0.0
142
0.0
142
0.0
142
0.0
142
0.0007999999797903
142
0.0
142
0.0
142
0.0
142
0.0
142
1.0
142
0.0
142
0.0
142
0.0
142
0.0
142
1.0
144
0.0007999999797903
144
0.0
144
0.0
144
0.0
144
0.0
144
0.0007999999797903
144
0.0
144
0.0
144
0.0
144
0.0
144
1.0
144
0.0
144
0.0
144
0.0
144
0.0
144
1.0
 94
       63
1001
ACAD
1070
    -1
1070
     3
1070
     0
1000

1071
        0
1070
     0
  0
MLEADERSTYLE
  5
13B
102
{ACAD_REACTORS
330
12D
102
}
330
12D
100
AcDbMLeaderStyle
179
     2
170
     2
171
     1
172
     0
 90
        2
 40
0.0
 41
0.0
173
     1
 91
-1056964608
340
14
 92
       -2
290
     1
 42
2.0
291
     1
 43
8.0
  3
Standard
 44
4.0
300

342
11
174
     1
178
     1
175
     1
176
     0
 93
-1056964608
 45
4.0
292
     0
297
     0
 46
4.0
 94
-1056964608
 47
1.0
 49
1.0
140
1.0
293
     1
141
0.0
294
     1
177
     0
142
1.0
295
     0
296
     1
143
3.75
271
     0
272
     9
273
     9
  0
MLEADERSTYLE
  5
12E
102
{ACAD_REACTORS
330
12D
102
}
330
12D
100
AcDbMLeaderStyle
179
     2
170
     2
171
     1
172
     0
 90
        2
 40
0.0
 41
0.0
173
     1
 91
-1056964608
340
14
 92
       -2
290
     1
 42
2.0
291
     1
 43
8.0
  3
Standard
 44
4.0
300

342
11
174
     1
178
     1
175
     1
176
     0
 93
-1056964608
 45
4.0
292
     0
297
     0
 46
4.0
 94
-1056964608
 47
1.0
 49
1.0
140
1.0
293
     1
141
0.0
294
     1
177
     0
142
1.0
295
     0
296
     0
143
3.75
271
     0
272
     9
273
     9
  0
MLINESTYLE
  5
18
102
{ACAD_REACTORS
330
17
102
}
330
17
100
AcDbMlineStyle
  2
STANDARD
 70
     0
  3

 62
   256
 51
90.0
 52
90.0
 71
     2
 49
0.5
 62
   256
  6
BYLAYER
 49
-0.5
 62
   256
  6
BYLAYER
  0
ACDBPLACEHOLDER
  5
F
102
{ACAD_REACTORS
330
E
102
}
330
E
  0
SCALE
  5
10D
102
{ACAD_REACTORS
330
10C
102
}
330
10C
100
AcDbScale
 70
     0
300
1:1
140
1.0
141
1.0
290
     1
  0
SCALE
  5
1BE
102
{ACAD_REACTORS
330
10C
102
}
330
10C
100
AcDbScale
 70
     0
300
1:2
140
1.0
141
2.0
290
     0
  0
SCALE
  5
1BF
102
{ACAD_REACTORS
330
10C
102
}
330
10C
100
AcDbScale
 70
     0
300
1:4
140
1.0
141
4.0
290
     0
  0
SCALE
  5
1C0
102
{ACAD_REACTORS
330
10C
102
}
330
10C
100
AcDbScale
 70
     0
300
1:5
140
1.0
141
5.0
290
     0
  0
SCALE
  5
1C1
102
{ACAD_REACTORS
330
10C
102
}
330
10C
100
AcDbScale
 70
     0
300
1:8
140
1.0
141
8.0
290
     0
  0
SCALE
  5
1C2
102
{ACAD_REACTORS
330
10C
102
}
330
10C
100
AcDbScale
 70
     0
300
1:10
140
1.0
141
10.0
290
     0
  0
SCALE
  5
1C3
102
{ACAD_REACTORS
330
10C
102
}
330
10C
100
AcDbScale
 70
     0
300
1:16
140
1.0
141
16.0
290
     0
  0
SCALE
  5
1C4
102
{ACAD_REACTORS
330
10C
102
}
330
10C
100
AcDbScale
 70
     0
300
1:20
140
1.0
141
20.0
290
     0
  0
SCALE
  5
1C5
102
{ACAD_REACTORS
330
10C
102
}
330
10C
100
AcDbScale
 70
     0
300
1:30
140
1.0
141
30.0
290
     0
  0
SCALE
  5
1C6
102
{ACAD_REACTORS
330
10C
102
}
330
10C
100
AcDbScale
 70
     0
300
1:40
140
1.0
141
40.0
290
     0
  0
SCALE
  5
1C7
102
{ACAD_REACTORS
330
10C
102
}
330
10C
100
AcDbScale
 70
     0
300
1:50
140
1.0
141
50.0
290
     0
  0
SCALE
  5
1C8
102
{ACAD_REACTORS
330
10C
102
}
330
10C
100
AcDbScale
 70
     0
300
1:100
140
1.0
141
100.0
290
     0
  0
SCALE
  5
1C9
102
{ACAD_REACTORS
330
10C
102
}
330
10C
100
AcDbScale
 70
     0
300
2:1
140
2.0
141
1.0
290
     0
  0
SCALE
  5
1CA
102
{ACAD_REACTORS
330
10C
102
}
330
10C
100
AcDbScale
 70
     0
300
4:1
140
4.0
141
1.0
290
     0
  0
SCALE
  5
1CB
102
{ACAD_REACTORS
330
10C
102
}
330
10C
100
AcDbScale
 70
     0
300
8:1
140
8.0
141
1.0
290
     0
  0
SCALE
  5
1CC
102
{ACAD_REACTORS
330
10C
102
}
330
10C
100
AcDbScale
 70
     0
300
10:1
140
10.0
141
1.0
290
     0
  0
SCALE
  5
1CD
102
{ACAD_REACTORS
330
10C
102
}
330
10C
100
AcDbScale
 70
     0
300
100:1
140
100.0
141
1.0
290
     0
  0
ACAD_PROXY_OBJECT
  5
21A
102
{ACAD_REACTORS
330
219
102
}
330
219
100
AcDbProxyObject
 90
      499
 91
      515
 95
   393245
 70
     0
162
              1944
311
42134019401D001C801A4018C00D400C0011049002C0020004F002C00200051002C00200053002C00200058002C0020005A005649400F001700104018C0158018401C80080015801A4019401DC014C0194018C01D001A401BC01B8014C01D0018401C801D00124019000F8009400B4009400F001700104018C0158018401C8
311
0080015801A4019401DC014C0194018C01D001A401BC01B8011401B801900124019000F80094008000A0009400F001700104018C0158018401C80080015801A4019401DC014C018C018401B0019400800170019800800088009401CC01B8008800F8009400A4010641004E00530049003300310000
161
              2057
310
92CD000000180000000000000000A2040000006000000000000000028800000000000001220233000000180009940000006000000000000000028800000000000000A20400000060000000000000000288100000000000005C8080C0000006000400000064003100000000000000881000000000000008808340C16A22A7D9
310
0FC9F8CAE65A70A583A07E1FE81C635378FA1F8CAE65A70A583A17E7944A7F127A97E9FA2EC600DC0074008200C6008800C400A600CA00C600E800D200DE00DC00AC00D200CA00EE00A600E800F200D800CA008BB18037001D0020803180220031002980328031803A003480378037002B00348032803B8029803A003C8036
310
0032804C
340
11
340
0
340
0
340
16
340
16
340
11
 94
        0
  0
TABLESTYLE
  5
7F
102
{ACAD_XDICTIONARY
360
162
102
}
102
{ACAD_REACTORS
330
7E
102
}
330
7E
100
AcDbTableStyle
280
     0
  3
Standard
 70
     0
 71
     0
 40
1.5
 41
1.5
280
     0
281
     0
  7
Standard
140
4.5
170
     2
 62
     0
 63
     7
283
     0
 90
      512
 91
        0
  1

274
    -2
284
     1
 64
     0
275
    -2
285
     1
 65
     0
276
    -2
286
     1
 66
     0
277
    -2
287
     1
 67
     0
278
    -2
288
     1
 68
     0
279
    -2
289
     1
 69
     0
  7
Standard
140
6.0
170
     5
 62
     0
 63
     7
283
     0
 90
      512
 91
        0
  1

274
    -2
284
     1
 64
     0
275
    -2
285
     1
 65
     0
276
    -2
286
     1
 66
     0
277
    -2
287
     1
 67
     0
278
    -2
288
     1
 68
     0
279
    -2
289
     1
 69
     0
  7
Standard
140
4.5
170
     5
 62
     0
 63
     7
283
     0
 90
      512
 91
        0
  1

274
    -2
284
     1
 64
     0
275
    -2
285
     1
 65
     0
276
    -2
286
     1
 66
     0
277
    -2
287
     1
 67
     0
278
    -2
288
     1
 68
     0
279
    -2
289
     1
 69
     0
  0
VISUALSTYLE
  5
F5
102
{ACAD_XDICTIONARY
360
55D8
102
}
102
{ACAD_REACTORS
330
EF
102
}
330
EF
100
AcDbVisualStyle
  2
2dWireframe
 70
     4
177
     2
291
     0
 71
     0
176
     1
 72
     2
176
     1
 73
     1
176
     1
 90
        0
176
     1
 40
0.6
176
     1
 41
30.0
176
     1
 63
     7
421
 16777215
176
     1
 74
     1
176
     1
 91
        4
176
     1
 64
     7
176
     1
 65
   257
176
     1
 75
     1
176
     1
175
     1
176
     1
 42
1.0
176
     1
 92
        0
176
     1
 66
   257
176
     1
 43
1.0
176
     1
 76
     1
176
     1
 77
     6
176
     1
 78
     2
176
     1
 67
     7
176
     1
 79
     5
176
     1
170
     0
176
     1
171
     0
176
     1
290
     0
176
     1
 93
        1
176
     1
 44
0.0
176
     1
173
     0
176
     1
1001
ACAD
1000
AcDbSavedByObjectVersion
1070
     0
  0
VISUALSTYLE
  5
4E1B
102
{ACAD_XDICTIONARY
360
5600
102
}
102
{ACAD_REACTORS
330
EF
102
}
330
EF
100
AcDbVisualStyle
  2
3D Hidden
 70
     6
177
     2
291
     0
 71
     1
176
     1
 72
     2
176
     1
 73
     2
176
     1
 90
        0
176
     1
 40
0.6
176
     1
 41
30.0
176
     1
 63
     7
421
 16777215
176
     1
 74
     2
176
     1
 91
        2
176
     1
 64
     7
176
     1
 65
   257
176
     1
 75
     2
176
     1
175
     1
176
     1
 42
179.0
176
     1
 92
        0
176
     1
 66
   257
176
     1
 43
1.0
176
     1
 76
     1
176
     1
 77
     6
176
     1
 78
     2
176
     1
 67
     7
176
     1
 79
     3
176
     1
170
     0
176
     1
171
     0
176
     1
290
     0
176
     1
 93
        1
176
     1
 44
0.0
176
     1
173
     0
176
     1
1001
ACAD
1000
AcDbSavedByObjectVersion
1070
     0
  0
VISUALSTYLE
  5
549
102
{ACAD_XDICTIONARY
360
55FE
102
}
102
{ACAD_REACTORS
330
EF
102
}
330
EF
100
AcDbVisualStyle
  2
3dWireframe
 70
     5
177
     2
291
     0
 71
     0
176
     1
 72
     2
176
     1
 73
     0
176
     1
 90
        0
176
     1
 40
0.6
176
     1
 41
30.0
176
     1
 63
     7
421
 16777215
176
     1
 74
     1
176
     1
 91
        4
176
     1
 64
     7
176
     1
 65
   257
176
     1
 75
     1
176
     1
175
     1
176
     1
 42
1.0
176
     1
 92
        0
176
     1
 66
   257
176
     1
 43
1.0
176
     1
 76
     1
176
     1
 77
     6
176
     1
 78
     2
176
     1
 67
     7
176
     1
 79
     5
176
     1
170
     0
176
     1
171
     0
176
     1
290
     0
176
     1
 93
        1
176
     1
 44
0.0
176
     1
173
     0
176
     1
1001
ACAD
1000
AcDbSavedByObjectVersion
1070
     0
  0
VISUALSTYLE
  5
F4
102
{ACAD_XDICTIONARY
360
55D6
102
}
102
{ACAD_REACTORS
330
EF
102
}
330
EF
100
AcDbVisualStyle
  2
Basic
 70
     7
177
     2
291
     1
 71
     1
176
     1
 72
     0
176
     1
 73
     1
176
     1
 90
        0
176
     1
 40
0.6
176
     1
 41
30.0
176
     1
 63
     7
421
 16777215
176
     1
 74
     0
176
     1
 91
        4
176
     1
 64
     7
176
     1
 65
   257
176
     1
 75
     1
176
     1
175
     1
176
     1
 42
1.0
176
     1
 92
        8
176
     1
 66
     7
176
     1
 43
1.0
176
     1
 76
     1
176
     1
 77
     6
176
     1
 78
     2
176
     1
 67
     7
176
     1
 79
     5
176
     1
170
     0
176
     1
171
     0
176
     1
290
     0
176
     1
 93
        1
176
     1
 44
0.0
176
     1
173
     0
176
     1
1001
ACAD
1000
AcDbSavedByObjectVersion
1070
     0
  0
VISUALSTYLE
  5
FB
102
{ACAD_XDICTIONARY
360
55E4
102
}
102
{ACAD_REACTORS
330
EF
102
}
330
EF
100
AcDbVisualStyle
  2
Brighten
 70
    12
177
     2
291
     1
 71
     2
176
     1
 72
     2
176
     1
 73
     1
176
     1
 90
        0
176
     1
 40
0.6
176
     1
 41
30.0
176
     1
 63
     7
421
 16777215
176
     1
 74
     1
176
     1
 91
        4
176
     1
 64
     7
176
     1
 65
   257
176
     1
 75
     1
176
     1
175
     1
176
     1
 42
1.0
176
     1
 92
        8
176
     1
 66
     7
176
     1
 43
1.0
176
     1
 76
     1
176
     1
 77
     6
176
     1
 78
     2
176
     1
 67
     7
176
     1
 79
     5
176
     1
170
     0
176
     1
171
     0
176
     1
290
     0
176
     1
 93
        1
176
     1
 44
50.0
176
     1
173
     0
176
     1
1001
ACAD
1000
AcDbSavedByObjectVersion
1070
     0
  0
VISUALSTYLE
  5
FF
102
{ACAD_XDICTIONARY
360
55EC
102
}
102
{ACAD_REACTORS
330
EF
102
}
330
EF
100
AcDbVisualStyle
  2
ColorChange
 70
    16
177
     2
291
     1
 71
     2
176
     1
 72
     2
176
     1
 73
     3
176
     1
 90
        0
176
     1
 40
0.6
176
     1
 41
30.0
176
     1
 63
     8
421
  8421504
176
     1
 74
     1
176
     1
 91
        4
176
     1
 64
     7
176
     1
 65
   257
176
     1
 75
     1
176
     1
175
     1
176
     1
 42
1.0
176
     1
 92
        8
176
     1
 66
     8
424
  8421504
176
     1
 43
1.0
176
     1
 76
     1
176
     1
 77
     6
176
     1
 78
     2
176
     1
 67
     7
176
     1
 79
     5
176
     1
170
     0
176
     1
171
     0
176
     1
290
     0
176
     1
 93
        1
176
     1
 44
0.0
176
     1
173
     0
176
     1
1001
ACAD
1000
AcDbSavedByObjectVersion
1070
     0
  0
VISUALSTYLE
  5
F8
102
{ACAD_XDICTIONARY
360
55DE
102
}
102
{ACAD_REACTORS
330
EF
102
}
330
EF
100
AcDbVisualStyle
  2
Conceptual
 70
     9
177
     2
291
     0
 71
     3
176
     1
 72
     2
176
     1
 73
     1
176
     1
 90
        0
176
     1
 40
0.6
176
     1
 41
30.0
176
     1
 63
     7
421
 16777215
176
     1
 74
     2
176
     1
 91
        2
176
     1
 64
     7
176
     1
 65
   257
176
     1
 75
     1
176
     1
175
     1
176
     1
 42
40.0
176
     1
 92
        8
176
     1
 66
     7
176
     1
 43
1.0
176
     1
 76
     1
176
     1
 77
     6
176
     1
 78
     2
176
     1
 67
     7
176
     1
 79
     3
176
     1
170
     0
176
     1
171
     0
176
     1
290
     0
176
     1
 93
        1
176
     1
 44
0.0
176
     1
173
     0
176
     1
1001
ACAD
1000
AcDbSavedByObjectVersion
1070
     0
  0
VISUALSTYLE
  5
FA
102
{ACAD_XDICTIONARY
360
55E2
102
}
102
{ACAD_REACTORS
330
EF
102
}
330
EF
100
AcDbVisualStyle
  2
Dim
 70
    11
177
     2
291
     1
 71
     2
176
     1
 72
     2
176
     1
 73
     1
176
     1
 90
        0
176
     1
 40
0.6
176
     1
 41
30.0
176
     1
 63
     7
421
 16777215
176
     1
 74
     1
176
     1
 91
        4
176
     1
 64
     7
176
     1
 65
   257
176
     1
 75
     1
176
     1
175
     1
176
     1
 42
1.0
176
     1
 92
        8
176
     1
 66
     7
176
     1
 43
1.0
176
     1
 76
     1
176
     1
 77
     6
176
     1
 78
     2
176
     1
 67
     7
176
     1
 79
     5
176
     1
170
     0
176
     1
171
     0
176
     1
290
     0
176
     1
 93
        1
176
     1
 44
-50.0
176
     1
173
     0
176
     1
1001
ACAD
1000
AcDbSavedByObjectVersion
1070
     0
  0
VISUALSTYLE
  5
1E6
102
{ACAD_XDICTIONARY
360
55F2
102
}
102
{ACAD_REACTORS
330
EF
102
}
330
EF
100
AcDbVisualStyle
  2
EdgeColorOff
 70
    22
177
     2
291
     1
 71
     2
176
     0
 72
     2
176
     0
 73
     0
176
     0
 90
        0
176
     0
 40
0.6
176
     0
 41
30.0
176
     0
 63
     7
421
 16777215
176
     0
 74
     1
176
     0
 91
        4
176
     0
 64
     7
176
     0
 65
   257
176
     0
 75
     1
176
     0
175
     1
176
     0
 42
1.0
176
     0
 92
        8
176
     2
 66
     7
176
     0
 43
1.0
176
     0
 76
     1
176
     0
 77
     6
176
     0
 78
     2
176
     0
 67
     7
176
     0
 79
     5
176
     0
170
     0
176
     0
171
     0
176
     0
290
     0
176
     0
 93
        1
176
     0
 44
0.0
176
     0
173
     0
176
     0
1001
ACAD
1000
AcDbSavedByObjectVersion
1070
     0
  0
VISUALSTYLE
  5
FE
102
{ACAD_XDICTIONARY
360
55EA
102
}
102
{ACAD_REACTORS
330
EF
102
}
330
EF
100
AcDbVisualStyle
  2
Facepattern
 70
    15
177
     2
291
     1
 71
     2
176
     1
 72
     2
176
     1
 73
     1
176
     1
 90
        0
176
     1
 40
0.6
176
     1
 41
30.0
176
     1
 63
     7
421
 16777215
176
     1
 74
     1
176
     1
 91
        4
176
     1
 64
     7
176
     1
 65
   257
176
     1
 75
     1
176
     1
175
     1
176
     1
 42
1.0
176
     1
 92
        8
176
     1
 66
     7
176
     1
 43
1.0
176
     1
 76
     1
176
     1
 77
     6
176
     1
 78
     2
176
     1
 67
     7
176
     1
 79
     5
176
     1
170
     0
176
     1
171
     0
176
     1
290
     0
176
     1
 93
        1
176
     1
 44
0.0
176
     1
173
     0
176
     1
1001
ACAD
1000
AcDbSavedByObjectVersion
1070
     0
  0
VISUALSTYLE
  5
F0
102
{ACAD_XDICTIONARY
360
55CE
102
}
102
{ACAD_REACTORS
330
EF
102
}
330
EF
100
AcDbVisualStyle
  2
Flat
 70
     0
177
     2
291
     1
 71
     2
176
     1
 72
     1
176
     1
 73
     1
176
     1
 90
        2
176
     1
 40
0.6
176
     1
 41
30.0
176
     1
 63
     7
421
 16777215
176
     1
 74
     0
176
     1
 91
        0
176
     1
 64
     7
176
     1
 65
   257
176
     1
 75
     1
176
     1
175
     1
176
     1
 42
1.0
176
     1
 92
        8
176
     1
 66
     7
176
     1
 43
1.0
176
     1
 76
     1
176
     1
 77
     6
176
     1
 78
     2
176
     1
 67
     7
176
     1
 79
     5
176
     1
170
     0
176
     1
171
     0
176
     1
290
     0
176
     1
 93
       13
176
     1
 44
0.0
176
     1
173
     0
176
     1
1001
ACAD
1000
AcDbSavedByObjectVersion
1070
     0
  0
VISUALSTYLE
  5
F1
102
{ACAD_XDICTIONARY
360
55D0
102
}
102
{ACAD_REACTORS
330
EF
102
}
330
EF
100
AcDbVisualStyle
  2
FlatWithEdges
 70
     1
177
     2
291
     1
 71
     2
176
     1
 72
     1
176
     1
 73
     1
176
     1
 90
        2
176
     1
 40
0.6
176
     1
 41
30.0
176
     1
 63
     7
421
 16777215
176
     1
 74
     1
176
     1
 91
        0
176
     1
 64
     7
176
     1
 65
   257
176
     1
 75
     1
176
     1
175
     1
176
     1
 42
1.0
176
     1
 92
        0
176
     1
 66
   257
176
     1
 43
1.0
176
     1
 76
     1
176
     1
 77
     6
176
     1
 78
     2
176
     1
 67
     7
176
     1
 79
     5
176
     1
170
     0
176
     1
171
     0
176
     1
290
     0
176
     1
 93
       13
176
     1
 44
0.0
176
     1
173
     0
176
     1
1001
ACAD
1000
AcDbSavedByObjectVersion
1070
     0
  0
VISUALSTYLE
  5
F2
102
{ACAD_XDICTIONARY
360
55D2
102
}
102
{ACAD_REACTORS
330
EF
102
}
330
EF
100
AcDbVisualStyle
  2
Gouraud
 70
     2
177
     2
291
     1
 71
     2
176
     1
 72
     2
176
     1
 73
     1
176
     1
 90
        2
176
     1
 40
0.6
176
     1
 41
30.0
176
     1
 63
     7
421
 16777215
176
     1
 74
     0
176
     1
 91
        0
176
     1
 64
     7
176
     1
 65
   257
176
     1
 75
     1
176
     1
175
     1
176
     1
 42
1.0
176
     1
 92
        0
176
     1
 66
     7
176
     1
 43
1.0
176
     1
 76
     1
176
     1
 77
     6
176
     1
 78
     2
176
     1
 67
     7
176
     1
 79
     5
176
     1
170
     0
176
     1
171
     0
176
     1
290
     0
176
     1
 93
       13
176
     1
 44
0.0
176
     1
173
     0
176
     1
1001
ACAD
1000
AcDbSavedByObjectVersion
1070
     0
  0
VISUALSTYLE
  5
F3
102
{ACAD_XDICTIONARY
360
55D4
102
}
102
{ACAD_REACTORS
330
EF
102
}
330
EF
100
AcDbVisualStyle
  2
GouraudWithEdges
 70
     3
177
     2
291
     1
 71
     2
176
     1
 72
     2
176
     1
 73
     1
176
     1
 90
        2
176
     1
 40
0.6
176
     1
 41
30.0
176
     1
 63
     7
421
 16777215
176
     1
 74
     1
176
     1
 91
        0
176
     1
 64
     7
176
     1
 65
   257
176
     1
 75
     1
176
     1
175
     1
176
     1
 42
1.0
176
     1
 92
        0
176
     1
 66
   257
176
     1
 43
1.0
176
     1
 76
     1
176
     1
 77
     6
176
     1
 78
     2
176
     1
 67
     7
176
     1
 79
     5
176
     1
170
     0
176
     1
171
     0
176
     1
290
     0
176
     1
 93
       13
176
     1
 44
0.0
176
     1
173
     0
176
     1
1001
ACAD
1000
AcDbSavedByObjectVersion
1070
     0
  0
VISUALSTYLE
  5
F7
102
{ACAD_XDICTIONARY
360
55DC
102
}
102
{ACAD_REACTORS
330
EF
102
}
330
EF
100
AcDbVisualStyle
  2
Hidden
 70
     6
177
     2
291
     0
 71
     1
176
     1
 72
     2
176
     1
 73
     2
176
     1
 90
        0
176
     1
 40
0.6
176
     1
 41
30.0
176
     1
 63
     7
421
 16777215
176
     1
 74
     2
176
     1
 91
        2
176
     1
 64
     7
176
     1
 65
   257
176
     1
 75
     2
176
     1
175
     1
176
     1
 42
40.0
176
     1
 92
        0
176
     1
 66
   257
176
     1
 43
1.0
176
     1
 76
     1
176
     1
 77
     6
176
     1
 78
     2
176
     1
 67
     7
176
     1
 79
     3
176
     1
170
     0
176
     1
171
     0
176
     1
290
     0
176
     1
 93
        1
176
     1
 44
0.0
176
     1
173
     0
176
     1
1001
ACAD
1000
AcDbSavedByObjectVersion
1070
     0
  0
VISUALSTYLE
  5
1E4
102
{ACAD_XDICTIONARY
360
55EE
102
}
102
{ACAD_REACTORS
330
EF
102
}
330
EF
100
AcDbVisualStyle
  2
JitterOff
 70
    20
177
     2
291
     1
 71
     2
176
     0
 72
     2
176
     0
 73
     0
176
     0
 90
        0
176
     0
 40
0.6
176
     0
 41
30.0
176
     0
 63
     7
421
 16777215
176
     0
 74
     1
176
     0
 91
        4
176
     0
 64
     7
176
     0
 65
   257
176
     0
 75
     1
176
     0
175
     1
176
     0
 42
1.0
176
     0
 92
       10
176
     2
 66
     7
176
     0
 43
1.0
176
     0
 76
     1
176
     0
 77
     6
176
     0
 78
     2
176
     0
 67
     7
176
     0
 79
     5
176
     0
170
     0
176
     0
171
     0
176
     0
290
     0
176
     0
 93
        1
176
     0
 44
0.0
176
     0
173
     0
176
     0
1001
ACAD
1000
AcDbSavedByObjectVersion
1070
     0
  0
VISUALSTYLE
  5
FD
102
{ACAD_XDICTIONARY
360
55E8
102
}
102
{ACAD_REACTORS
330
EF
102
}
330
EF
100
AcDbVisualStyle
  2
Linepattern
 70
    14
177
     2
291
     1
 71
     2
176
     1
 72
     2
176
     1
 73
     1
176
     1
 90
        0
176
     1
 40
0.6
176
     1
 41
30.0
176
     1
 63
     7
421
 16777215
176
     1
 74
     1
176
     1
 91
        4
176
     1
 64
     7
176
     1
 65
   257
176
     1
 75
     7
176
     1
175
     7
176
     1
 42
1.0
176
     1
 92
        8
176
     1
 66
     7
176
     1
 43
1.0
176
     1
 76
     1
176
     1
 77
     6
176
     1
 78
     2
176
     1
 67
     7
176
     1
 79
     5
176
     1
170
     0
176
     1
171
     0
176
     1
290
     0
176
     1
 93
        1
176
     1
 44
0.0
176
     1
173
     0
176
     1
1001
ACAD
1000
AcDbSavedByObjectVersion
1070
     0
  0
VISUALSTYLE
  5
1E5
102
{ACAD_XDICTIONARY
360
55F0
102
}
102
{ACAD_REACTORS
330
EF
102
}
330
EF
100
AcDbVisualStyle
  2
OverhangOff
 70
    21
177
     2
291
     1
 71
     2
176
     0
 72
     2
176
     0
 73
     0
176
     0
 90
        0
176
     0
 40
0.6
176
     0
 41
30.0
176
     0
 63
     7
421
 16777215
176
     0
 74
     1
176
     0
 91
        4
176
     0
 64
     7
176
     0
 65
   257
176
     0
 75
     1
176
     0
175
     1
176
     0
 42
1.0
176
     0
 92
        9
176
     2
 66
     7
176
     0
 43
1.0
176
     0
 76
     1
176
     0
 77
     6
176
     0
 78
     2
176
     0
 67
     7
176
     0
 79
     5
176
     0
170
     0
176
     0
171
     0
176
     0
290
     0
176
     0
 93
        1
176
     0
 44
0.0
176
     0
173
     0
176
     0
1001
ACAD
1000
AcDbSavedByObjectVersion
1070
     0
  0
VISUALSTYLE
  5
F9
102
{ACAD_XDICTIONARY
360
55E0
102
}
102
{ACAD_REACTORS
330
EF
102
}
330
EF
100
AcDbVisualStyle
  2
Realistic
 70
     8
177
     2
291
     0
 71
     2
176
     1
 72
     2
176
     1
 73
     0
176
     1
 90
        2
176
     1
 40
0.6
176
     1
 41
30.0
176
     1
 63
     7
421
 16777215
176
     1
 74
     0
176
     1
 91
        0
176
     1
 64
     7
176
     1
 65
   257
176
     1
 75
     1
176
     1
175
     1
176
     1
 42
1.0
176
     1
 92
        8
176
     1
 66
   257
176
     1
 43
1.0
176
     1
 76
     1
176
     1
 77
     6
176
     1
 78
     2
176
     1
 67
     7
176
     1
 79
     3
176
     1
170
     0
176
     1
171
     0
176
     1
290
     0
176
     1
 93
       13
176
     1
 44
0.0
176
     1
173
     0
176
     1
1001
ACAD
1000
AcDbSavedByObjectVersion
1070
     0
  0
VISUALSTYLE
  5
1F3
102
{ACAD_XDICTIONARY
360
55FC
102
}
102
{ACAD_REACTORS
330
EF
102
}
330
EF
100
AcDbVisualStyle
  2
Shaded
 70
    27
177
     2
291
     0
 71
     2
176
     1
 72
     2
176
     1
 73
     1
176
     1
 90
        2
176
     1
 40
0.6
176
     1
 41
30.0
176
     1
 63
     7
421
 16777215
176
     1
 74
     0
176
     1
 91
        4
176
     1
 64
     7
176
     1
 65
   257
176
     1
 75
     1
176
     1
175
     1
176
     1
 42
1.0
176
     1
 92
        8
176
     1
 66
   257
176
     1
 43
1.0
176
     1
 76
     1
176
     1
 77
     6
176
     1
 78
     2
176
     1
 67
     8
425
  7895160
176
     1
 79
     3
176
     1
170
     0
176
     1
171
     0
176
     1
290
     0
176
     1
 93
        5
176
     1
 44
0.0
176
     1
173
     0
176
     1
1001
ACAD
1000
AcDbSavedByObjectVersion
1070
     0
  0
VISUALSTYLE
  5
1F2
102
{ACAD_XDICTIONARY
360
55FA
102
}
102
{ACAD_REACTORS
330
EF
102
}
330
EF
100
AcDbVisualStyle
  2
Shaded with edges
 70
    26
177
     2
291
     0
 71
     2
176
     1
 72
     2
176
     1
 73
     1
176
     1
 90
        2
176
     1
 40
0.6
176
     1
 41
30.0
176
     1
 63
     7
421
 16777215
176
     1
 74
     1
176
     1
 91
       10
176
     1
 64
     7
176
     1
 65
   257
176
     1
 75
     2
176
     1
175
     1
176
     1
 42
1.0
176
     1
 92
        8
176
     1
 66
   257
176
     1
 43
1.0
176
     1
 76
     1
176
     1
 77
     6
176
     1
 78
     2
176
     1
 67
     7
176
     1
 79
     3
176
     1
170
     0
176
     1
171
     0
176
     1
290
     0
176
     1
 93
        5
176
     1
 44
0.0
176
     1
173
     0
176
     1
1001
ACAD
1000
AcDbSavedByObjectVersion
1070
     0
  0
VISUALSTYLE
  5
1EF
102
{ACAD_XDICTIONARY
360
55F4
102
}
102
{ACAD_REACTORS
330
EF
102
}
330
EF
100
AcDbVisualStyle
  2
Shades of Gray
 70
    23
177
     2
291
     0
 71
     2
176
     1
 72
     2
176
     1
 73
     3
176
     1
 90
        0
176
     1
 40
0.6
176
     1
 41
30.0
176
     1
 63
     7
421
 16777215
176
     1
 74
     2
176
     1
 91
        2
176
     1
 64
     7
176
     1
 65
     7
176
     1
 75
     1
176
     1
175
     1
176
     1
 42
40.0
176
     1
 92
        8
176
     1
 66
     7
176
     1
 43
1.0
176
     1
 76
     1
176
     1
 77
     6
176
     1
 78
     2
176
     1
 67
     7
176
     1
 79
     3
176
     1
170
     0
176
     1
171
     0
176
     1
290
     0
176
     1
 93
        1
176
     1
 44
0.0
176
     1
173
     0
176
     1
1001
ACAD
1000
AcDbSavedByObjectVersion
1070
     0
  0
VISUALSTYLE
  5
1F0
102
{ACAD_XDICTIONARY
360
55F6
102
}
102
{ACAD_REACTORS
330
EF
102
}
330
EF
100
AcDbVisualStyle
  2
Sketchy
 70
    24
177
     2
291
     0
 71
     1
176
     1
 72
     2
176
     1
 73
     2
176
     1
 90
        0
176
     1
 40
0.6
176
     1
 41
30.0
176
     1
 63
     7
421
 16777215
176
     1
 74
     2
176
     1
 91
        2
176
     1
 64
     7
176
     1
 65
     7
176
     1
 75
     1
176
     1
175
     1
176
     1
 42
40.0
176
     1
 92
       11
176
     1
 66
     7
176
     1
 43
1.0
176
     1
 76
     1
176
     1
 77
     6
176
     1
 78
     2
176
     1
 67
     7
176
     1
 79
     6
176
     1
170
     0
176
     1
171
     0
176
     1
290
     0
176
     1
 93
        1
176
     1
 44
0.0
176
     1
173
     0
176
     1
1001
ACAD
1000
AcDbSavedByObjectVersion
1070
     0
  0
VISUALSTYLE
  5
FC
102
{ACAD_XDICTIONARY
360
55E6
102
}
102
{ACAD_REACTORS
330
EF
102
}
330
EF
100
AcDbVisualStyle
  2
Thicken
 70
    13
177
     2
291
     1
 71
     2
176
     1
 72
     2
176
     1
 73
     1
176
     1
 90
        0
176
     1
 40
0.6
176
     1
 41
30.0
176
     1
 63
     7
421
 16777215
176
     1
 74
     1
176
     1
 91
        4
176
     1
 64
     7
176
     1
 65
   257
176
     1
 75
     1
176
     1
175
     1
176
     1
 42
1.0
176
     1
 92
       12
176
     1
 66
     7
176
     1
 43
1.0
176
     1
 76
     1
176
     1
 77
     6
176
     1
 78
     2
176
     1
 67
     7
176
     1
 79
     5
176
     1
170
     0
176
     1
171
     0
176
     1
290
     0
176
     1
 93
        1
176
     1
 44
0.0
176
     1
173
     0
176
     1
1001
ACAD
1000
AcDbSavedByObjectVersion
1070
     0
  0
VISUALSTYLE
  5
F6
102
{ACAD_XDICTIONARY
360
55DA
102
}
102
{ACAD_REACTORS
330
EF
102
}
330
EF
100
AcDbVisualStyle
  2
Wireframe
 70
     5
177
     2
291
     0
 71
     0
176
     1
 72
     2
176
     1
 73
     0
176
     1
 90
        0
176
     1
 40
0.6
176
     1
 41
30.0
176
     1
 63
     7
421
 16777215
176
     1
 74
     1
176
     1
 91
        4
176
     1
 64
     7
176
     1
 65
   257
176
     1
 75
     1
176
     1
175
     1
176
     1
 42
1.0
176
     1
 92
        0
176
     1
 66
   257
176
     1
 43
1.0
176
     1
 76
     1
176
     1
 77
     6
176
     1
 78
     2
176
     1
 67
     7
176
     1
 79
     3
176
     1
170
     0
176
     1
171
     0
176
     1
290
     0
176
     1
 93
        1
176
     1
 44
0.0
176
     1
173
     0
176
     1
1001
ACAD
1000
AcDbSavedByObjectVersion
1070
     0
  0
VISUALSTYLE
  5
1F1
102
{ACAD_XDICTIONARY
360
55F8
102
}
102
{ACAD_REACTORS
330
EF
102
}
330
EF
100
AcDbVisualStyle
  2
X-Ray
 70
    25
177
     2
291
     0
 71
     2
176
     1
 72
     2
176
     1
 73
     1
176
     1
 90
        1
176
     1
 40
0.5
176
     1
 41
30.0
176
     1
 63
     7
421
 16777215
176
     1
 74
     1
176
     1
 91
        0
176
     1
 64
     7
176
     1
 65
   257
176
     1
 75
     1
176
     1
175
     1
176
     1
 42
1.0
176
     1
 92
        8
176
     1
 66
     7
176
     1
 43
1.0
176
     1
 76
     1
176
     1
 77
     6
176
     1
 78
     2
176
     1
 67
     7
176
     1
 79
     3
176
     1
170
     0
176
     1
171
     0
176
     1
290
     0
176
     1
 93
       13
176
     1
 44
0.0
176
     1
173
     0
176
     1
1001
ACAD
1000
AcDbSavedByObjectVersion
1070
     0
  0
DICTIONARYVAR
  5
146
102
{ACAD_REACTORS
330
5E
102
}
330
5E
100
DictionaryVariables
280
     0
  1
1:1
  0
DICTIONARYVAR
  5
145
102
{ACAD_REACTORS
330
5E
102
}
330
5E
100
DictionaryVariables
280
     0
  1
STANDARD
  0
DICTIONARYVAR
  5
84
102
{ACAD_REACTORS
330
5E
102
}
330
5E
100
DictionaryVariables
280
     0
  1
STANDARD
  0
DICTIONARYVAR
  5
227
102
{ACAD_REACTORS
330
5E
102
}
330
5E
100
DictionaryVariables
280
     0
  1

  0
DICTIONARYVAR
  5
228
102
{ACAD_REACTORS
330
5E
102
}
330
5E
100
DictionaryVariables
280
     0
  1

  0
DICTIONARYVAR
  5
5F
102
{ACAD_REACTORS
330
5E
102
}
330
5E
100
DictionaryVariables
280
     0
  1
2
  0
DICTIONARYVAR
  5
63
102
{ACAD_REACTORS
330
5E
102
}
330
5E
100
DictionaryVariables
280
     0
  1
1
  0
DICTIONARYVAR
  5
1AE
102
{ACAD_REACTORS
330
5E
102
}
330
5E
100
DictionaryVariables
280
     0
  1
0
  0
DICTIONARYVAR
  5
1AF
102
{ACAD_REACTORS
330
5E
102
}
330
5E
100
DictionaryVariables
280
     0
  1
0
  0
DICTIONARYVAR
  5
4FD2
102
{ACAD_REACTORS
330
5E
102
}
330
5E
100
DictionaryVariables
280
     0
  1
2
  0
DICTIONARYVAR
  5
4FD1
102
{ACAD_REACTORS
330
5E
102
}
330
5E
100
DictionaryVariables
280
     0
  1
1
  0
DICTIONARYVAR
  5
4FD3
102
{ACAD_REACTORS
330
5E
102
}
330
5E
100
DictionaryVariables
280
     0
  1
0
  0
DICTIONARY
  5
55CD
102
{ACAD_REACTORS
330
55CB
102
}
330
55CB
100
AcDbDictionary
281
     1
  0
DICTIONARY
  5
55CC
102
{ACAD_REACTORS
330
55CB
102
}
330
55CB
100
AcDbDictionary
281
     1
  3
140696824701664
350
55C6
  3
140696824701680
350
55C7
  3
140696824701696
350
55C8
  3
140696824701712
350
55C9
  3
140696824701728
350
55CA
  0
BLOCKBASEPOINTPARAMETER
  5
262
330
261
100
AcDbEvalExpr
 90
        1
 98
       31
 99
      105
100
AcDbBlockElement
300
基点
 98
       31
 99
      105
1071
        0
100
AcDbBlockParameter
280
     1
281
     0
100
AcDbBlock1PtParameter
1010
574.0
1020
-16.0
1030
0.0
 93
        0
170
     0
171
     0
100
AcDbBlockBasepointParameter
1011
0.0
1021
0.0
1031
0.0
1012
0.0
1022
0.0
1032
0.0
  0
BLOCKBASEPOINTPARAMETER
  5
4AB6
330
4AB5
100
AcDbEvalExpr
 90
        3
 98
       31
 99
      105
100
AcDbBlockElement
300
基点
 98
       31
 99
      105
1071
        0
100
AcDbBlockParameter
280
     1
281
     0
100
AcDbBlock1PtParameter
1010
10.0
1020
8.0
1030
0.0
 93
        0
170
     0
171
     0
100
AcDbBlockBasepointParameter
1011
0.0
1021
0.0
1031
0.0
1012
0.0
1022
0.0
1032
0.0
  0
BLOCKBASEPOINTPARAMETER
  5
4C07
330
4C06
100
AcDbEvalExpr
 90
        1
 98
       31
 99
      105
100
AcDbBlockElement
300
基点
 98
       31
 99
      105
1071
        0
100
AcDbBlockParameter
280
     1
281
     0
100
AcDbBlock1PtParameter
1010
526.0
1020
-12.0
1030
0.0
 93
        0
170
     0
171
     0
100
AcDbBlockBasepointParameter
1011
0.0
1021
0.0
1031
0.0
1012
0.0
1022
0.0
1032
0.0
  0
BLOCKBASEPOINTPARAMETER
  5
287
330
286
100
AcDbEvalExpr
 90
        1
 98
       31
 99
      105
100
AcDbBlockElement
300
基点
 98
       31
 99
      105
1071
        0
100
AcDbBlockParameter
280
     1
281
     0
100
AcDbBlock1PtParameter
1010
760.2617187069327
1020
180.0000006787022
1030
0.0
 93
        0
170
     0
171
     0
100
AcDbBlockBasepointParameter
1011
0.0
1021
0.0
1031
0.0
1012
0.0
1022
0.0
1032
0.0
  0
BLOCKBASEPOINTPARAMETER
  5
293
330
292
100
AcDbEvalExpr
 90
        2
 98
       31
 99
      105
100
AcDbBlockElement
300
基点
 98
       31
 99
      105
1071
        0
100
AcDbBlockParameter
280
     1
281
     0
100
AcDbBlock1PtParameter
1010
8.0
1020
20.0
1030
0.0
 93
        0
170
     0
171
     0
100
AcDbBlockBasepointParameter
1011
0.0
1021
0.0
1031
0.0
1012
0.0
1022
0.0
1032
0.0
  0
BLOCKBASEPOINTPARAMETER
  5
2A7
330
2A6
100
AcDbEvalExpr
 90
        2
 98
       31
 99
      105
100
AcDbBlockElement
300
基点
 98
       31
 99
      105
1071
        0
100
AcDbBlockParameter
280
     1
281
     0
100
AcDbBlock1PtParameter
1010
38.0
1020
26.0
1030
0.0
 93
        0
170
     0
171
     0
100
AcDbBlockBasepointParameter
1011
0.0
1021
0.0
1031
0.0
1012
0.0
1022
0.0
1032
0.0
  0
BLOCKBASEPOINTPARAMETER
  5
2BE
330
2BD
100
AcDbEvalExpr
 90
        1
 98
       31
 99
      105
100
AcDbBlockElement
300
基点
 98
       31
 99
      105
1071
        0
100
AcDbBlockParameter
280
     1
281
     0
100
AcDbBlock1PtParameter
1010
730.0000028050353
1020
329.1974953861529
1030
0.0
 93
        0
170
     0
171
     0
100
AcDbBlockBasepointParameter
1011
0.0
1021
0.0
1031
0.0
1012
0.0
1022
0.0
1032
0.0
  0
BLOCKBASEPOINTPARAMETER
  5
2D0
330
2CF
100
AcDbEvalExpr
 90
        1
 98
       31
 99
      105
100
AcDbBlockElement
300
基点
 98
       31
 99
      105
1071
        0
100
AcDbBlockParameter
280
     1
281
     0
100
AcDbBlock1PtParameter
1010
831.8544171006832
1020
329.1974957089185
1030
0.0
 93
        0
170
     0
171
     0
100
AcDbBlockBasepointParameter
1011
0.0
1021
0.0
1031
0.0
1012
0.0
1022
0.0
1032
0.0
  0
BLOCKBASEPOINTPARAMETER
  5
2E7
330
2E6
100
AcDbEvalExpr
 90
        1
 98
       31
 99
      105
100
AcDbBlockElement
300
基点
 98
       31
 99
      105
1071
        0
100
AcDbBlockParameter
280
     1
281
     0
100
AcDbBlock1PtParameter
1010
574.0
1020
-16.0
1030
0.0
 93
        0
170
     0
171
     0
100
AcDbBlockBasepointParameter
1011
0.0
1021
0.0
1031
0.0
1012
0.0
1022
0.0
1032
0.0
  0
BLOCKBASEPOINTPARAMETER
  5
2F3
330
2F2
100
AcDbEvalExpr
 90
        1
 98
       31
 99
      105
100
AcDbBlockElement
300
基点
 98
       31
 99
      105
1071
        0
100
AcDbBlockParameter
280
     1
281
     0
100
AcDbBlock1PtParameter
1010
914.3409028833502
1020
325.8183246582207
1030
0.0
 93
        0
170
     0
171
     0
100
AcDbBlockBasepointParameter
1011
0.0
1021
0.0
1031
0.0
1012
0.0
1022
0.0
1032
0.0
  0
BLOCKBASEPOINTPARAMETER
  5
1BA0
330
1B9F
100
AcDbEvalExpr
 90
        1
 98
       31
 99
      105
100
AcDbBlockElement
300
基点
 98
       31
 99
      105
1071
        0
100
AcDbBlockParameter
280
     1
281
     0
100
AcDbBlock1PtParameter
1010
428.0
1020
-8.0
1030
0.0
 93
        0
170
     0
171
     0
100
AcDbBlockBasepointParameter
1011
0.0
1021
0.0
1031
0.0
1012
0.0
1022
0.0
1032
0.0
  0
BLOCKBASEPOINTPARAMETER
  5
3B32
330
3B31
100
AcDbEvalExpr
 90
        1
 98
       31
 99
      105
100
AcDbBlockElement
300
基点
 98
       31
 99
      105
1071
        0
100
AcDbBlockParameter
280
     1
281
     0
100
AcDbBlock1PtParameter
1010
9341.869952604467
1020
961.1197016149736
1030
0.0
 93
        0
170
     0
171
     0
100
AcDbBlockBasepointParameter
1011
0.0
1021
0.0
1031
0.0
1012
0.0
1022
0.0
1032
0.0
  0
ACDB_BLOCKREPRESENTATION_DATA
  5
1D1D
102
{ACAD_REACTORS
330
1D1C
102
}
330
1D1C
100
AcDbBlockRepresentationData
 70
     1
340
2CD
  0
DICTIONARY
  5
1D1E
102
{ACAD_REACTORS
330
1D1C
102
}
330
1D1C
100
AcDbDictionary
280
     1
281
     1
  3
ACAD_ENHANCEDBLOCKDATA
360
1D1F
  0
ACDB_BLOCKREPRESENTATION_DATA
  5
1D25
102
{ACAD_REACTORS
330
1D24
102
}
330
1D24
100
AcDbBlockRepresentationData
 70
     1
340
2E4
  0
DICTIONARY
  5
1D26
102
{ACAD_REACTORS
330
1D24
102
}
330
1D24
100
AcDbDictionary
280
     1
281
     1
  3
ACAD_ENHANCEDBLOCKDATA
360
1D27
  0
ACDB_BLOCKREPRESENTATION_DATA
  5
1D2C
102
{ACAD_REACTORS
330
1D2B
102
}
330
1D2B
100
AcDbBlockRepresentationData
 70
     1
340
2E4
  0
DICTIONARY
  5
1D2D
102
{ACAD_REACTORS
330
1D2B
102
}
330
1D2B
100
AcDbDictionary
280
     1
281
     1
  3
ACAD_ENHANCEDBLOCKDATA
360
1D2E
  0
ACDB_BLOCKREPRESENTATION_DATA
  5
1D33
102
{ACAD_REACTORS
330
1D32
102
}
330
1D32
100
AcDbBlockRepresentationData
 70
     1
340
2E4
  0
DICTIONARY
  5
1D34
102
{ACAD_REACTORS
330
1D32
102
}
330
1D32
100
AcDbDictionary
280
     1
281
     1
  3
ACAD_ENHANCEDBLOCKDATA
360
1D35
  0
ACDB_BLOCKREPRESENTATION_DATA
  5
1D3A
102
{ACAD_REACTORS
330
1D39
102
}
330
1D39
100
AcDbBlockRepresentationData
 70
     1
340
2E4
  0
DICTIONARY
  5
1D3B
102
{ACAD_REACTORS
330
1D39
102
}
330
1D39
100
AcDbDictionary
280
     1
281
     1
  3
ACAD_ENHANCEDBLOCKDATA
360
1D3C
  0
ACDB_BLOCKREPRESENTATION_DATA
  5
1D42
102
{ACAD_REACTORS
330
1D41
102
}
330
1D41
100
AcDbBlockRepresentationData
 70
     1
340
290
  0
DICTIONARY
  5
1D43
102
{ACAD_REACTORS
330
1D41
102
}
330
1D41
100
AcDbDictionary
280
     1
281
     1
  3
ACAD_ENHANCEDBLOCKDATA
360
1D44
  0
ACDB_BLOCKREPRESENTATION_DATA
  5
1D49
102
{ACAD_REACTORS
330
1D48
102
}
330
1D48
100
AcDbBlockRepresentationData
 70
     1
340
26D
  0
DICTIONARY
  5
1D4A
102
{ACAD_REACTORS
330
1D48
102
}
330
1D48
100
AcDbDictionary
280
     1
281
     1
  3
ACAD_ENHANCEDBLOCKDATA
360
4B41
  0
ACDB_BLOCKREPRESENTATION_DATA
  5
1D51
102
{ACAD_REACTORS
330
1D50
102
}
330
1D50
100
AcDbBlockRepresentationData
 70
     1
340
284
  0
DICTIONARY
  5
1D52
102
{ACAD_REACTORS
330
1D50
102
}
330
1D50
100
AcDbDictionary
280
     1
281
     1
  3
ACAD_ENHANCEDBLOCKDATA
360
1D53
  0
ACDB_BLOCKREPRESENTATION_DATA
  5
2121
102
{ACAD_REACTORS
330
2120
102
}
330
2120
100
AcDbBlockRepresentationData
 70
     1
340
284
  0
DICTIONARY
  5
2122
102
{ACAD_REACTORS
330
2120
102
}
330
2120
100
AcDbDictionary
280
     1
281
     1
  3
ACAD_ENHANCEDBLOCKDATA
360
2123
  0
ACDB_BLOCKREPRESENTATION_DATA
  5
212A
102
{ACAD_REACTORS
330
2129
102
}
330
2129
100
AcDbBlockRepresentationData
 70
     1
340
284
  0
DICTIONARY
  5
212B
102
{ACAD_REACTORS
330
2129
102
}
330
2129
100
AcDbDictionary
280
     1
281
     1
  3
ACAD_ENHANCEDBLOCKDATA
360
212C
  0
ACDB_BLOCKREPRESENTATION_DATA
  5
2132
102
{ACAD_REACTORS
330
2131
102
}
330
2131
100
AcDbBlockRepresentationData
 70
     1
340
284
  0
DICTIONARY
  5
2133
102
{ACAD_REACTORS
330
2131
102
}
330
2131
100
AcDbDictionary
280
     1
281
     1
  3
ACAD_ENHANCEDBLOCKDATA
360
2134
  0
ACDB_BLOCKREPRESENTATION_DATA
  5
5004
102
{ACAD_REACTORS
330
5003
102
}
330
5003
100
AcDbBlockRepresentationData
 70
     1
340
290
  0
DICTIONARY
  5
5005
102
{ACAD_REACTORS
330
5003
102
}
330
5003
100
AcDbDictionary
280
     1
281
     1
  3
ACAD_ENHANCEDBLOCKDATA
360
5006
  0
ACDB_BLOCKREPRESENTATION_DATA
  5
500B
102
{ACAD_REACTORS
330
500A
102
}
330
500A
100
AcDbBlockRepresentationData
 70
     1
340
26D
  0
DICTIONARY
  5
500C
102
{ACAD_REACTORS
330
500A
102
}
330
500A
100
AcDbDictionary
280
     1
281
     1
  3
ACAD_ENHANCEDBLOCKDATA
360
500D
  0
ACDB_BLOCKREPRESENTATION_DATA
  5
5058
102
{ACAD_REACTORS
330
5057
102
}
330
5057
100
AcDbBlockRepresentationData
 70
     1
340
284
  0
DICTIONARY
  5
5059
102
{ACAD_REACTORS
330
5057
102
}
330
5057
100
AcDbDictionary
280
     1
281
     1
  3
ACAD_ENHANCEDBLOCKDATA
360
505A
  0
ACDB_BLOCKREPRESENTATION_DATA
  5
505F
102
{ACAD_REACTORS
330
505E
102
}
330
505E
100
AcDbBlockRepresentationData
 70
     1
340
284
  0
DICTIONARY
  5
5060
102
{ACAD_REACTORS
330
505E
102
}
330
505E
100
AcDbDictionary
280
     1
281
     1
  3
ACAD_ENHANCEDBLOCKDATA
360
5061
  0
ACDB_BLOCKREPRESENTATION_DATA
  5
51C9
102
{ACAD_REACTORS
330
51C8
102
}
330
51C8
100
AcDbBlockRepresentationData
 70
     1
340
284
  0
DICTIONARY
  5
51CA
102
{ACAD_REACTORS
330
51C8
102
}
330
51C8
100
AcDbDictionary
280
     1
281
     1
  3
ACAD_ENHANCEDBLOCKDATA
360
51CB
  0
ACDB_BLOCKREPRESENTATION_DATA
  5
51D1
102
{ACAD_REACTORS
330
51D0
102
}
330
51D0
100
AcDbBlockRepresentationData
 70
     1
340
2A4
  0
DICTIONARY
  5
51D2
102
{ACAD_REACTORS
330
51D0
102
}
330
51D0
100
AcDbDictionary
280
     1
281
     1
  3
ACAD_ENHANCEDBLOCKDATA
360
51D3
  0
ACDB_BLOCKREPRESENTATION_DATA
  5
51D8
102
{ACAD_REACTORS
330
51D7
102
}
330
51D7
100
AcDbBlockRepresentationData
 70
     1
340
26D
  0
DICTIONARY
  5
51D9
102
{ACAD_REACTORS
330
51D7
102
}
330
51D7
100
AcDbDictionary
280
     1
281
     1
  3
ACAD_ENHANCEDBLOCKDATA
360
51DA
  0
ACDB_BLOCKREPRESENTATION_DATA
  5
51E1
102
{ACAD_REACTORS
330
51E0
102
}
330
51E0
100
AcDbBlockRepresentationData
 70
     1
340
26D
  0
DICTIONARY
  5
51E2
102
{ACAD_REACTORS
330
51E0
102
}
330
51E0
100
AcDbDictionary
280
     1
281
     1
  3
ACAD_ENHANCEDBLOCKDATA
360
51E3
  0
ACDB_BLOCKREPRESENTATION_DATA
  5
52BD
102
{ACAD_REACTORS
330
52BC
102
}
330
52BC
100
AcDbBlockRepresentationData
 70
     1
340
3B2F
  0
DICTIONARY
  5
52BE
102
{ACAD_REACTORS
330
52BC
102
}
330
52BC
100
AcDbDictionary
280
     1
281
     1
  3
ACAD_ENHANCEDBLOCKDATA
360
52BF
  0
ACDB_BLOCKREPRESENTATION_DATA
  5
52C6
102
{ACAD_REACTORS
330
52C5
102
}
330
52C5
100
AcDbBlockRepresentationData
 70
     1
340
284
  0
DICTIONARY
  5
52C7
102
{ACAD_REACTORS
330
52C5
102
}
330
52C5
100
AcDbDictionary
280
     1
281
     1
  3
ACAD_ENHANCEDBLOCKDATA
360
52C8
  0
ACDB_BLOCKREPRESENTATION_DATA
  5
52CF
102
{ACAD_REACTORS
330
52CE
102
}
330
52CE
100
AcDbBlockRepresentationData
 70
     1
340
279
  0
DICTIONARY
  5
52D0
102
{ACAD_REACTORS
330
52CE
102
}
330
52CE
100
AcDbDictionary
280
     1
281
     1
  3
ACAD_ENHANCEDBLOCKDATA
360
52D1
  0
ACDB_BLOCKREPRESENTATION_DATA
  5
52DC
102
{ACAD_REACTORS
330
52DB
102
}
330
52DB
100
AcDbBlockRepresentationData
 70
     1
340
2A4
  0
DICTIONARY
  5
52DD
102
{ACAD_REACTORS
330
52DB
102
}
330
52DB
100
AcDbDictionary
280
     1
281
     1
  3
ACAD_ENHANCEDBLOCKDATA
360
52DE
  0
ACDB_BLOCKREPRESENTATION_DATA
  5
52E3
102
{ACAD_REACTORS
330
52E2
102
}
330
52E2
100
AcDbBlockRepresentationData
 70
     1
340
26D
  0
DICTIONARY
  5
52E4
102
{ACAD_REACTORS
330
52E2
102
}
330
52E2
100
AcDbDictionary
280
     1
281
     1
  3
ACAD_ENHANCEDBLOCKDATA
360
52E5
  0
ACDB_BLOCKREPRESENTATION_DATA
  5
52EC
102
{ACAD_REACTORS
330
52EB
102
}
330
52EB
100
AcDbBlockRepresentationData
 70
     1
340
26D
  0
DICTIONARY
  5
52ED
102
{ACAD_REACTORS
330
52EB
102
}
330
52EB
100
AcDbDictionary
280
     1
281
     1
  3
ACAD_ENHANCEDBLOCKDATA
360
52EE
  0
ACDB_BLOCKREPRESENTATION_DATA
  5
54C0
102
{ACAD_REACTORS
330
54BF
102
}
330
54BF
100
AcDbBlockRepresentationData
 70
     1
340
2F0
  0
DICTIONARY
  5
54C1
102
{ACAD_REACTORS
330
54BF
102
}
330
54BF
100
AcDbDictionary
280
     1
281
     1
  3
ACAD_ENHANCEDBLOCKDATA
360
54C2
  0
ACDB_BLOCKREPRESENTATION_DATA
  5
54C7
102
{ACAD_REACTORS
330
54C6
102
}
330
54C6
100
AcDbBlockRepresentationData
 70
     1
340
2BB
  0
DICTIONARY
  5
54C8
102
{ACAD_REACTORS
330
54C6
102
}
330
54C6
100
AcDbDictionary
280
     1
281
     1
  3
ACAD_ENHANCEDBLOCKDATA
360
54C9
  0
ACDB_BLOCKREPRESENTATION_DATA
  5
54CF
102
{ACAD_REACTORS
330
54CE
102
}
330
54CE
100
AcDbBlockRepresentationData
 70
     1
340
284
  0
DICTIONARY
  5
54D0
102
{ACAD_REACTORS
330
54CE
102
}
330
54CE
100
AcDbDictionary
280
     1
281
     1
  3
ACAD_ENHANCEDBLOCKDATA
360
54D1
  0
ACDB_BLOCKREPRESENTATION_DATA
  5
54D7
102
{ACAD_REACTORS
330
54D6
102
}
330
54D6
100
AcDbBlockRepresentationData
 70
     1
340
2E4
  0
DICTIONARY
  5
54D8
102
{ACAD_REACTORS
330
54D6
102
}
330
54D6
100
AcDbDictionary
280
     1
281
     1
  3
ACAD_ENHANCEDBLOCKDATA
360
54D9
  0
ACDB_BLOCKREPRESENTATION_DATA
  5
54DE
102
{ACAD_REACTORS
330
54DD
102
}
330
54DD
100
AcDbBlockRepresentationData
 70
     1
340
2E4
  0
DICTIONARY
  5
54DF
102
{ACAD_REACTORS
330
54DD
102
}
330
54DD
100
AcDbDictionary
280
     1
281
     1
  3
ACAD_ENHANCEDBLOCKDATA
360
54E0
  0
DICTIONARY
  5
205
330
22
100
AcDbDictionary
280
     1
281
     1
  0
DICTIONARY
  5
1F9
330
ED
100
AcDbDictionary
280
     1
281
     1
  3
FBXASSET
360
1FA
  0
DICTIONARY
  5
1F7
330
EC
100
AcDbDictionary
280
     1
281
     1
  3
FBXASSET
360
1F8
  0
DICTIONARY
  5
173
330
EE
100
AcDbDictionary
280
     1
281
     1
  3
BUMPTILE
360
175
  3
DIFFUSETILE
360
174
  3
FBXASSET
360
1FB
  3
OPACITYTILE
360
176
  3
REFLECTIONTILE
360
177
  0
DICTIONARY
  5
162
330
7F
100
AcDbDictionary
280
     1
281
     1
  3
ACAD_ROUNDTRIP_2008_TABLESTYLE_CELLSTYLEMAP
360
55C4
  0
DICTIONARY
  5
55D8
330
F5
100
AcDbDictionary
280
     1
281
     1
  3
ACAD_XREC_ROUNDTRIP
360
55D9
  0
DICTIONARY
  5
5600
330
4E1B
100
AcDbDictionary
280
     1
281
     1
  3
ACAD_XREC_ROUNDTRIP
360
5601
  0
DICTIONARY
  5
55FE
330
549
100
AcDbDictionary
280
     1
281
     1
  3
ACAD_XREC_ROUNDTRIP
360
55FF
  0
DICTIONARY
  5
55D6
330
F4
100
AcDbDictionary
280
     1
281
     1
  3
ACAD_XREC_ROUNDTRIP
360
55D7
  0
DICTIONARY
  5
55E4
330
FB
100
AcDbDictionary
280
     1
281
     1
  3
ACAD_XREC_ROUNDTRIP
360
55E5
  0
DICTIONARY
  5
55EC
330
FF
100
AcDbDictionary
280
     1
281
     1
  3
ACAD_XREC_ROUNDTRIP
360
55ED
  0
DICTIONARY
  5
55DE
330
F8
100
AcDbDictionary
280
     1
281
     1
  3
ACAD_XREC_ROUNDTRIP
360
55DF
  0
DICTIONARY
  5
55E2
330
FA
100
AcDbDictionary
280
     1
281
     1
  3
ACAD_XREC_ROUNDTRIP
360
55E3
  0
DICTIONARY
  5
55F2
330
1E6
100
AcDbDictionary
280
     1
281
     1
  3
ACAD_XREC_ROUNDTRIP
360
55F3
  0
DICTIONARY
  5
55EA
330
FE
100
AcDbDictionary
280
     1
281
     1
  3
ACAD_XREC_ROUNDTRIP
360
55EB
  0
DICTIONARY
  5
55CE
330
F0
100
AcDbDictionary
280
     1
281
     1
  3
ACAD_XREC_ROUNDTRIP
360
55CF
  0
DICTIONARY
  5
55D0
330
F1
100
AcDbDictionary
280
     1
281
     1
  3
ACAD_XREC_ROUNDTRIP
360
55D1
  0
DICTIONARY
  5
55D2
330
F2
100
AcDbDictionary
280
     1
281
     1
  3
ACAD_XREC_ROUNDTRIP
360
55D3
  0
DICTIONARY
  5
55D4
330
F3
100
AcDbDictionary
280
     1
281
     1
  3
ACAD_XREC_ROUNDTRIP
360
55D5
  0
DICTIONARY
  5
55DC
330
F7
100
AcDbDictionary
280
     1
281
     1
  3
ACAD_XREC_ROUNDTRIP
360
55DD
  0
DICTIONARY
  5
55EE
330
1E4
100
AcDbDictionary
280
     1
281
     1
  3
ACAD_XREC_ROUNDTRIP
360
55EF
  0
DICTIONARY
  5
55E8
330
FD
100
AcDbDictionary
280
     1
281
     1
  3
ACAD_XREC_ROUNDTRIP
360
55E9
  0
DICTIONARY
  5
55F0
330
1E5
100
AcDbDictionary
280
     1
281
     1
  3
ACAD_XREC_ROUNDTRIP
360
55F1
  0
DICTIONARY
  5
55E0
330
F9
100
AcDbDictionary
280
     1
281
     1
  3
ACAD_XREC_ROUNDTRIP
360
55E1
  0
DICTIONARY
  5
55FC
330
1F3
100
AcDbDictionary
280
     1
281
     1
  3
ACAD_XREC_ROUNDTRIP
360
55FD
  0
DICTIONARY
  5
55FA
330
1F2
100
AcDbDictionary
280
     1
281
     1
  3
ACAD_XREC_ROUNDTRIP
360
55FB
  0
DICTIONARY
  5
55F4
330
1EF
100
AcDbDictionary
280
     1
281
     1
  3
ACAD_XREC_ROUNDTRIP
360
55F5
  0
DICTIONARY
  5
55F6
330
1F0
100
AcDbDictionary
280
     1
281
     1
  3
ACAD_XREC_ROUNDTRIP
360
55F7
  0
DICTIONARY
  5
55E6
330
FC
100
AcDbDictionary
280
     1
281
     1
  3
ACAD_XREC_ROUNDTRIP
360
55E7
  0
DICTIONARY
  5
55DA
330
F6
100
AcDbDictionary
280
     1
281
     1
  3
ACAD_XREC_ROUNDTRIP
360
55DB
  0
DICTIONARY
  5
55F8
330
1F1
100
AcDbDictionary
280
     1
281
     1
  3
ACAD_XREC_ROUNDTRIP
360
55F9
  0
XRECORD
  5
55C6
102
{ACAD_REACTORS
330
55CC
102
}
330
55CC
100
AcDbXrecord
280
     1
  1
AcDb_Thumbnail_Schema
102
{ATTRRECORD
341
55C7
  2
AcDbDs::TreatedAsObjectData
280
     1
291
     1
102
ATTRRECORD}
102
{ATTRRECORD
341
55C8
  2
AcDbDs::Legacy
280
     1
291
     1
102
ATTRRECORD}
  2
AcDbDs::ID
280
    10
 91
        8
102
{ATTRRECORD
341
55C9
  2
AcDs:Indexable
280
     1
291
     1
102
ATTRRECORD}
102
{ATTRRECORD
341
55CA
  2
AcDbDs::HandleAttribute
280
     7
282
     1
102
ATTRRECORD}
  2
Thumbnail_Data
280
    15
 91
        0
  0
XRECORD
  5
55C7
102
{ACAD_REACTORS
330
55CC
102
}
330
55CC
100
AcDbXrecord
280
     1
  1
AcDbDs::TreatedAsObjectDataSchema
  2
AcDbDs::TreatedAsObjectData
280
     1
 91
        0
  0
XRECORD
  5
55C8
102
{ACAD_REACTORS
330
55CC
102
}
330
55CC
100
AcDbXrecord
280
     1
  1
AcDbDs::LegacySchema
  2
AcDbDs::Legacy
280
     1
 91
        0
  0
XRECORD
  5
55C9
102
{ACAD_REACTORS
330
55CC
102
}
330
55CC
100
AcDbXrecord
280
     1
  1
AcDbDs::IndexedPropertySchema
  2
AcDs:Indexable
280
     1
 91
        0
  0
XRECORD
  5
55CA
102
{ACAD_REACTORS
330
55CC
102
}
330
55CC
100
AcDbXrecord
280
     1
  1
AcDbDs::HandleAttributeSchema
  2
AcDbDs::HandleAttribute
280
     7
 91
        1
284
     1
  0
DICTIONARY
  5
1D1F
102
{ACAD_REACTORS
330
1D1E
102
}
330
1D1E
100
AcDbDictionary
280
     1
281
     1
  3
1
360
1D20
  0
DICTIONARY
  5
1D27
102
{ACAD_REACTORS
330
1D26
102
}
330
1D26
100
AcDbDictionary
280
     1
281
     1
  3
1
360
1D28
  0
DICTIONARY
  5
1D2E
102
{ACAD_REACTORS
330
1D2D
102
}
330
1D2D
100
AcDbDictionary
280
     1
281
     1
  3
1
360
1D2F
  0
DICTIONARY
  5
1D35
102
{ACAD_REACTORS
330
1D34
102
}
330
1D34
100
AcDbDictionary
280
     1
281
     1
  3
1
360
1D36
  0
DICTIONARY
  5
1D3C
102
{ACAD_REACTORS
330
1D3B
102
}
330
1D3B
100
AcDbDictionary
280
     1
281
     1
  3
1
360
1D3D
  0
DICTIONARY
  5
1D44
102
{ACAD_REACTORS
330
1D43
102
}
330
1D43
100
AcDbDictionary
280
     1
281
     1
  3
2
360
1D45
  0
DICTIONARY
  5
4B41
102
{ACAD_REACTORS
330
1D4A
102
}
330
1D4A
100
AcDbDictionary
280
     1
281
     1
  3
3
360
4B42
  0
DICTIONARY
  5
1D53
102
{ACAD_REACTORS
330
1D52
102
}
330
1D52
100
AcDbDictionary
280
     1
281
     1
  3
1
360
1D54
  0
DICTIONARY
  5
2123
102
{ACAD_REACTORS
330
2122
102
}
330
2122
100
AcDbDictionary
280
     1
281
     1
  3
1
360
2124
  0
DICTIONARY
  5
212C
102
{ACAD_REACTORS
330
212B
102
}
330
212B
100
AcDbDictionary
280
     1
281
     1
  3
1
360
212D
  0
DICTIONARY
  5
2134
102
{ACAD_REACTORS
330
2133
102
}
330
2133
100
AcDbDictionary
280
     1
281
     1
  3
1
360
2135
  0
DICTIONARY
  5
5006
102
{ACAD_REACTORS
330
5005
102
}
330
5005
100
AcDbDictionary
280
     1
281
     1
  3
2
360
5007
  0
DICTIONARY
  5
500D
102
{ACAD_REACTORS
330
500C
102
}
330
500C
100
AcDbDictionary
280
     1
281
     1
  3
3
360
500E
  0
DICTIONARY
  5
505A
102
{ACAD_REACTORS
330
5059
102
}
330
5059
100
AcDbDictionary
280
     1
281
     1
  3
1
360
505B
  0
DICTIONARY
  5
5061
102
{ACAD_REACTORS
330
5060
102
}
330
5060
100
AcDbDictionary
280
     1
281
     1
  3
1
360
5062
  0
DICTIONARY
  5
51CB
102
{ACAD_REACTORS
330
51CA
102
}
330
51CA
100
AcDbDictionary
280
     1
281
     1
  3
1
360
51CC
  0
DICTIONARY
  5
51D3
102
{ACAD_REACTORS
330
51D2
102
}
330
51D2
100
AcDbDictionary
280
     1
281
     1
  3
2
360
51D4
  0
DICTIONARY
  5
51DA
102
{ACAD_REACTORS
330
51D9
102
}
330
51D9
100
AcDbDictionary
280
     1
281
     1
  3
3
360
51DB
  0
DICTIONARY
  5
51E3
102
{ACAD_REACTORS
330
51E2
102
}
330
51E2
100
AcDbDictionary
280
     1
281
     1
  3
3
360
51E4
  0
DICTIONARY
  5
52BF
102
{ACAD_REACTORS
330
52BE
102
}
330
52BE
100
AcDbDictionary
280
     1
281
     1
  3
1
360
52C0
  0
DICTIONARY
  5
52C8
102
{ACAD_REACTORS
330
52C7
102
}
330
52C7
100
AcDbDictionary
280
     1
281
     1
  3
1
360
52C9
  0
DICTIONARY
  5
52D1
102
{ACAD_REACTORS
330
52D0
102
}
330
52D0
100
AcDbDictionary
280
     1
281
     1
  3
1
360
52D2
  0
DICTIONARY
  5
52DE
102
{ACAD_REACTORS
330
52DD
102
}
330
52DD
100
AcDbDictionary
280
     1
281
     1
  3
2
360
52DF
  0
DICTIONARY
  5
52E5
102
{ACAD_REACTORS
330
52E4
102
}
330
52E4
100
AcDbDictionary
280
     1
281
     1
  3
3
360
52E6
  0
DICTIONARY
  5
52EE
102
{ACAD_REACTORS
330
52ED
102
}
330
52ED
100
AcDbDictionary
280
     1
281
     1
  3
3
360
52EF
  0
DICTIONARY
  5
54C2
102
{ACAD_REACTORS
330
54C1
102
}
330
54C1
100
AcDbDictionary
280
     1
281
     1
  3
1
360
54C3
  0
DICTIONARY
  5
54C9
102
{ACAD_REACTORS
330
54C8
102
}
330
54C8
100
AcDbDictionary
280
     1
281
     1
  3
1
360
54CA
  0
DICTIONARY
  5
54D1
102
{ACAD_REACTORS
330
54D0
102
}
330
54D0
100
AcDbDictionary
280
     1
281
     1
  3
1
360
54D2
  0
DICTIONARY
  5
54D9
102
{ACAD_REACTORS
330
54D8
102
}
330
54D8
100
AcDbDictionary
280
     1
281
     1
  3
1
360
54DA
  0
DICTIONARY
  5
54E0
102
{ACAD_REACTORS
330
54DF
102
}
330
54DF
100
AcDbDictionary
280
     1
281
     1
  3
1
360
54E1
  0
XRECORD
  5
1FA
102
{ACAD_REACTORS
330
1F9
102
}
330
1F9
100
AcDbXrecord
280
     1
 70
     1
 90
429727718
  1
D62C5603-E3A1-4AEA-B7FB-FE5D8D0755AF
310
504B03040A0000080000CC70623B3DEE336E79000000790000001B0000006175746F6465736B2D64657369676E2D7061636B6167652E786D6C3C3F786D6C2076657273696F6E3D22312E302220656E636F64696E673D227574662D3822203F3E3C666F726D6174733E3C666F726D61743E687474703A2F2F736368656D612E
310
6175746F6465736B2E636F6D2F64657369676E2D7061636B6167652F323030393C2F666F726D61743E3C2F666F726D6174733E504B0304140006080800CC70623BD486FD9CA0000000F4000000130000005B436F6E74656E745F54797065735D2E786D6C7D8EC10E82300C865F65E91D8A1E8C310C0EEA1BF002731658846E
310
D98AC1B77784ABF1D8FE5FBFBF75BBCE937A534CCEB38643598122B6FEE978D0B0485F9C41B54DDD7D022595594E1A469170414C76A4D9A4D207E29CF43ECE46F218070CC6BECC4078ACAA135ACF422C856C0E68EA1BF5669944DDD7BCDE7B1F8E415D77AECB980613C2E4AC91FC167A2B244592486606FC29C8FD7F045B9A
310
EF7053A7E60B504B0304140006080800CC70623B853B8169EB0000007C01000008000000636F72652E786D6C8D90416EC3201045AF62CDB6C206821CC7C244919D9CA01740401C94182C03558F5F9C3852BBEB6A467FFE9B197D7EFC9E1EC5975982F5AE035262288C535E5B377690E21535501C055FBC8FBF6C503839990E
310
5619041F179FE64D52DE45E362569DD7661365082642A11EB9E920A89B99642953CC8E702F67A9EE7234257977194EC9EAE275C4EABCCF5EAD5940D4AC6F0E35A568B8F43562CD7046CD199FD07E60174276A7BE677B5EADB0E0D14EEFFB6A31321A0D82627C4084204C3F096B71DD52F6819B16635EADF63F509AF53FA164
310
5DDCD1EDDD17164090FCC8732078B56691CB33A85CD7DCC40F504B0304140006080800CC70623B55019EA25F0000007C00000007000000636E782E786D6C4DCB3B0E80201045D1AD90E915ED2CF8AC45050C11660C8261F98AB1B07AC9C97D42D718D865D3E909258CFD00CCE24AC6E326A164D74DC0B4128928FF32603847
310
2BA13128B1252AC747C6BAB984FC68F0B87FE8960A5C09FE86CFB69FBA01504B0304140006080800CC70623BDBABAAF470010000D40300000C0000006662782F636F72652E786D6CC553D16E823014FD95A6AF4B694182CC941A83FA05FB810A9511A125A5257EFE2E82712ECEB8A7F100CD39F7F69E734AF9FADC366850B6
310
AF8DCE7018308C942E4C59EB2AC3DE1D498AD15A706B8CFB56869196ADCAF00863C12B6B7C374385D14E6907A836A59A41D9F7CA615434B0C8705F7CAA5606D23BA8E84F41278B93AC54100640439DE0BDB320004D43C63716C7C399D30917DCFBBA9CD9BA8469F5B156168B24CED3F7248AC8769F27244EB73B92EED8862C
310
B7F13E0C179B3C8F979C8ECD82BBBABDAA2BAC924E9558448CBD9330242CFA08E3154B5651FCC6D215639C8EE5774DBE2B5F6CF2B5768B68963BB5F5588420E442FC700B1139D4CB01F450C1E918227C2E09DF070D8140C84E1E9AAB8F1340832A9CB13130A5F1376A908D57309505ECF2A0DF179C4E9D30F5B239B87E3823
310
7A79C6F31DE1A8A5AEC08474B03C7837EAE4938639B44E5932B833D2C6B6B279CDC613877FA26EE21F4A2A4C63EC7F29A2F301D1F9F7A0E37D145F504B0304140006080800CC70623B9C113CC27E0000009D0000000B0000006662782F636E782E786D6C4DCCDF0A83201C86E15B91DFB94BFB330DD428C8FB886521330DA7
310
6397BF1A1DECE883878F57749FCDA1B7892F1BBC047A23808C7F84D9FA55424E0BE6803A256208E9EF06C84F9B91703228B1C690F78B66B34CD9A5439DF5CF0BFBF65E35BCA1B8D6A5C6F540381E886698B5741C695F9503EBA150A2F8958E3DC3EA0B504B0304140006080800CC70623B7DF2F77C2A010000120200003100
310
00006662782F41393633353835312D344632462D344230382D423046372D3739314545314133324237412F636F72652E786D6C8D51DB8EC22014FC15C2939B0D2DB4B45643319AE817EC0F6041255A68B86CFCFC856D4D76DF7CE190393373060EDB3DC707F856CE6B6B7A480A0C81328395DA5C7B18C3057510EC3873D686
310
3F34088C18550F330C39BB3A1BA7051AAC09CA84841A2BD5020AEF55806078A44B0FFD7053A328440C89E1EFC52486BBB8AA8214A99D789CF9E05200300FC927E4FB4D5B375D43103D5527440FB843077C5AA3F5861C8F645F5787F59E95B390B318B55CE45AA638FAA2957BD7248B390B7A7CC51F9C124149C82B8C378810
310
84AB2F42B7B8DD56F413775B8C5999E9FF4471926F8AA236A1AE96B8B3CC434E5839373893369E1FAF30EA395917409EB7F26AF8801C171837A4A6AC9C89E9F9C9B1A58BA30FD6A5EF5DDDCF894B9AD9B6A59C957943A9FCAE2FD5BC4DFE03504B0304140006080800CC70623BAD7543B64E01000033030000300000006662
310
782F41393633353835312D344632462D344230382D423046372D3739314545314133324237412F636E782E786D6CD593CD6EC32010845F0571AD6CE3D48AD20813A9873E410FBD12D82434182C7EAAE6EDBB2424CD25871E7B41D6EC30B3FA84F9E67BB2E40B4234DE8DB46F1925E094D7C6ED479AD3AE5951B2113C789FEE
310
6C943839C1488B4C05DF079FE72A69D8C96C13AAD6B8631503449F83828872B949AC57D26200B826A308D316B4064D6E46FCDA41C05550DC9E483A00797BFD207EFB092A45DE9514C1BBD22178396BD39D891265658C238DEA00936C654E5E433CB65A26D9F6EDB5EBC14EBF49A45CB856E66048291F6939A9A81BB5C89177
310
38143CA680F4AA299D66A042CEB3354A2684DC9D8D178FE0D9B8B41CAAD720F880EE7EF93C0C18769E099ECC04D5A102C8049A8A05632F4DDF376CF1DE0F6BB65C2F8627B65A33C6BB62177CEBBDAD973006829F89F22E814B54F4BC2BE347F8AA8F681390B50FA73F804400B5F542E796F19FF974E7F78DB802FE05E20750
310
4B0304140006080800CC70623BE75B7789680500003C100000340000006662782F41393633353835312D344632462D344230382D423046372D3739314545314133324237412F6F626A656374732E786D6CAD575B8F9B3818FD2B887D06C22499CB8AA1CA655245D5B455A356FB305264C061D8018C6C3393D95FBFC7600890
310
A4CD5EF210B0B1BFEBF98E3F7B1FF6596ABC522E1296DF9BAE3D320D9A872C4AF2F8DE2CE5CEBA358D0FBEC719939D65A691938CDE9B6ADAF4BD98B3B2D05311DD91329583D9D5FC0F438434A7A611A644887B5384CF34233629258BA878B12322891DEFF6B66BD70BFB62634E8AE781D082709A4B588AF91C528CDA28B73F
310
1C998EEF39EABBEFA97FBD6A7C7E9553F9D3D79FE442923C3C523610337627CB87ABE99D359D4CC6D6E4FACAB5E6ABF9D2726FC6A3C5F56271377BB88362213924694B38DD99FE47C48627A1E7D49F5A8BB5E1A74C0A599ED3B0F21F1E56366B89112D681E218F0915D0D6F17AD41FBA2A369DCF6335D62ABBD39779D5DDD1
310
11D4D8DE3CBB96B2E04FB8202E41051754A1AA8E8F76B4C6DFE810B580B1547F4B84911149794252234D024EF8BBE963A95AE27B3D310A9D5C215C7960FAEE415ED75694C6AFB17BCACA5D99A60A9AA65F217B0BFC53292ACB92BF283FAD0D3621576592CB5BED907C2FA8E9DF794E35E97BEA31BED21FEB401ABB94C44839
310
DCACBF0E1C5DA8DA5B2F4DFFD32AD86F543D9E565E7056502E157C00AD2671CD534549AB752FCA9CDA00677A313F04E51B22FF19E57B300579E3C97EB29F682D92935CEC18CF901B7B54FD8C51F362B56FC72FE0B3C1EAE335EDCCBF5AEC39ADB17DC238973F804BA5E6F6BFE7AF1FB32E523BE9F3BD571418E3631DCA4D48
310
5250CF639223210A9446CA30052EDF057BD35F8329C1ECD84552BF0DC8D18BE7BCE23BFE6BD960AB4A7DE79923A103BEBD80F911CBAA2C60DB19B01CF164A5583B772EE6D3FFA56666CBCDA74DC97724A48F9A58967497E489C4D979006FD7A05E227A1EBDD0F737C623387A9C844D3709995625106D157315F8B8392CD4E0
310
A0B9A720C4BE9829CEF37EA1E13111214D53925356365ADA634861B52519DD27A00AEB808EAF0628E6F435519D446F45CF2C9CF5214F0A15B2F6D06B79DA3EE3CBF7F56780D2F4E7EF73A0F5E5B02A38D07DC852C6B7C1FBB6664213E0C39E3EBA7FF4E1AD23EA2829407C85E586727488B751B2DB9502BC7B228A3FD68B6E
310
A65A22397E690AA8D158D7E404EC8CDA235CC3B7D1898680131CEC2CDF2638C65196279577750F15884AEE19F94199155B92B13297978469D4F8D358DF0AEF7631E28DC8F0D9F437D5D39A83B2231A1D52D543813A824EF8D44BCFF2FA6A31BD1E8DAD87F1CCB526B3879935BF59CDADD5C37479BB1CDD4CA7B3556B516589
310
EF352754B706114D9C885EC9131DE6EFEB43D99AFE2391C2F958179413D7CFEF6B1B6DB1E7600F00DE6E5C67454A339A4BA2E0FBA85ED26F045D454F463DBFCE484C2F90F2E5E3666003662ED8F755951A7D1BECD5B30B550B2785C8E7320B7292A4838DDA71BBC863ED7613CAF659337A3354231D4FF4A182A54904C2898C
310
98B28C4AD0CE056CCF332A80986E571EE9DBC305BB5FEB7E509220A58D25CF042D712A806AC0AD0C657FDEF80D2D9CEAA2EE4D1C76F60BFE74219A06527D6F82DF6412526107381E55E353090704D085B52408A8913C4ED159D79BDA71BB4BC506F4831350EB6F975CD22D69BF7AC49B91A2C0A9DDA3D5CA36AD20FC478E37
310
E61844E2352865EBCB61A275A65283CAAA9DD27703B4102F5AF51EF5F573B75CBB5AD38BC845F7A49F82A0966A49C2E3EA5EA0ECD326CD965F1DB402C6FA8B51A4658C5C5E2EC9E214602E55810345408596591009A82E7E7FFACA19EEA299B14A0081A705CB3296EBC14CDF658DCD336EA6D1136881AAEB87B81AB9EE53D5
310
F5EB8BC8362082DA24122F98680A4E7930C01A0079749CEA14382A0783E5EBA5A10F8C098456A03D6A4AEB6BB881E2513747552A5DB22C7EDAF83BD5528081A365F7FF06504B0304140006080000CC70623B000000000000000000000000350000006662782F41393633353835312D344632462D344230382D423046372D37
310
39314545314133324237412F76657274696365732E62696E504B0304140006080800CC70623BF270F1330600000004000000360000006662782F41393633353835312D344632462D344230382D423046372D3739314545314133324237412F747269616E676C65732E62696E636660600000504B0304140006080000CC7062
310
3B000000000000000000000000370000006662782F41393633353835312D344632462D344230382D423046372D3739314545314133324237412F617474726962757465732E62696E504B0304140006080800CC70623B08DA0BD19000000041010000360000006662782F41393633353835312D344632462D344230382D4230
310
46372D3739314545314133324237412F6469726563746F72792E786D6C858F410AC3201045AF22B36F53E9A60B35CBEEBAE80D244E44489C6234F4F835464A48035D0DF398FF9F8AF63D0E6CC63039F212F8F9020C7D47C6792B21C5FE7403D62A1188E2E60C98D7234A5830286103A55745067B9D86B8A3CF9C7F90C11DE6
310
07FB144396D7B6A82D282E9A152AD114D5EF2CB866EEE831B8EEA07A7BB5A8D7D61A2BAAEB7FD5F70921FF497D00504B0304140006080800CC70623BEDD1DC58FD000000A00100003B0000006662782F41393633353835312D344632462D344230382D423046372D3739314545314133324237412F7265736F75726365732F
310
636F72652E786D6C8D504B6E833010BD0A9A6D65B00922041947112427E8052C33A156828DFCA97AFC9A40A576D7CDCCE87D344F8F9FBFE667F689CE6B6B3A6039850C8DB2A336530731DC4903D95970676DF82583CCC8193B5861107C72362E3BA4AC096842428D1D7107A5F7182053CF7474E0D507CE32973124857FE48B
310
540F3961CEF244279DE03EB81420DB9EAC1384436FA353E879B1B182C7A8C75DA3C7F453DF353A1075D537A7BA6464B8F535A99AE14A9A2BBD90E350DD183B5CFABE3AF262350B1EF4FC9351399401471025A527C218A1E53BAB5A5AB765F5469B96525EACF23FA6B88CFF34456DC2A1DCE36E360F82A5202F42F062ED2BAD
310
579969AFDD8A6F504B010214000A0000080000CC70623B3DEE336E79000000790000001B00000000000000000000000000000000006175746F6465736B2D64657369676E2D7061636B6167652E786D6C504B01021400140006080800CC70623BD486FD9CA0000000F40000001300000000000000000000000000B20000005B
310
436F6E74656E745F54797065735D2E786D6C504B01021400140006080800CC70623B853B8169EB0000007C010000080000000000000000000000000083010000636F72652E786D6C504B01021400140006080800CC70623B55019EA25F0000007C000000070000000000000000000000000094020000636E782E786D6C504B
310
01021400140006080800CC70623BDBABAAF470010000D40300000C00000000000000000000000000180300006662782F636F72652E786D6C504B01021400140006080800CC70623B9C113CC27E0000009D0000000B00000000000000000000000000B20400006662782F636E782E786D6C504B01021400140006080800CC70
310
623B7DF2F77C2A010000120200003100000000000000000000000000590500006662782F41393633353835312D344632462D344230382D423046372D3739314545314133324237412F636F72652E786D6C504B01021400140006080800CC70623BAD7543B64E010000330300003000000000000000000000000000D2060000
310
6662782F41393633353835312D344632462D344230382D423046372D3739314545314133324237412F636E782E786D6C504B01021400140006080800CC70623BE75B7789680500003C10000034000000000000000000000000006E0800006662782F41393633353835312D344632462D344230382D423046372D3739314545
310
314133324237412F6F626A656374732E786D6C504B01021400140006080000CC70623B0000000000000000000000003500000000000000000000000000280E00006662782F41393633353835312D344632462D344230382D423046372D3739314545314133324237412F76657274696365732E62696E504B01021400140006
310
080800CC70623BF270F133060000000400000036000000000000000000000000007B0E00006662782F41393633353835312D344632462D344230382D423046372D3739314545314133324237412F747269616E676C65732E62696E504B01021400140006080000CC70623B0000000000000000000000003700000000000000
310
000000000000D50E00006662782F41393633353835312D344632462D344230382D423046372D3739314545314133324237412F617474726962757465732E62696E504B01021400140006080800CC70623B08DA0BD1900000004101000036000000000000000000000000002A0F00006662782F41393633353835312D344632
310
462D344230382D423046372D3739314545314133324237412F6469726563746F72792E786D6C504B01021400140006080800CC70623BEDD1DC58FD000000A00100003B000000000000000000000000000E1000006662782F41393633353835312D344632462D344230382D423046372D3739314545314133324237412F7265
310
736F75726365732F636F72652E786D6C504B0506000000000E000E0080040000641100000000
  0
XRECORD
  5
1F8
102
{ACAD_REACTORS
330
1F7
102
}
330
1F7
100
AcDbXrecord
280
     1
 70
     1
 90
429727718
  1
30362254-06B7-45E0-A893-8CFA70E3D6BC
310
504B03040A0000080000CC70623B3DEE336E79000000790000001B0000006175746F6465736B2D64657369676E2D7061636B6167652E786D6C3C3F786D6C2076657273696F6E3D22312E302220656E636F64696E673D227574662D3822203F3E3C666F726D6174733E3C666F726D61743E687474703A2F2F736368656D612E
310
6175746F6465736B2E636F6D2F64657369676E2D7061636B6167652F323030393C2F666F726D61743E3C2F666F726D6174733E504B0304140006080800CC70623BD486FD9CA0000000F4000000130000005B436F6E74656E745F54797065735D2E786D6C7D8EC10E82300C865F65E91D8A1E8C310C0EEA1BF002731658846E
310
D98AC1B77784ABF1D8FE5FBFBF75BBCE937A534CCEB38643598122B6FEE978D0B0485F9C41B54DDD7D022595594E1A469170414C76A4D9A4D207E29CF43ECE46F218070CC6BECC4078ACAA135ACF422C856C0E68EA1BF5669944DDD7BCDE7B1F8E415D77AECB980613C2E4AC91FC167A2B244592486606FC29C8FD7F045B9A
310
EF7053A7E60B504B0304140006080800CC70623B1EC5D7A3EB0000007C01000008000000636F72652E786D6C8D90416EC3201045AF82665B6103C6756C6122AB4D4ED00B204C5C94182C03558F5F9C3852BBEB6A467FFE9B197D71FC9E6FE8CBACC17AD7032D0820E3B41FAD9B7A48F1820F808E52ACDEC75F36404ECDA687
310
4D0629A6D5A76597B477D1B89855E747B38B2A041301E95B6E7A08FAD3CCAA50296647B8168BD2573599823EBB0CA76447F43862C7BCCF5EAC59410E4DDD9C7973C2755553CCCFA4C603E3040F1565ED3B1FDE4E432BCA0D9622DAF9795FAF464533826484B498524CD807E51D79ED187F21878E10516EF63F505AC67F42C9
310
BA58B1FDDD071640D2FCC87D2045B96591CB3DA85CB7DCE40F504B0304140006080800CC70623B55019EA25F0000007C00000007000000636E782E786D6C4DCB3B0E80201045D1AD90E915ED2CF8AC45050C11660C8261F98AB1B07AC9C97D42D718D865D3E909258CFD00CCE24AC6E326A164D74DC0B4128928FF32603847
310
2BA13128B1252AC747C6BAB984FC68F0B87FE8960A5C09FE86CFB69FBA01504B0304140006080800CC70623B8C9102E971010000D40300000C0000006662782F636F72652E786D6CC5535B6E833010BC8AE5DF0A6C08340F1947A84D4ED00B38C6A128602363A31CBFCB234A53A551FA553EC09AD9F5CE8C31DB9E9B1AF5CA
310
7695D1198E428A91D2D214952E33ECDD315861B4E5CC1AE3BE9561A445A3323CC098B3D21ADFCE9034DA29ED00D5A6503328BA4E398C640D8B0C77F253352214DE4145770A5B214FA2546114020D759C75CE8200340D19DE981F0F6746269C33EFAB6266AB02A655C74A59CCF365BADC27CB5D902ED22848F6340DF238A141
310
BE88E2F57B92BFEDF23523433367AE6A2EEAA455C2A902F398D2751045018D3FA264435F3771F242571B4A1919CA6F9A7C5B3CD9E42BED16F12C776AEB308F40C848FC700B1139D4891EF410CEC810227CC6846F8386402064270EF5C5C709A05E49676C024C61FC95EA45ED154CA5211D1FF4FB8291A913A68E9B83EBBB33
310
E2A7673CDE118E5AE8124C0807CB8377834E366998436B950D7A7746DAD846D4CFD978E0F04FD455FC5D49D2D4C6FE9722321F10997F0F32DC47FE05504B0304140006080800CC70623BFFEA85907E0000009D0000000B0000006662782F636E782E786D6C4DCCD10A83201886E15B91FFDC95D95A811AB6F23E625948A6C3
310
E9D8E5AF46073BFAE0E1E365ED67B3E8ADC3CB78C7815C7240DA3DFC64DCC221C519D7805AC182F7F1EF06C88D9BE6703008B6049F9E274D7A1E938DBB5AE3D6131B2589BA0D3D965551E0B2EA732C9B9A624AAEB41E3A557677029960D9AFB4EF11165F504B0304140006080800CC70623B4FEEA4082C0100001202000031
310
0000006662782F39464131463745442D413632322D343644302D413938332D3331353338454246344243312F636F72652E786D6C8D515B6EC32010BC0AE2AB55850DD871ED0813254D72825EC00192A2C460F1A872FC42ED48ED5F7E00CDCECCCEB26C731F6FE05B39AFADE921293004CA082BB5B9F43086336A21D870E6AC
310
0D7F68109861543DCC30E4ECE26C9C164858139409093556AA051CBC570102714B8F1E7AF1A5C6A11862480C7F2DA6415C878B2A4891CA89C7990F2E050073937C42DE1DB7E4F87ED8A36D4329AA9B3D46DBAEAD504556557BD81DEBDD0761E52CE42C462D17B996298E3E6BE59E35C962CE821E1FF18553435012728A7187
310
0841987E927A8D9B35ADDF70BBC6989599FE4F1427F9A4286A132ABAC49D651EF234CD5CE04CDA78BA3DC2A8FB645D00B9DF8B57E215725C60BCA2A463E54C4CE327C7A65E1C7DB02E7DEFCBF594B864C5CA6CDBD49C957943E9FA5D5FBAF336F90F504B0304140006080800CC70623BAD7543B64E01000033030000300000
310
006662782F39464131463745442D413632322D343644302D413938332D3331353338454246344243312F636E782E786D6CD593CD6EC32010845F0571AD6CE3D48AD20813A9873E410FBD12D82434182C7EAAE6EDBB2424CD25871E7B41D6EC30B3FA84F9E67BB2E40B4234DE8DB46F1925E094D7C6ED479AD3AE5951B2113C
310
789FEE6C943839C1488B4C05DF079FE72A69D8C96C13AAD6B8631503449F83828872B949AC57D26200B826A308D316B4064D6E46FCDA41C05550DC9E483A00797BFD207EFB092A45DE9514C1BBD22178396BD39D891265658C238DEA00936C654E5E433CB65A26D9F6EDB5EBC14EBF49A45CB856E66048291F6939A9A81BB5
310
C8917738143CA680F4AA299D66A042CEB3354A2684DC9D8D178FE0D9B8B41CAAD720F880EE7EF93C0C18769E099ECC04D5A102C8049A8A05632F4DDF376CF1DE0F6BB65C2F8627B65A33C6BB62177CEBBDAD973006829F89F22E814B54F4BC2BE347F8AA8F681390B50FA73F804400B5F542E796F19FF974E7F78DB802FE05
310
E207504B0304140006080800CC70623B16AB87BA640500003C100000340000006662782F39464131463745442D413632322D343644302D413938332D3331353338454246344243312F6F626A656374732E786D6CAD575B6FA33818FD2B887DE6924B3BED8A326A92B68A663B534DD4D13E548A0C38942D60649B369D5FBFC7
310
600890A493BDE42160637FD7F31D7FF63E6FB3D478A55C242CBF3247B66B1A340F5994E4F19559CA8D75611A9F7D8F33263BCB4C232719BD32D5B4E97B316765A1A722BA21652A07B3B7B33F0D11D29C9A46981221AE4C113ED38CD8A4942CA2E2C58E882476BCD9DA23BB5ED8171B73523C0F841684D35CC252CCE79062D4
310
468DFA43D7747CCF51DF7D4FFDEB5593E3AB9CCA9FBEFE241792E4E19EB28198C968BAB8199F5D5A67D3E9C49A9E8F47D6EC76B6B0469F26EEFC7C3EBFBCBEB98462213924694B38DD98FE1D62C393D073EA4FADC5DAF04326852CCF6958F90F0F2B9BB5C48816348F90C7840A68EB78EDF68723159BCEE7891A6B95DDE9D3
310
BCEAEEE8086A6C6F9E5D4B59F0175C10A7A0820BAA5055C7473B5AE3CFDD452D602CD5DF12616444529E90D448938013FE6EFA58AA96F85E4F8C42275708571E98FE6827AF6B2B4AE3D7D83D64E5A64C53054DD3AF90BD06FEA9149565C94FCA0F6B834DC85599E4F2423B24DF0B6AFA979E534DFA9E7A4CC6FA631D486393
310
921829879BF5D781A373557BCB85E97FB90DB62B558F8795179C15944B051F40AB495CF35451D26A4727654E6D8033BD98EF82F21D91FF8AF2DD9982BCF1643BDD4EB516C9492E368C67C88DED563FC36D5EACF66DFF057C3658BDBFA69DF9578B3DA735B64F18C7F20770A9D45CFCF7FCF563D6456A277DBEF78A02637CA2
310
43B90A490AEAB94F72244481D24819A6C0E59B606BFA4B3025981DBB48EAB701D97BF19C577CC77F2D1B6C55A9EF3C732474C0B727303F625995056C3B02963D9EAC146BE78EC5FCEC7FA999EBC5EACBAAE41B12D27B4D2C0BBA49F244E2ECDC81B76B502F113D8F5EE8FB1BE3111CDD4FC2AA9B844CAB1288B68AB90A7CDC
310
1C166AB0D3DC5310625FCC14E779BFD0709F8890A629C9292B1B2DED31A4B0DA928CEE135085754027E3018A397D4D5427D15BD1330B677DC8934285AC3DF45A9EB68FF8F2B8FC0A509AFEECFD0FF2DE25CC6047F7214B195F07EFEB9A094D800F7BFAE8FED187B78EA8A3A400F115961BCAD1215E47C966530AF0EE8128FE
310
58CEBB996A8964FFA529A046635D9353B0336A8F700DDF46271A024E70B0B37C9DE01847591E54DED53D54202AB947E4076556AC49C6CA5C9E1226B7F1A7B1BE15DEED62C41B91E1B3E9AFAAA735036547343A925075041DF0A9979E893B391F8FCFA6967B3EFB644DCF6E5CEBFAE272625DCC6FAF3FB93793C5F90CE1EF57
310
407342756B10D1C489E8953CD1617E5CEECAD6F4EF8914CE5D5D504E5C3F1F9736DA62CFC11E00BCDDB8CC8A9466349744C1F75EBDA4DF09BA8A9E8C7A7E9991989E20E5DBDD6A6003664ED8F7A04A8DBE0DF6EAD9B9AA858342E47399053949D2C146EDB85DE4B176BB0965FBAC19BD19AA918E27FA50C1D22402E144464C
310
59462568E704B6E71915404CB72B8FF4EDE184DDAF753F284990D2C6926782963815403548A70C657FDEF80D2D9CEAA2AE4C1C76F60BFE74219A06527D6582DF6412526107381E55E353090704D085B52408D0933C4ED159D79BDA71BB4BC506F4831350EB6F979CD22D69BF7AC49B91A2C0A9DDA3D5CA36AD20FC478E37E6
310
1844E2352865EBCB6EA275A652E3836BE04EFB400BF1A2556F515F1FBB35B2AB35BD889C744FFA1004B5544B121E57F70215746DD2F5E2C1412B602CBF19455AC6C8E5E9922C4E01E65215385004546899059180EAFCF7A707CE7017CD8CDB0410789AB32C63B91E5CEBBBACB17AC6CD347A022D5075FD106377347AAABA7E
310
7D11590744509B44E205134DC1290F06580320F78E537D3D73540E06CB970B431F185308AD40BBD794D6D77003C5A36E8EAA54BA64597CD8F83BD552A080A365F7FF06504B0304140006080000CC70623B000000000000000000000000350000006662782F39464131463745442D413632322D343644302D413938332D3331
310
353338454246344243312F76657274696365732E62696E504B0304140006080800CC70623BF270F1330600000004000000360000006662782F39464131463745442D413632322D343644302D413938332D3331353338454246344243312F747269616E676C65732E62696E636660600000504B0304140006080000CC70623B
310
000000000000000000000000370000006662782F39464131463745442D413632322D343644302D413938332D3331353338454246344243312F617474726962757465732E62696E504B0304140006080800CC70623B08DA0BD19000000041010000360000006662782F39464131463745442D413632322D343644302D413938
310
332D3331353338454246344243312F6469726563746F72792E786D6C858F410AC3201045AF22B36F53E9A60B35CBEEBAE80D244E44489C6234F4F835464A48035D0DF398FF9F8AF63D0E6CC63039F212F8F9020C7D47C6792B21C5FE7403D62A1188E2E60C98D7234A5830286103A55745067B9D86B8A3CF9C7F90C11DE607
310
FB144396D7B6A82D282E9A152AD114D5EF2CB866EEE831B8EEA07A7BB5A8D7D61A2BAAEB7FD5F70921FF497D00504B0304140006080800CC70623B0D6EF93BFE000000A00100003B0000006662782F39464131463745442D413632322D343644302D413938332D3331353338454246344243312F7265736F75726365732F63
310
6F72652E786D6C8D50596E833010BD0A9ADFCA60B334011947A8694ED00B586642AC041B79A97AFC9A40A5F6AF3F33A3B7689E1E3F7DCD8FEC139DD7D6F4C0720A191A65476DA61E62B892236427C19DB5E1970C322367EC618541F0C9D9B8EC90B226A009093576C41D94DE63804C3DD2D18357379C652E63480A7FCF17A9
310
EE72C29CE5894E3AC17D702940B63D59270887DE46A7D0F36263058F518FBB468FE9A7BE6A7420864373B8D4873369AA8691FA421B3294352543C5CAF65C0F6FEF43CB8BD52C78D0F34F46E550061C419494B6843142CB0F5677F4B52BEB177AEC28E5C52AFF638ACBF84F53D42654E51E77B379102C05791282176B5F693D
310
CB4C7BED567C03504B010214000A0000080000CC70623B3DEE336E79000000790000001B00000000000000000000000000000000006175746F6465736B2D64657369676E2D7061636B6167652E786D6C504B01021400140006080800CC70623BD486FD9CA0000000F40000001300000000000000000000000000B20000005B
310
436F6E74656E745F54797065735D2E786D6C504B01021400140006080800CC70623B1EC5D7A3EB0000007C010000080000000000000000000000000083010000636F72652E786D6C504B01021400140006080800CC70623B55019EA25F0000007C000000070000000000000000000000000094020000636E782E786D6C504B
310
01021400140006080800CC70623B8C9102E971010000D40300000C00000000000000000000000000180300006662782F636F72652E786D6C504B01021400140006080800CC70623BFFEA85907E0000009D0000000B00000000000000000000000000B30400006662782F636E782E786D6C504B01021400140006080800CC70
310
623B4FEEA4082C0100001202000031000000000000000000000000005A0500006662782F39464131463745442D413632322D343644302D413938332D3331353338454246344243312F636F72652E786D6C504B01021400140006080800CC70623BAD7543B64E010000330300003000000000000000000000000000D5060000
310
6662782F39464131463745442D413632322D343644302D413938332D3331353338454246344243312F636E782E786D6C504B01021400140006080800CC70623B16AB87BA640500003C1000003400000000000000000000000000710800006662782F39464131463745442D413632322D343644302D413938332D3331353338
310
454246344243312F6F626A656374732E786D6C504B01021400140006080000CC70623B0000000000000000000000003500000000000000000000000000270E00006662782F39464131463745442D413632322D343644302D413938332D3331353338454246344243312F76657274696365732E62696E504B01021400140006
310
080800CC70623BF270F133060000000400000036000000000000000000000000007A0E00006662782F39464131463745442D413632322D343644302D413938332D3331353338454246344243312F747269616E676C65732E62696E504B01021400140006080000CC70623B0000000000000000000000003700000000000000
310
000000000000D40E00006662782F39464131463745442D413632322D343644302D413938332D3331353338454246344243312F617474726962757465732E62696E504B01021400140006080800CC70623B08DA0BD190000000410100003600000000000000000000000000290F00006662782F39464131463745442D413632
310
322D343644302D413938332D3331353338454246344243312F6469726563746F72792E786D6C504B01021400140006080800CC70623B0D6EF93BFE000000A00100003B000000000000000000000000000D1000006662782F39464131463745442D413632322D343644302D413938332D3331353338454246344243312F7265
310
736F75726365732F636F72652E786D6C504B0506000000000E000E0080040000641100000000
  0
XRECORD
  5
175
102
{ACAD_REACTORS
330
173
102
}
330
173
100
AcDbXrecord
280
     1
270
     1
271
     1
  0
XRECORD
  5
174
102
{ACAD_REACTORS
330
173
102
}
330
173
100
AcDbXrecord
280
     1
270
     1
271
     1
  0
XRECORD
  5
1FB
102
{ACAD_REACTORS
330
173
102
}
330
173
100
AcDbXrecord
280
     1
 70
     0
 90
1673772943
  1
ECE7A1D2-D628-4531-984C-D00F80459256
310
504B03040A0000080000CC70623B3DEE336E79000000790000001B0000006175746F6465736B2D64657369676E2D7061636B6167652E786D6C3C3F786D6C2076657273696F6E3D22312E302220656E636F64696E673D227574662D3822203F3E3C666F726D6174733E3C666F726D61743E687474703A2F2F736368656D612E
310
6175746F6465736B2E636F6D2F64657369676E2D7061636B6167652F323030393C2F666F726D61743E3C2F666F726D6174733E504B0304140006080800CC70623BD486FD9CA0000000F4000000130000005B436F6E74656E745F54797065735D2E786D6C7D8EC10E82300C865F65E91D8A1E8C310C0EEA1BF002731658846E
310
D98AC1B77784ABF1D8FE5FBFBF75BBCE937A534CCEB38643598122B6FEE978D0B0485F9C41B54DDD7D022595594E1A469170414C76A4D9A4D207E29CF43ECE46F218070CC6BECC4078ACAA135ACF422C856C0E68EA1BF5669944DDD7BCDE7B1F8E415D77AECB980613C2E4AC91FC167A2B244592486606FC29C8FD7F045B9A
310
EF7053A7E60B504B0304140006080800CC70623BD9DDAED0EC0000007C01000008000000636F72652E786D6C8D90416EC3201045AF82665B61836D9CD8C2444DD39CA01740405C94182C03558F5F9C3852BBEB6A467FFE9B197D7EF89E6EE8CB2CC17A37002D0820E394D7D68D03A478C17B4007C117EFE32F1B20272733C0
310
2A83E0E3E2D3BC49CABB685CCCAAF3DA6CA20CC14440EA969B0182FA34932C648AD911AEC52CD5558EA6A0CF2EC329598D1E47ACCEFBECC59A050463A7EA5833865FEBDD0E37353BE3EE8DBDE3F6786A48D375FBF6CC78B9C282473B3DEFABC5C86834888A900E538A49F5419B9EB47DD5BC907D4F082F57FB1F28CDFA9F50
310
B22ED6D5F6EE030B20687EE43E10BC5CB3C8E51E54AE6B6EE207504B0304140006080800CC70623B55019EA25F0000007C00000007000000636E782E786D6C4DCB3B0E80201045D1AD90E915ED2CF8AC45050C11660C8261F98AB1B07AC9C97D42D718D865D3E909258CFD00CCE24AC6E326A164D74DC0B4128928FF326038
310
472BA13128B1252AC747C6BAB984FC68F0B87FE8960A5C09FE86CFB69FBA01504B0304140006080800CC70623BA24EB22D72010000D40300000C0000006662782F636F72652E786D6CC5535B6E833010BC8AE5DF0A6C5E49888CA3A6694ED00B38E05014B091B1518EDFE511A5A9D228FD2A1F60CDEC7A67C6986DCE4D8D7A
310
69BA4AAB0C073EC548AA5C17952A33ECECD15B61B4E1CC686DBF9561A44423333CC098B3D268D7CE50AE9595CA02AA74216750749DB418E5352C32DCE59FB211BE70162ABA93DF8AFC244AE9073ED050C759670D0840D390E18DF9F1706664C23973AE2A66B62A605A75ACA4C13C4976E1364A12EF355A2EBD384AF65EFA96
310
BC7B8BED2EA6719AAE16FB8491A199335B351775B991C2CA02F390D2D40B028F861F41BCA68B7518BFD0D59A524686F29B26D7164F36B94AD9289CE54E6D1DE6010819891F6E21228B3AD1831EC219194284CF98F06DD01008846CC5A1BEF83801D4CBDC6A1303536877A57A513B0953A94FC707FDBE6064EA84A9E3E6E0FA
310
EE8CF0E9198F7784A316AA0413C2C2F2E0ECA0934D1AE6D05A69BCDE9E91D2A611F573361E38FC1375157F5752AE6B6DFE4B11990F88CCBF0719EE23FF02504B0304140006080800CC70623B408A7D3B7C0000009D0000000B0000006662782F636E782E786D6C4DCCD10A83201886E15B91FFDC552A92A0064DBC8F581632
310
D3703A76F9ABD1C18E3E78F878E5F0D9027ABBFCF2292AE86E2D20171F69F6715550CB827B40839639A5F2770314A7CD293819B45C73AAFB45B35BA61ACAA1C1C7E7855C58C15BC331339661262CC762340413D68D77DA5B42298546CBE6573AF60CEB2F504B0304140006080800CC70623B449FB9BD290100001202000031
310
0000006662782F36394639363044362D344446342D343946362D394244322D3234314243333846323333332F636F72652E786D6C8D515B6EC32010BC0AE22B55850D98B871848994463E412FE002495162B07854397EA176A4F62F3F2C9A9D991D587EB84F37F0AD7D30CEF6905418026DA553C65E7A98E219ED203808EE9D
310
8B7F6810D871D23D2C3014FCE25D9A57483A1BB58D19B54EE9151C43D0110279CB971E06F9A5A7B11A53CC8C70ADE6515EC78BAE4895DB992778883E0700CB907242D17643D7E2538BD869608875438BBAE38922CAC8F1BDD90DB4691A5E2F42C153326A951B95E398B3D1FE599322163C9AE9115F7A3D46ADA0A018778810
310
84E907617BDCEE297BC5BB3DC6BC2EF47FA234AB2745C9D8D8D035EE220B50105E2F0DC1954B9FB747187D9F9D8FA0CCDB042D5FA0C015C65B42DF78BD10F3F3B363CB56C7109DCFDFBBB97E662ED92EB62D13BC2E1BCAE5777DB9966D8A1F504B0304140006080800CC70623BAD7543B64E01000033030000300000006662
310
782F36394639363044362D344446342D343946362D394244322D3234314243333846323333332F636E782E786D6CD593CD6EC32010845F0571AD6CE3D48AD20813A9873E410FBD12D82434182C7EAAE6EDBB2424CD25871E7B41D6EC30B3FA84F9E67BB2E40B4234DE8DB46F1925E094D7C6ED479AD3AE5951B2113C789FEE
310
6C943839C1488B4C05DF079FE72A69D8C96C13AAD6B8631503449F83828872B949AC57D26200B826A308D316B4064D6E46FCDA41C05550DC9E483A00797BFD207EFB092A45DE9514C1BBD22178396BD39D891265658C238DEA00936C654E5E433CB65A26D9F6EDB5EBC14EBF49A45CB856E66048291F6939A9A81BB5C89177
310
38143CA680F4AA299D66A042CEB3354A2684DC9D8D178FE0D9B8B41CAAD720F880EE7EF93C0C18769E099ECC04D5A102C8049A8A05632F4DDF376CF1DE0F6BB65C2F8627B65A33C6BB62177CEBBDAD973006829F89F22E814B54F4BC2BE347F8AA8F681390B50FA73F804400B5F542E796F19FF974E7F78DB802FE05E20750
310
4B0304140006080800CC70623B8D05915C650500003B100000340000006662782F36394639363044362D344446342D343946362D394244322D3234314243333846323333332F6F626A656374732E786D6CAD575B6FA33814FE2B887D06429276DA1565D4266D158D3A339A6846FB502932E050B66023DB74D2FDF5FB190C01
310
9276B2973C046C8ECFF53B17071F77456EBD502133CEAE6CDF9DD81665314F32965ED995DA3A17B6F5310C04E7AA47665B8C14F4CAD6DB7618A48257A5D94AE89654B91AEDDEDDFC61C998326A5B714EA4BCB265FC440BE2924AF184CA6737218AB8E976E7FA6E4338649B0A523E8D98964450A6A029F619B8588D52FE7039
310
B1BD30F0F4F730D0FF866AF6369557DB33949F31A9088B0F848DD8CCFCF9F2767A76E99CCDE733677E3EF59D9BBB9BA5E37F984D16E78BC5E5F5ED25044B25C0C96822E8D60EEFE11B91C581D77CEA34368A1F5329E68CD1B8B61F16D63A1B8E092D294B10C78C4A48EB593D192E7DED9BDEE7995E1B91FDEDD3ACEA9FE831
310
6A756F9F7D4D79F4274C90A7A04248AA51D5F8C718DAE06FB2F75AC4796EBE65D22A88A22223B995679120E2D50E41AA49C260C046A35368846B0BECD0DFF3EBEB8AD4F835768F69B9ADF25C43D30E6B646F807FAA64AD59F61715C7A54127C4AACA98BA3006A9D792DAE165E0D59B61A01FB3A9F9D838D2DAE62445C86166
310
F37564E842E7DE6A69879FEEA2DD5AE7E371E1A5E025154AC307D06A03D73EB5978C58FFA4C8E9033066E0F3BD53BEC1F39F91BE7B55103791EDE6BBB991A2046172CB4581D8B893FA674DDA17A77B3B7C413D1B511FD2743BFF8A38F03A658705E3ADF8015C3A3417FF3D7E439FF591DA0B5F18BC20C1B8981957AE6392A3
310
F43C640C01D1A0B4728E2DD4F26DB4B3C3152A252A3B4E913CEC1C72F012782FF88EFF8637AA552DBEF76408E8A8DE9E50F9E1CB3A2DA0DB1B6039A893B56063DC5B3E3FFB5F72E67AB9FEB4AEC496C4F4C1149625DD662C53E89D7BF0F6151A046260D1337DFDC94502430F83B0EE07A130A224BCAD7DAE1D9FB6CD422FF6
310
920702629C4BB9AE79C12F243C6432A6794E18E5552BA56B431AAB5D91317302B2B071E86C3A42B1A02F999E24061403B5D0EB639195DA655DD3EBEAB4FB862DDF579F014AD0E73C22F99E28DA57FB98E75C6CA2D74D53086D600F4786E0FE3144B771A8A7B900F03594DB8A633CBC49B2EDB69228BB479CF863B5E807AAAB
310
23872F6DFEB4129B949CA33823F58830E86D65621E10047D9DB34D862E8EAC3C2ABC2F7B2C40D67CDFE01F5545B92105AF983AC54D93D69E56FB8E797F88913F898A9FEC705D3F9D1B54EC8426FB500D40A03BD0119B06E1B95DDC7EB8F6975367793EBD70E66733DFB9BC982F9CE564727731999F5D4ECFCE3B8D6A4DC2A0
310
6D50FD148437D110834A64C6CDDF57FBACB5C307A2A477DFE4939736CFEF2B175371E0E10CF0DD1D5C15654E0BCA14D1E87DD02FF93782A162C0A3D95F1524A52770F972BF1EE9809D13CE7DD599467F8ECE9ADD85CE85A34CD45355448C64F9E8A031DC2D596ACC6E5DD93D9B82DE2EF5CAF81363A8E47996A0DE24564A79
310
4115AACE09C55E14540231FDA13C319787134EBF34E3A022514E5B4D9E0826E25C02D5805B15ABE1BEF51B26383D445DD9E875EE33FE4C22DA16427D65A3BCA92CA6D28DD01DF5DC53330704308475351050232CCD31583787BA75774AFB06E5070DD0C8EF484E19968C5D83BA5B90B244D31E54D55A372320FE4786B7EA58
310
44E135AA5467CB7EA333A61683CC6A8C3257034C10CF46F40EF9F5BE59BE5BD30C3C72D235E95D10345C1D45445A5F0BB47E46A5EBE5570F9380B5FA629579952296A773720405982B9DE04011506178964401AA8BDF1FBF0A8EAB6861DD6580C0E38217056766716DAEB2D6FA0917D3E4116581EADB879C4E7CFFB11EFACD
310
3D641311495D92C8676CB409A72D18610D803CE8A626049E8EC1887CB5B44CC39883690DDA8399B4B9855B481E7D71D4A9D22F96E5BB73BF5793020C02137BF837504B0304140006080000CC70623B000000000000000000000000350000006662782F36394639363044362D344446342D343946362D394244322D32343142
310
43333846323333332F76657274696365732E62696E504B0304140006080800CC70623BF270F1330600000004000000360000006662782F36394639363044362D344446342D343946362D394244322D3234314243333846323333332F747269616E676C65732E62696E636660600000504B0304140006080000CC70623B0000
310
00000000000000000000370000006662782F36394639363044362D344446342D343946362D394244322D3234314243333846323333332F617474726962757465732E62696E504B0304140006080800CC70623B08DA0BD19000000041010000360000006662782F36394639363044362D344446342D343946362D394244322D
310
3234314243333846323333332F6469726563746F72792E786D6C858F410AC3201045AF22B36F53E9A60B35CBEEBAE80D244E44489C6234F4F835464A48035D0DF398FF9F8AF63D0E6CC63039F212F8F9020C7D47C6792B21C5FE7403D62A1188E2E60C98D7234A5830286103A55745067B9D86B8A3CF9C7F90C11DE607FB14
310
4396D7B6A82D282E9A152AD114D5EF2CB866EEE831B8EEA07A7BB5A8D7D61A2BAAEB7FD5F70921FF497D00504B0304140006080800CC70623BCA768048FE000000A00100003B0000006662782F36394639363044362D344446342D343946362D394244322D3234314243333846323333332F7265736F75726365732F636F72
310
652E786D6C8D50596E833010BD0A9ADFCA60D600328E9AA639412F609909B1126CE4A5EAF16B0295DABFFECC8CDEA2797AECF8353F924FB44E193D409E5248504B332A3D0D10FC95B4901C39B3C6F85F3248B49871801506CE266BC2B243D2688FDA47549B11775038871E12F988C7004EDE7016A9083E2ADC3D5D84BC8B09
310
D33C8D74D471E6BC8D0192EDC93A815B742658898E651BCB59086ADC356A8C3FD555A1055ED7E7E254D615792D0F075295F585746FF53B694EE78A565DD736979A65AB9933AFE69F8CD2A2F038022F28ED489E135A7CE4554F9BBEA85E68DB53CAB255FEC71496F19FA6A0B42F8B3DEE6673C0F318E4497096AD7DC5F52C33
310
EEB55BFE0D504B010214000A0000080000CC70623B3DEE336E79000000790000001B00000000000000000000000000000000006175746F6465736B2D64657369676E2D7061636B6167652E786D6C504B01021400140006080800CC70623BD486FD9CA0000000F40000001300000000000000000000000000B20000005B436F
310
6E74656E745F54797065735D2E786D6C504B01021400140006080800CC70623BD9DDAED0EC0000007C010000080000000000000000000000000083010000636F72652E786D6C504B01021400140006080800CC70623B55019EA25F0000007C000000070000000000000000000000000095020000636E782E786D6C504B0102
310
1400140006080800CC70623BA24EB22D72010000D40300000C00000000000000000000000000190300006662782F636F72652E786D6C504B01021400140006080800CC70623B408A7D3B7C0000009D0000000B00000000000000000000000000B50400006662782F636E782E786D6C504B01021400140006080800CC70623B
310
449FB9BD290100001202000031000000000000000000000000005A0500006662782F36394639363044362D344446342D343946362D394244322D3234314243333846323333332F636F72652E786D6C504B01021400140006080800CC70623BAD7543B64E010000330300003000000000000000000000000000D20600006662
310
782F36394639363044362D344446342D343946362D394244322D3234314243333846323333332F636E782E786D6C504B01021400140006080800CC70623B8D05915C650500003B10000034000000000000000000000000006E0800006662782F36394639363044362D344446342D343946362D394244322D32343142433338
310
46323333332F6F626A656374732E786D6C504B01021400140006080000CC70623B0000000000000000000000003500000000000000000000000000250E00006662782F36394639363044362D344446342D343946362D394244322D3234314243333846323333332F76657274696365732E62696E504B010214001400060808
310
00CC70623BF270F13306000000040000003600000000000000000000000000780E00006662782F36394639363044362D344446342D343946362D394244322D3234314243333846323333332F747269616E676C65732E62696E504B01021400140006080000CC70623B00000000000000000000000037000000000000000000
310
00000000D20E00006662782F36394639363044362D344446342D343946362D394244322D3234314243333846323333332F617474726962757465732E62696E504B01021400140006080800CC70623B08DA0BD190000000410100003600000000000000000000000000270F00006662782F36394639363044362D344446342D
310
343946362D394244322D3234314243333846323333332F6469726563746F72792E786D6C504B01021400140006080800CC70623BCA768048FE000000A00100003B000000000000000000000000000B1000006662782F36394639363044362D344446342D343946362D394244322D3234314243333846323333332F7265736F
310
75726365732F636F72652E786D6C504B0506000000000E000E0080040000621100000000
  0
XRECORD
  5
176
102
{ACAD_REACTORS
330
173
102
}
330
173
100
AcDbXrecord
280
     1
270
     1
271
     1
  0
XRECORD
  5
177
102
{ACAD_REACTORS
330
173
102
}
330
173
100
AcDbXrecord
280
     1
270
     1
271
     1
  0
CELLSTYLEMAP
  5
55C4
102
{ACAD_REACTORS
330
162
102
}
330
162
100
AcDbCellStyleMap
 90
        3
300
CELLSTYLE
  1
TABLEFORMAT_BEGIN
 90
        5
170
     1
 91
        0
 92
    32768
 62
   257
 93
        1
300
CONTENTFORMAT
  1
CONTENTFORMAT_BEGIN
 90
        0
 91
        0
 92
      512
 93
        0
300

 40
0.0
140
1.0
 94
        5
 62
     0
340
11
144
6.0
309
CONTENTFORMAT_END
171
     1
301
MARGIN
  1
CELLMARGIN_BEGIN
 40
1.5
 40
1.5
 40
1.5
 40
1.5
 40
4.5
 40
4.5
309
CELLMARGIN_END
 94
        6
 95
        1
302
GRIDFORMAT
  1
GRIDFORMAT_BEGIN
 90
        0
 91
        1
 62
     0
 92
       -2
340
14
 93
        0
 40
1.125
309
GRIDFORMAT_END
 95
        2
302
GRIDFORMAT
  1
GRIDFORMAT_BEGIN
 90
        0
 91
        1
 62
     0
 92
       -2
340
14
 93
        0
 40
1.125
309
GRIDFORMAT_END
 95
        4
302
GRIDFORMAT
  1
GRIDFORMAT_BEGIN
 90
        0
 91
        1
 62
     0
 92
       -2
340
14
 93
        0
 40
1.125
309
GRIDFORMAT_END
 95
        8
302
GRIDFORMAT
  1
GRIDFORMAT_BEGIN
 90
        0
 91
        1
 62
     0
 92
       -2
340
14
 93
        0
 40
1.125
309
GRIDFORMAT_END
 95
       16
302
GRIDFORMAT
  1
GRIDFORMAT_BEGIN
 90
        0
 91
        1
 62
     0
 92
       -2
340
14
 93
        0
 40
1.125
309
GRIDFORMAT_END
 95
       32
302
GRIDFORMAT
  1
GRIDFORMAT_BEGIN
 90
        0
 91
        1
 62
     0
 92
       -2
340
14
 93
        0
 40
1.125
309
GRIDFORMAT_END
309
TABLEFORMAT_END
  1
CELLSTYLE_BEGIN
 90
        1
 91
        1
300
_TITLE
309
CELLSTYLE_END
300
CELLSTYLE
  1
TABLEFORMAT_BEGIN
 90
        5
170
     1
 91
        0
 92
        0
 62
   257
 93
        1
300
CONTENTFORMAT
  1
CONTENTFORMAT_BEGIN
 90
        0
 91
        0
 92
      512
 93
        0
300

 40
0.0
140
1.0
 94
        5
 62
     0
340
11
144
4.5
309
CONTENTFORMAT_END
171
     1
301
MARGIN
  1
CELLMARGIN_BEGIN
 40
1.5
 40
1.5
 40
1.5
 40
1.5
 40
4.5
 40
4.5
309
CELLMARGIN_END
 94
        6
 95
        1
302
GRIDFORMAT
  1
GRIDFORMAT_BEGIN
 90
        0
 91
        1
 62
     0
 92
       -2
340
14
 93
        0
 40
1.125
309
GRIDFORMAT_END
 95
        2
302
GRIDFORMAT
  1
GRIDFORMAT_BEGIN
 90
        0
 91
        1
 62
     0
 92
       -2
340
14
 93
        0
 40
1.125
309
GRIDFORMAT_END
 95
        4
302
GRIDFORMAT
  1
GRIDFORMAT_BEGIN
 90
        0
 91
        1
 62
     0
 92
       -2
340
14
 93
        0
 40
1.125
309
GRIDFORMAT_END
 95
        8
302
GRIDFORMAT
  1
GRIDFORMAT_BEGIN
 90
        0
 91
        1
 62
     0
 92
       -2
340
14
 93
        0
 40
1.125
309
GRIDFORMAT_END
 95
       16
302
GRIDFORMAT
  1
GRIDFORMAT_BEGIN
 90
        0
 91
        1
 62
     0
 92
       -2
340
14
 93
        0
 40
1.125
309
GRIDFORMAT_END
 95
       32
302
GRIDFORMAT
  1
GRIDFORMAT_BEGIN
 90
        0
 91
        1
 62
     0
 92
       -2
340
14
 93
        0
 40
1.125
309
GRIDFORMAT_END
309
TABLEFORMAT_END
  1
CELLSTYLE_BEGIN
 90
        2
 91
        1
300
_HEADER
309
CELLSTYLE_END
300
CELLSTYLE
  1
TABLEFORMAT_BEGIN
 90
        5
170
     1
 91
        0
 92
        0
 62
   257
 93
        1
300
CONTENTFORMAT
  1
CONTENTFORMAT_BEGIN
 90
        0
 91
        0
 92
      512
 93
        0
300

 40
0.0
140
1.0
 94
        2
 62
     0
340
11
144
4.5
309
CONTENTFORMAT_END
171
     1
301
MARGIN
  1
CELLMARGIN_BEGIN
 40
1.5
 40
1.5
 40
1.5
 40
1.5
 40
4.5
 40
4.5
309
CELLMARGIN_END
 94
        6
 95
        1
302
GRIDFORMAT
  1
GRIDFORMAT_BEGIN
 90
        0
 91
        1
 62
     0
 92
       -2
340
14
 93
        0
 40
1.125
309
GRIDFORMAT_END
 95
        2
302
GRIDFORMAT
  1
GRIDFORMAT_BEGIN
 90
        0
 91
        1
 62
     0
 92
       -2
340
14
 93
        0
 40
1.125
309
GRIDFORMAT_END
 95
        4
302
GRIDFORMAT
  1
GRIDFORMAT_BEGIN
 90
        0
 91
        1
 62
     0
 92
       -2
340
14
 93
        0
 40
1.125
309
GRIDFORMAT_END
 95
        8
302
GRIDFORMAT
  1
GRIDFORMAT_BEGIN
 90
        0
 91
        1
 62
     0
 92
       -2
340
14
 93
        0
 40
1.125
309
GRIDFORMAT_END
 95
       16
302
GRIDFORMAT
  1
GRIDFORMAT_BEGIN
 90
        0
 91
        1
 62
     0
 92
       -2
340
14
 93
        0
 40
1.125
309
GRIDFORMAT_END
 95
       32
302
GRIDFORMAT
  1
GRIDFORMAT_BEGIN
 90
        0
 91
        1
 62
     0
 92
       -2
340
14
 93
        0
 40
1.125
309
GRIDFORMAT_END
309
TABLEFORMAT_END
  1
CELLSTYLE_BEGIN
 90
        3
 91
        2
300
_DATA
309
CELLSTYLE_END
  0
XRECORD
  5
55D9
102
{ACAD_REACTORS
330
55D8
102
}
330
55D8
100
AcDbXrecord
280
     1
102
RTVSPost2010Prop28
280
     1
102
RTVSPost2010PropOp28
 70
     1
102
RTVSPost2010Prop29
280
     1
102
RTVSPost2010PropOp29
 70
     1
102
RTVSPost2010Prop30
280
     0
102
RTVSPost2010PropOp30
 70
     1
102
RTVSPost2010Prop31
280
     0
102
RTVSPost2010PropOp31
 70
     1
102
RTVSPost2010Prop32
280
     0
102
RTVSPost2010PropOp32
 70
     1
102
RTVSPost2010Prop33
280
     0
102
RTVSPost2010PropOp33
 70
     1
102
RTVSPost2010Prop34
280
     0
102
RTVSPost2010PropOp34
 70
     1
102
RTVSPost2010Prop35
280
     0
102
RTVSPost2010PropOp35
 70
     1
102
RTVSPost2010Prop36
280
     0
102
RTVSPost2010PropOp36
 70
     1
102
RTVSPost2010Prop37
 90
       50
102
RTVSPost2010PropOp37
 70
     1
102
RTVSPost2010Prop38
140
0.0
102
RTVSPost2010PropOp38
 70
     1
102
RTVSPost2010Prop39
140
1.0
102
RTVSPost2010PropOp39
 70
     1
102
RTVSPost2010Prop40
 90
        0
102
RTVSPost2010PropOp40
 70
     1
102
RTVSPost2010Prop41ColorIndex
 90
       18
102
RTVSPost2010Prop41ColorRGB
 90
        0
102
RTVSPost2010PropOp41
 70
     1
102
RTVSPost2010Prop42
 90
       50
102
RTVSPost2010PropOp42
 70
     1
102
RTVSPost2010Prop43
 90
        3
102
RTVSPost2010PropOp43
 70
     1
102
RTVSPost2010Prop44ColorIndex
 90
        5
102
RTVSPost2010Prop44ColorRGB
 90
      255
102
RTVSPost2010PropOp44
 70
     1
102
RTVSPost2010Prop45
280
     0
102
RTVSPost2010PropOp45
 70
     1
102
RTVSPost2010Prop46
 90
       50
102
RTVSPost2010PropOp46
 70
     1
102
RTVSPost2010Prop47
 90
       50
102
RTVSPost2010PropOp47
 70
     1
102
RTVSPost2010Prop48
 90
       50
102
RTVSPost2010PropOp48
 70
     1
102
RTVSPost2010Prop49
280
     0
102
RTVSPost2010PropOp49
 70
     1
102
RTVSPost2010Prop50
 90
       50
102
RTVSPost2010PropOp50
 70
     1
102
RTVSPost2010Prop51ColorIndex
 90
      256
102
RTVSPost2010Prop51ColorRGB
 90
-16777216
102
RTVSPost2010PropOp51
 70
     0
102
RTVSPost2010Prop52
140
1.0
102
RTVSPost2010PropOp52
 70
     0
102
RTVSPost2010Prop53
 90
        2
102
RTVSPost2010PropOp53
 70
     1
102
RTVSPost2010Prop54
  1
strokes_ogs.tif
102
RTVSPost2010PropOp54
 70
     1
102
RTVSPost2010Prop55
280
     0
102
RTVSPost2010PropOp55
 70
     1
102
RTVSPost2010Prop56
140
1.0
102
RTVSPost2010PropOp56
 70
     1
102
RTVSPost2010Prop57
140
1.0
102
RTVSPost2010PropOp57
 70
     1
  0
XRECORD
  5
5601
102
{ACAD_REACTORS
330
5600
102
}
330
5600
100
AcDbXrecord
280
     1
102
RTVSPost2010Prop28
280
     0
102
RTVSPost2010PropOp28
 70
     1
102
RTVSPost2010Prop29
280
     1
102
RTVSPost2010PropOp29
 70
     1
102
RTVSPost2010Prop30
280
     1
102
RTVSPost2010PropOp30
 70
     1
102
RTVSPost2010Prop31
280
     0
102
RTVSPost2010PropOp31
 70
     1
102
RTVSPost2010Prop32
280
     0
102
RTVSPost2010PropOp32
 70
     1
102
RTVSPost2010Prop33
280
     0
102
RTVSPost2010PropOp33
 70
     1
102
RTVSPost2010Prop34
280
     0
102
RTVSPost2010PropOp34
 70
     1
102
RTVSPost2010Prop35
280
     0
102
RTVSPost2010PropOp35
 70
     1
102
RTVSPost2010Prop36
280
     0
102
RTVSPost2010PropOp36
 70
     1
102
RTVSPost2010Prop37
 90
       50
102
RTVSPost2010PropOp37
 70
     1
102
RTVSPost2010Prop38
140
0.0
102
RTVSPost2010PropOp38
 70
     1
102
RTVSPost2010Prop39
140
1.0
102
RTVSPost2010PropOp39
 70
     1
102
RTVSPost2010Prop40
 90
        0
102
RTVSPost2010PropOp40
 70
     1
102
RTVSPost2010Prop41ColorIndex
 90
       18
102
RTVSPost2010Prop41ColorRGB
 90
        0
102
RTVSPost2010PropOp41
 70
     1
102
RTVSPost2010Prop42
 90
       50
102
RTVSPost2010PropOp42
 70
     1
102
RTVSPost2010Prop43
 90
        3
102
RTVSPost2010PropOp43
 70
     1
102
RTVSPost2010Prop44ColorIndex
 90
        5
102
RTVSPost2010Prop44ColorRGB
 90
      255
102
RTVSPost2010PropOp44
 70
     1
102
RTVSPost2010Prop45
280
     0
102
RTVSPost2010PropOp45
 70
     1
102
RTVSPost2010Prop46
 90
       50
102
RTVSPost2010PropOp46
 70
     1
102
RTVSPost2010Prop47
 90
       50
102
RTVSPost2010PropOp47
 70
     1
102
RTVSPost2010Prop48
 90
       50
102
RTVSPost2010PropOp48
 70
     1
102
RTVSPost2010Prop49
280
     0
102
RTVSPost2010PropOp49
 70
     1
102
RTVSPost2010Prop50
 90
       50
102
RTVSPost2010PropOp50
 70
     1
102
RTVSPost2010Prop51ColorIndex
 90
      256
102
RTVSPost2010Prop51ColorRGB
 90
-16777216
102
RTVSPost2010PropOp51
 70
     0
102
RTVSPost2010Prop52
140
1.0
102
RTVSPost2010PropOp52
 70
     0
102
RTVSPost2010Prop53
 90
        2
102
RTVSPost2010PropOp53
 70
     1
102
RTVSPost2010Prop54
  1
strokes_ogs.tif
102
RTVSPost2010PropOp54
 70
     1
102
RTVSPost2010Prop55
280
     0
102
RTVSPost2010PropOp55
 70
     1
102
RTVSPost2010Prop56
140
1.0
102
RTVSPost2010PropOp56
 70
     1
102
RTVSPost2010Prop57
140
1.0
102
RTVSPost2010PropOp57
 70
     1
  0
XRECORD
  5
55FF
102
{ACAD_REACTORS
330
55FE
102
}
330
55FE
100
AcDbXrecord
280
     1
102
RTVSPost2010Prop28
280
     0
102
RTVSPost2010PropOp28
 70
     1
102
RTVSPost2010Prop29
280
     1
102
RTVSPost2010PropOp29
 70
     1
102
RTVSPost2010Prop30
280
     1
102
RTVSPost2010PropOp30
 70
     1
102
RTVSPost2010Prop31
280
     0
102
RTVSPost2010PropOp31
 70
     1
102
RTVSPost2010Prop32
280
     0
102
RTVSPost2010PropOp32
 70
     1
102
RTVSPost2010Prop33
280
     0
102
RTVSPost2010PropOp33
 70
     1
102
RTVSPost2010Prop34
280
     0
102
RTVSPost2010PropOp34
 70
     1
102
RTVSPost2010Prop35
280
     0
102
RTVSPost2010PropOp35
 70
     1
102
RTVSPost2010Prop36
280
     0
102
RTVSPost2010PropOp36
 70
     1
102
RTVSPost2010Prop37
 90
       50
102
RTVSPost2010PropOp37
 70
     1
102
RTVSPost2010Prop38
140
0.0
102
RTVSPost2010PropOp38
 70
     1
102
RTVSPost2010Prop39
140
1.0
102
RTVSPost2010PropOp39
 70
     1
102
RTVSPost2010Prop40
 90
        0
102
RTVSPost2010PropOp40
 70
     1
102
RTVSPost2010Prop41ColorIndex
 90
       18
102
RTVSPost2010Prop41ColorRGB
 90
        0
102
RTVSPost2010PropOp41
 70
     1
102
RTVSPost2010Prop42
 90
       50
102
RTVSPost2010PropOp42
 70
     1
102
RTVSPost2010Prop43
 90
        3
102
RTVSPost2010PropOp43
 70
     1
102
RTVSPost2010Prop44ColorIndex
 90
        5
102
RTVSPost2010Prop44ColorRGB
 90
      255
102
RTVSPost2010PropOp44
 70
     1
102
RTVSPost2010Prop45
280
     0
102
RTVSPost2010PropOp45
 70
     1
102
RTVSPost2010Prop46
 90
       50
102
RTVSPost2010PropOp46
 70
     1
102
RTVSPost2010Prop47
 90
       50
102
RTVSPost2010PropOp47
 70
     1
102
RTVSPost2010Prop48
 90
       50
102
RTVSPost2010PropOp48
 70
     1
102
RTVSPost2010Prop49
280
     0
102
RTVSPost2010PropOp49
 70
     1
102
RTVSPost2010Prop50
 90
       50
102
RTVSPost2010PropOp50
 70
     1
102
RTVSPost2010Prop51ColorIndex
 90
      256
102
RTVSPost2010Prop51ColorRGB
 90
-16777216
102
RTVSPost2010PropOp51
 70
     0
102
RTVSPost2010Prop52
140
1.0
102
RTVSPost2010PropOp52
 70
     0
102
RTVSPost2010Prop53
 90
        2
102
RTVSPost2010PropOp53
 70
     1
102
RTVSPost2010Prop54
  1
strokes_ogs.tif
102
RTVSPost2010PropOp54
 70
     1
102
RTVSPost2010Prop55
280
     0
102
RTVSPost2010PropOp55
 70
     1
102
RTVSPost2010Prop56
140
1.0
102
RTVSPost2010PropOp56
 70
     1
102
RTVSPost2010Prop57
140
1.0
102
RTVSPost2010PropOp57
 70
     1
  0
XRECORD
  5
55D7
102
{ACAD_REACTORS
330
55D6
102
}
330
55D6
100
AcDbXrecord
280
     1
102
RTVSPost2010Prop28
280
     0
102
RTVSPost2010PropOp28
 70
     1
102
RTVSPost2010Prop29
280
     1
102
RTVSPost2010PropOp29
 70
     1
102
RTVSPost2010Prop30
280
     1
102
RTVSPost2010PropOp30
 70
     1
102
RTVSPost2010Prop31
280
     0
102
RTVSPost2010PropOp31
 70
     1
102
RTVSPost2010Prop32
280
     0
102
RTVSPost2010PropOp32
 70
     1
102
RTVSPost2010Prop33
280
     0
102
RTVSPost2010PropOp33
 70
     1
102
RTVSPost2010Prop34
280
     0
102
RTVSPost2010PropOp34
 70
     1
102
RTVSPost2010Prop35
280
     0
102
RTVSPost2010PropOp35
 70
     1
102
RTVSPost2010Prop36
280
     0
102
RTVSPost2010PropOp36
 70
     1
102
RTVSPost2010Prop37
 90
       50
102
RTVSPost2010PropOp37
 70
     1
102
RTVSPost2010Prop38
140
0.0
102
RTVSPost2010PropOp38
 70
     1
102
RTVSPost2010Prop39
140
1.0
102
RTVSPost2010PropOp39
 70
     1
102
RTVSPost2010Prop40
 90
        0
102
RTVSPost2010PropOp40
 70
     1
102
RTVSPost2010Prop41ColorIndex
 90
       18
102
RTVSPost2010Prop41ColorRGB
 90
        0
102
RTVSPost2010PropOp41
 70
     1
102
RTVSPost2010Prop42
 90
       50
102
RTVSPost2010PropOp42
 70
     1
102
RTVSPost2010Prop43
 90
        3
102
RTVSPost2010PropOp43
 70
     1
102
RTVSPost2010Prop44ColorIndex
 90
        5
102
RTVSPost2010Prop44ColorRGB
 90
      255
102
RTVSPost2010PropOp44
 70
     1
102
RTVSPost2010Prop45
280
     0
102
RTVSPost2010PropOp45
 70
     1
102
RTVSPost2010Prop46
 90
       50
102
RTVSPost2010PropOp46
 70
     1
102
RTVSPost2010Prop47
 90
       50
102
RTVSPost2010PropOp47
 70
     1
102
RTVSPost2010Prop48
 90
       50
102
RTVSPost2010PropOp48
 70
     1
102
RTVSPost2010Prop49
280
     0
102
RTVSPost2010PropOp49
 70
     1
102
RTVSPost2010Prop50
 90
       50
102
RTVSPost2010PropOp50
 70
     1
102
RTVSPost2010Prop51ColorIndex
 90
      256
102
RTVSPost2010Prop51ColorRGB
 90
-16777216
102
RTVSPost2010PropOp51
 70
     0
102
RTVSPost2010Prop52
140
1.0
102
RTVSPost2010PropOp52
 70
     0
102
RTVSPost2010Prop53
 90
        2
102
RTVSPost2010PropOp53
 70
     1
102
RTVSPost2010Prop54
  1
strokes_ogs.tif
102
RTVSPost2010PropOp54
 70
     1
102
RTVSPost2010Prop55
280
     0
102
RTVSPost2010PropOp55
 70
     1
102
RTVSPost2010Prop56
140
1.0
102
RTVSPost2010PropOp56
 70
     1
102
RTVSPost2010Prop57
140
1.0
102
RTVSPost2010PropOp57
 70
     1
  0
XRECORD
  5
55E5
102
{ACAD_REACTORS
330
55E4
102
}
330
55E4
100
AcDbXrecord
280
     1
102
RTVSPost2010Prop28
280
     0
102
RTVSPost2010PropOp28
 70
     1
102
RTVSPost2010Prop29
280
     1
102
RTVSPost2010PropOp29
 70
     1
102
RTVSPost2010Prop30
280
     1
102
RTVSPost2010PropOp30
 70
     1
102
RTVSPost2010Prop31
280
     0
102
RTVSPost2010PropOp31
 70
     1
102
RTVSPost2010Prop32
280
     0
102
RTVSPost2010PropOp32
 70
     1
102
RTVSPost2010Prop33
280
     0
102
RTVSPost2010PropOp33
 70
     1
102
RTVSPost2010Prop34
280
     0
102
RTVSPost2010PropOp34
 70
     1
102
RTVSPost2010Prop35
280
     0
102
RTVSPost2010PropOp35
 70
     1
102
RTVSPost2010Prop36
280
     0
102
RTVSPost2010PropOp36
 70
     1
102
RTVSPost2010Prop37
 90
       50
102
RTVSPost2010PropOp37
 70
     1
102
RTVSPost2010Prop38
140
0.0
102
RTVSPost2010PropOp38
 70
     1
102
RTVSPost2010Prop39
140
1.0
102
RTVSPost2010PropOp39
 70
     1
102
RTVSPost2010Prop40
 90
        0
102
RTVSPost2010PropOp40
 70
     1
102
RTVSPost2010Prop41ColorIndex
 90
       18
102
RTVSPost2010Prop41ColorRGB
 90
        0
102
RTVSPost2010PropOp41
 70
     1
102
RTVSPost2010Prop42
 90
       50
102
RTVSPost2010PropOp42
 70
     1
102
RTVSPost2010Prop43
 90
        3
102
RTVSPost2010PropOp43
 70
     1
102
RTVSPost2010Prop44ColorIndex
 90
        5
102
RTVSPost2010Prop44ColorRGB
 90
      255
102
RTVSPost2010PropOp44
 70
     1
102
RTVSPost2010Prop45
280
     0
102
RTVSPost2010PropOp45
 70
     1
102
RTVSPost2010Prop46
 90
       50
102
RTVSPost2010PropOp46
 70
     1
102
RTVSPost2010Prop47
 90
       50
102
RTVSPost2010PropOp47
 70
     1
102
RTVSPost2010Prop48
 90
       50
102
RTVSPost2010PropOp48
 70
     1
102
RTVSPost2010Prop49
280
     0
102
RTVSPost2010PropOp49
 70
     1
102
RTVSPost2010Prop50
 90
       50
102
RTVSPost2010PropOp50
 70
     1
102
RTVSPost2010Prop51ColorIndex
 90
      256
102
RTVSPost2010Prop51ColorRGB
 90
-16777216
102
RTVSPost2010PropOp51
 70
     0
102
RTVSPost2010Prop52
140
1.0
102
RTVSPost2010PropOp52
 70
     0
102
RTVSPost2010Prop53
 90
        2
102
RTVSPost2010PropOp53
 70
     1
102
RTVSPost2010Prop54
  1
strokes_ogs.tif
102
RTVSPost2010PropOp54
 70
     1
102
RTVSPost2010Prop55
280
     0
102
RTVSPost2010PropOp55
 70
     1
102
RTVSPost2010Prop56
140
1.0
102
RTVSPost2010PropOp56
 70
     1
102
RTVSPost2010Prop57
140
1.0
102
RTVSPost2010PropOp57
 70
     1
  0
XRECORD
  5
55ED
102
{ACAD_REACTORS
330
55EC
102
}
330
55EC
100
AcDbXrecord
280
     1
102
RTVSPost2010Prop28
280
     0
102
RTVSPost2010PropOp28
 70
     1
102
RTVSPost2010Prop29
280
     1
102
RTVSPost2010PropOp29
 70
     1
102
RTVSPost2010Prop30
280
     1
102
RTVSPost2010PropOp30
 70
     1
102
RTVSPost2010Prop31
280
     0
102
RTVSPost2010PropOp31
 70
     1
102
RTVSPost2010Prop32
280
     0
102
RTVSPost2010PropOp32
 70
     1
102
RTVSPost2010Prop33
280
     0
102
RTVSPost2010PropOp33
 70
     1
102
RTVSPost2010Prop34
280
     0
102
RTVSPost2010PropOp34
 70
     1
102
RTVSPost2010Prop35
280
     0
102
RTVSPost2010PropOp35
 70
     1
102
RTVSPost2010Prop36
280
     0
102
RTVSPost2010PropOp36
 70
     1
102
RTVSPost2010Prop37
 90
       50
102
RTVSPost2010PropOp37
 70
     1
102
RTVSPost2010Prop38
140
0.0
102
RTVSPost2010PropOp38
 70
     1
102
RTVSPost2010Prop39
140
1.0
102
RTVSPost2010PropOp39
 70
     1
102
RTVSPost2010Prop40
 90
        0
102
RTVSPost2010PropOp40
 70
     1
102
RTVSPost2010Prop41ColorIndex
 90
       18
102
RTVSPost2010Prop41ColorRGB
 90
        0
102
RTVSPost2010PropOp41
 70
     1
102
RTVSPost2010Prop42
 90
       50
102
RTVSPost2010PropOp42
 70
     1
102
RTVSPost2010Prop43
 90
        3
102
RTVSPost2010PropOp43
 70
     1
102
RTVSPost2010Prop44ColorIndex
 90
        5
102
RTVSPost2010Prop44ColorRGB
 90
      255
102
RTVSPost2010PropOp44
 70
     1
102
RTVSPost2010Prop45
280
     0
102
RTVSPost2010PropOp45
 70
     1
102
RTVSPost2010Prop46
 90
       50
102
RTVSPost2010PropOp46
 70
     1
102
RTVSPost2010Prop47
 90
       50
102
RTVSPost2010PropOp47
 70
     1
102
RTVSPost2010Prop48
 90
       50
102
RTVSPost2010PropOp48
 70
     1
102
RTVSPost2010Prop49
280
     0
102
RTVSPost2010PropOp49
 70
     1
102
RTVSPost2010Prop50
 90
       50
102
RTVSPost2010PropOp50
 70
     1
102
RTVSPost2010Prop51ColorIndex
 90
      256
102
RTVSPost2010Prop51ColorRGB
 90
-16777216
102
RTVSPost2010PropOp51
 70
     0
102
RTVSPost2010Prop52
140
1.0
102
RTVSPost2010PropOp52
 70
     0
102
RTVSPost2010Prop53
 90
        2
102
RTVSPost2010PropOp53
 70
     1
102
RTVSPost2010Prop54
  1
strokes_ogs.tif
102
RTVSPost2010PropOp54
 70
     1
102
RTVSPost2010Prop55
280
     0
102
RTVSPost2010PropOp55
 70
     1
102
RTVSPost2010Prop56
140
1.0
102
RTVSPost2010PropOp56
 70
     1
102
RTVSPost2010Prop57
140
1.0
102
RTVSPost2010PropOp57
 70
     1
  0
XRECORD
  5
55DF
102
{ACAD_REACTORS
330
55DE
102
}
330
55DE
100
AcDbXrecord
280
     1
102
RTVSPost2010Prop28
280
     0
102
RTVSPost2010PropOp28
 70
     1
102
RTVSPost2010Prop29
280
     1
102
RTVSPost2010PropOp29
 70
     1
102
RTVSPost2010Prop30
280
     1
102
RTVSPost2010PropOp30
 70
     1
102
RTVSPost2010Prop31
280
     0
102
RTVSPost2010PropOp31
 70
     1
102
RTVSPost2010Prop32
280
     0
102
RTVSPost2010PropOp32
 70
     1
102
RTVSPost2010Prop33
280
     0
102
RTVSPost2010PropOp33
 70
     1
102
RTVSPost2010Prop34
280
     0
102
RTVSPost2010PropOp34
 70
     1
102
RTVSPost2010Prop35
280
     0
102
RTVSPost2010PropOp35
 70
     1
102
RTVSPost2010Prop36
280
     0
102
RTVSPost2010PropOp36
 70
     1
102
RTVSPost2010Prop37
 90
       50
102
RTVSPost2010PropOp37
 70
     1
102
RTVSPost2010Prop38
140
0.0
102
RTVSPost2010PropOp38
 70
     1
102
RTVSPost2010Prop39
140
1.0
102
RTVSPost2010PropOp39
 70
     1
102
RTVSPost2010Prop40
 90
        0
102
RTVSPost2010PropOp40
 70
     1
102
RTVSPost2010Prop41ColorIndex
 90
       18
102
RTVSPost2010Prop41ColorRGB
 90
        0
102
RTVSPost2010PropOp41
 70
     1
102
RTVSPost2010Prop42
 90
       50
102
RTVSPost2010PropOp42
 70
     1
102
RTVSPost2010Prop43
 90
        3
102
RTVSPost2010PropOp43
 70
     1
102
RTVSPost2010Prop44ColorIndex
 90
        5
102
RTVSPost2010Prop44ColorRGB
 90
      255
102
RTVSPost2010PropOp44
 70
     1
102
RTVSPost2010Prop45
280
     0
102
RTVSPost2010PropOp45
 70
     1
102
RTVSPost2010Prop46
 90
       50
102
RTVSPost2010PropOp46
 70
     1
102
RTVSPost2010Prop47
 90
       50
102
RTVSPost2010PropOp47
 70
     1
102
RTVSPost2010Prop48
 90
       50
102
RTVSPost2010PropOp48
 70
     1
102
RTVSPost2010Prop49
280
     0
102
RTVSPost2010PropOp49
 70
     1
102
RTVSPost2010Prop50
 90
       50
102
RTVSPost2010PropOp50
 70
     1
102
RTVSPost2010Prop51ColorIndex
 90
      256
102
RTVSPost2010Prop51ColorRGB
 90
-16777216
102
RTVSPost2010PropOp51
 70
     0
102
RTVSPost2010Prop52
140
1.0
102
RTVSPost2010PropOp52
 70
     0
102
RTVSPost2010Prop53
 90
        2
102
RTVSPost2010PropOp53
 70
     1
102
RTVSPost2010Prop54
  1
strokes_ogs.tif
102
RTVSPost2010PropOp54
 70
     1
102
RTVSPost2010Prop55
280
     0
102
RTVSPost2010PropOp55
 70
     1
102
RTVSPost2010Prop56
140
1.0
102
RTVSPost2010PropOp56
 70
     1
102
RTVSPost2010Prop57
140
1.0
102
RTVSPost2010PropOp57
 70
     1
  0
XRECORD
  5
55E3
102
{ACAD_REACTORS
330
55E2
102
}
330
55E2
100
AcDbXrecord
280
     1
102
RTVSPost2010Prop28
280
     0
102
RTVSPost2010PropOp28
 70
     1
102
RTVSPost2010Prop29
280
     1
102
RTVSPost2010PropOp29
 70
     1
102
RTVSPost2010Prop30
280
     1
102
RTVSPost2010PropOp30
 70
     1
102
RTVSPost2010Prop31
280
     0
102
RTVSPost2010PropOp31
 70
     1
102
RTVSPost2010Prop32
280
     0
102
RTVSPost2010PropOp32
 70
     1
102
RTVSPost2010Prop33
280
     0
102
RTVSPost2010PropOp33
 70
     1
102
RTVSPost2010Prop34
280
     0
102
RTVSPost2010PropOp34
 70
     1
102
RTVSPost2010Prop35
280
     0
102
RTVSPost2010PropOp35
 70
     1
102
RTVSPost2010Prop36
280
     0
102
RTVSPost2010PropOp36
 70
     1
102
RTVSPost2010Prop37
 90
       50
102
RTVSPost2010PropOp37
 70
     1
102
RTVSPost2010Prop38
140
0.0
102
RTVSPost2010PropOp38
 70
     1
102
RTVSPost2010Prop39
140
1.0
102
RTVSPost2010PropOp39
 70
     1
102
RTVSPost2010Prop40
 90
        0
102
RTVSPost2010PropOp40
 70
     1
102
RTVSPost2010Prop41ColorIndex
 90
       18
102
RTVSPost2010Prop41ColorRGB
 90
        0
102
RTVSPost2010PropOp41
 70
     1
102
RTVSPost2010Prop42
 90
       50
102
RTVSPost2010PropOp42
 70
     1
102
RTVSPost2010Prop43
 90
        3
102
RTVSPost2010PropOp43
 70
     1
102
RTVSPost2010Prop44ColorIndex
 90
        5
102
RTVSPost2010Prop44ColorRGB
 90
      255
102
RTVSPost2010PropOp44
 70
     1
102
RTVSPost2010Prop45
280
     0
102
RTVSPost2010PropOp45
 70
     1
102
RTVSPost2010Prop46
 90
       50
102
RTVSPost2010PropOp46
 70
     1
102
RTVSPost2010Prop47
 90
       50
102
RTVSPost2010PropOp47
 70
     1
102
RTVSPost2010Prop48
 90
       50
102
RTVSPost2010PropOp48
 70
     1
102
RTVSPost2010Prop49
280
     0
102
RTVSPost2010PropOp49
 70
     1
102
RTVSPost2010Prop50
 90
       50
102
RTVSPost2010PropOp50
 70
     1
102
RTVSPost2010Prop51ColorIndex
 90
      256
102
RTVSPost2010Prop51ColorRGB
 90
-16777216
102
RTVSPost2010PropOp51
 70
     0
102
RTVSPost2010Prop52
140
1.0
102
RTVSPost2010PropOp52
 70
     0
102
RTVSPost2010Prop53
 90
        2
102
RTVSPost2010PropOp53
 70
     1
102
RTVSPost2010Prop54
  1
strokes_ogs.tif
102
RTVSPost2010PropOp54
 70
     1
102
RTVSPost2010Prop55
280
     0
102
RTVSPost2010PropOp55
 70
     1
102
RTVSPost2010Prop56
140
1.0
102
RTVSPost2010PropOp56
 70
     1
102
RTVSPost2010Prop57
140
1.0
102
RTVSPost2010PropOp57
 70
     1
  0
XRECORD
  5
55F3
102
{ACAD_REACTORS
330
55F2
102
}
330
55F2
100
AcDbXrecord
280
     1
102
RTVSPost2010Prop28
280
     0
102
RTVSPost2010PropOp28
 70
     1
102
RTVSPost2010Prop29
280
     1
102
RTVSPost2010PropOp29
 70
     1
102
RTVSPost2010Prop30
280
     1
102
RTVSPost2010PropOp30
 70
     1
102
RTVSPost2010Prop31
280
     0
102
RTVSPost2010PropOp31
 70
     1
102
RTVSPost2010Prop32
280
     0
102
RTVSPost2010PropOp32
 70
     1
102
RTVSPost2010Prop33
280
     0
102
RTVSPost2010PropOp33
 70
     1
102
RTVSPost2010Prop34
280
     0
102
RTVSPost2010PropOp34
 70
     1
102
RTVSPost2010Prop35
280
     0
102
RTVSPost2010PropOp35
 70
     1
102
RTVSPost2010Prop36
280
     0
102
RTVSPost2010PropOp36
 70
     1
102
RTVSPost2010Prop37
 90
       50
102
RTVSPost2010PropOp37
 70
     1
102
RTVSPost2010Prop38
140
0.0
102
RTVSPost2010PropOp38
 70
     1
102
RTVSPost2010Prop39
140
1.0
102
RTVSPost2010PropOp39
 70
     1
102
RTVSPost2010Prop40
 90
        0
102
RTVSPost2010PropOp40
 70
     1
102
RTVSPost2010Prop41ColorIndex
 90
       18
102
RTVSPost2010Prop41ColorRGB
 90
        0
102
RTVSPost2010PropOp41
 70
     1
102
RTVSPost2010Prop42
 90
       50
102
RTVSPost2010PropOp42
 70
     1
102
RTVSPost2010Prop43
 90
        3
102
RTVSPost2010PropOp43
 70
     1
102
RTVSPost2010Prop44ColorIndex
 90
        5
102
RTVSPost2010Prop44ColorRGB
 90
      255
102
RTVSPost2010PropOp44
 70
     1
102
RTVSPost2010Prop45
280
     0
102
RTVSPost2010PropOp45
 70
     1
102
RTVSPost2010Prop46
 90
       50
102
RTVSPost2010PropOp46
 70
     1
102
RTVSPost2010Prop47
 90
       50
102
RTVSPost2010PropOp47
 70
     1
102
RTVSPost2010Prop48
 90
       50
102
RTVSPost2010PropOp48
 70
     1
102
RTVSPost2010Prop49
280
     0
102
RTVSPost2010PropOp49
 70
     1
102
RTVSPost2010Prop50
 90
       50
102
RTVSPost2010PropOp50
 70
     1
102
RTVSPost2010Prop51ColorIndex
 90
      256
102
RTVSPost2010Prop51ColorRGB
 90
-16777216
102
RTVSPost2010PropOp51
 70
     0
102
RTVSPost2010Prop52
140
1.0
102
RTVSPost2010PropOp52
 70
     0
102
RTVSPost2010Prop53
 90
        2
102
RTVSPost2010PropOp53
 70
     1
102
RTVSPost2010Prop54
  1
strokes_ogs.tif
102
RTVSPost2010PropOp54
 70
     1
102
RTVSPost2010Prop55
280
     0
102
RTVSPost2010PropOp55
 70
     1
102
RTVSPost2010Prop56
140
1.0
102
RTVSPost2010PropOp56
 70
     1
102
RTVSPost2010Prop57
140
1.0
102
RTVSPost2010PropOp57
 70
     1
  0
XRECORD
  5
55EB
102
{ACAD_REACTORS
330
55EA
102
}
330
55EA
100
AcDbXrecord
280
     1
102
RTVSPost2010Prop28
280
     0
102
RTVSPost2010PropOp28
 70
     1
102
RTVSPost2010Prop29
280
     1
102
RTVSPost2010PropOp29
 70
     1
102
RTVSPost2010Prop30
280
     1
102
RTVSPost2010PropOp30
 70
     1
102
RTVSPost2010Prop31
280
     0
102
RTVSPost2010PropOp31
 70
     1
102
RTVSPost2010Prop32
280
     0
102
RTVSPost2010PropOp32
 70
     1
102
RTVSPost2010Prop33
280
     0
102
RTVSPost2010PropOp33
 70
     1
102
RTVSPost2010Prop34
280
     0
102
RTVSPost2010PropOp34
 70
     1
102
RTVSPost2010Prop35
280
     0
102
RTVSPost2010PropOp35
 70
     1
102
RTVSPost2010Prop36
280
     0
102
RTVSPost2010PropOp36
 70
     1
102
RTVSPost2010Prop37
 90
       50
102
RTVSPost2010PropOp37
 70
     1
102
RTVSPost2010Prop38
140
0.0
102
RTVSPost2010PropOp38
 70
     1
102
RTVSPost2010Prop39
140
1.0
102
RTVSPost2010PropOp39
 70
     1
102
RTVSPost2010Prop40
 90
        0
102
RTVSPost2010PropOp40
 70
     1
102
RTVSPost2010Prop41ColorIndex
 90
       18
102
RTVSPost2010Prop41ColorRGB
 90
        0
102
RTVSPost2010PropOp41
 70
     1
102
RTVSPost2010Prop42
 90
       50
102
RTVSPost2010PropOp42
 70
     1
102
RTVSPost2010Prop43
 90
        3
102
RTVSPost2010PropOp43
 70
     1
102
RTVSPost2010Prop44ColorIndex
 90
        5
102
RTVSPost2010Prop44ColorRGB
 90
      255
102
RTVSPost2010PropOp44
 70
     1
102
RTVSPost2010Prop45
280
     0
102
RTVSPost2010PropOp45
 70
     1
102
RTVSPost2010Prop46
 90
       50
102
RTVSPost2010PropOp46
 70
     1
102
RTVSPost2010Prop47
 90
       50
102
RTVSPost2010PropOp47
 70
     1
102
RTVSPost2010Prop48
 90
       50
102
RTVSPost2010PropOp48
 70
     1
102
RTVSPost2010Prop49
280
     0
102
RTVSPost2010PropOp49
 70
     1
102
RTVSPost2010Prop50
 90
       50
102
RTVSPost2010PropOp50
 70
     1
102
RTVSPost2010Prop51ColorIndex
 90
      256
102
RTVSPost2010Prop51ColorRGB
 90
-16777216
102
RTVSPost2010PropOp51
 70
     0
102
RTVSPost2010Prop52
140
1.0
102
RTVSPost2010PropOp52
 70
     0
102
RTVSPost2010Prop53
 90
        2
102
RTVSPost2010PropOp53
 70
     1
102
RTVSPost2010Prop54
  1
strokes_ogs.tif
102
RTVSPost2010PropOp54
 70
     1
102
RTVSPost2010Prop55
280
     0
102
RTVSPost2010PropOp55
 70
     1
102
RTVSPost2010Prop56
140
1.0
102
RTVSPost2010PropOp56
 70
     1
102
RTVSPost2010Prop57
140
1.0
102
RTVSPost2010PropOp57
 70
     1
  0
XRECORD
  5
55CF
102
{ACAD_REACTORS
330
55CE
102
}
330
55CE
100
AcDbXrecord
280
     1
102
RTVSPost2010Prop28
280
     0
102
RTVSPost2010PropOp28
 70
     1
102
RTVSPost2010Prop29
280
     1
102
RTVSPost2010PropOp29
 70
     1
102
RTVSPost2010Prop30
280
     1
102
RTVSPost2010PropOp30
 70
     1
102
RTVSPost2010Prop31
280
     0
102
RTVSPost2010PropOp31
 70
     1
102
RTVSPost2010Prop32
280
     0
102
RTVSPost2010PropOp32
 70
     1
102
RTVSPost2010Prop33
280
     0
102
RTVSPost2010PropOp33
 70
     1
102
RTVSPost2010Prop34
280
     0
102
RTVSPost2010PropOp34
 70
     1
102
RTVSPost2010Prop35
280
     0
102
RTVSPost2010PropOp35
 70
     1
102
RTVSPost2010Prop36
280
     0
102
RTVSPost2010PropOp36
 70
     1
102
RTVSPost2010Prop37
 90
       50
102
RTVSPost2010PropOp37
 70
     1
102
RTVSPost2010Prop38
140
0.0
102
RTVSPost2010PropOp38
 70
     1
102
RTVSPost2010Prop39
140
1.0
102
RTVSPost2010PropOp39
 70
     1
102
RTVSPost2010Prop40
 90
        0
102
RTVSPost2010PropOp40
 70
     1
102
RTVSPost2010Prop41ColorIndex
 90
       18
102
RTVSPost2010Prop41ColorRGB
 90
        0
102
RTVSPost2010PropOp41
 70
     1
102
RTVSPost2010Prop42
 90
       50
102
RTVSPost2010PropOp42
 70
     1
102
RTVSPost2010Prop43
 90
        3
102
RTVSPost2010PropOp43
 70
     1
102
RTVSPost2010Prop44ColorIndex
 90
        5
102
RTVSPost2010Prop44ColorRGB
 90
      255
102
RTVSPost2010PropOp44
 70
     1
102
RTVSPost2010Prop45
280
     0
102
RTVSPost2010PropOp45
 70
     1
102
RTVSPost2010Prop46
 90
       50
102
RTVSPost2010PropOp46
 70
     1
102
RTVSPost2010Prop47
 90
       50
102
RTVSPost2010PropOp47
 70
     1
102
RTVSPost2010Prop48
 90
       50
102
RTVSPost2010PropOp48
 70
     1
102
RTVSPost2010Prop49
280
     0
102
RTVSPost2010PropOp49
 70
     1
102
RTVSPost2010Prop50
 90
       50
102
RTVSPost2010PropOp50
 70
     1
102
RTVSPost2010Prop51ColorIndex
 90
      256
102
RTVSPost2010Prop51ColorRGB
 90
-16777216
102
RTVSPost2010PropOp51
 70
     0
102
RTVSPost2010Prop52
140
1.0
102
RTVSPost2010PropOp52
 70
     0
102
RTVSPost2010Prop53
 90
        2
102
RTVSPost2010PropOp53
 70
     1
102
RTVSPost2010Prop54
  1
strokes_ogs.tif
102
RTVSPost2010PropOp54
 70
     1
102
RTVSPost2010Prop55
280
     0
102
RTVSPost2010PropOp55
 70
     1
102
RTVSPost2010Prop56
140
1.0
102
RTVSPost2010PropOp56
 70
     1
102
RTVSPost2010Prop57
140
1.0
102
RTVSPost2010PropOp57
 70
     1
  0
XRECORD
  5
55D1
102
{ACAD_REACTORS
330
55D0
102
}
330
55D0
100
AcDbXrecord
280
     1
102
RTVSPost2010Prop28
280
     0
102
RTVSPost2010PropOp28
 70
     1
102
RTVSPost2010Prop29
280
     1
102
RTVSPost2010PropOp29
 70
     1
102
RTVSPost2010Prop30
280
     1
102
RTVSPost2010PropOp30
 70
     1
102
RTVSPost2010Prop31
280
     0
102
RTVSPost2010PropOp31
 70
     1
102
RTVSPost2010Prop32
280
     0
102
RTVSPost2010PropOp32
 70
     1
102
RTVSPost2010Prop33
280
     0
102
RTVSPost2010PropOp33
 70
     1
102
RTVSPost2010Prop34
280
     0
102
RTVSPost2010PropOp34
 70
     1
102
RTVSPost2010Prop35
280
     0
102
RTVSPost2010PropOp35
 70
     1
102
RTVSPost2010Prop36
280
     0
102
RTVSPost2010PropOp36
 70
     1
102
RTVSPost2010Prop37
 90
       50
102
RTVSPost2010PropOp37
 70
     1
102
RTVSPost2010Prop38
140
0.0
102
RTVSPost2010PropOp38
 70
     1
102
RTVSPost2010Prop39
140
1.0
102
RTVSPost2010PropOp39
 70
     1
102
RTVSPost2010Prop40
 90
        0
102
RTVSPost2010PropOp40
 70
     1
102
RTVSPost2010Prop41ColorIndex
 90
       18
102
RTVSPost2010Prop41ColorRGB
 90
        0
102
RTVSPost2010PropOp41
 70
     1
102
RTVSPost2010Prop42
 90
       50
102
RTVSPost2010PropOp42
 70
     1
102
RTVSPost2010Prop43
 90
        3
102
RTVSPost2010PropOp43
 70
     1
102
RTVSPost2010Prop44ColorIndex
 90
        5
102
RTVSPost2010Prop44ColorRGB
 90
      255
102
RTVSPost2010PropOp44
 70
     1
102
RTVSPost2010Prop45
280
     0
102
RTVSPost2010PropOp45
 70
     1
102
RTVSPost2010Prop46
 90
       50
102
RTVSPost2010PropOp46
 70
     1
102
RTVSPost2010Prop47
 90
       50
102
RTVSPost2010PropOp47
 70
     1
102
RTVSPost2010Prop48
 90
       50
102
RTVSPost2010PropOp48
 70
     1
102
RTVSPost2010Prop49
280
     0
102
RTVSPost2010PropOp49
 70
     1
102
RTVSPost2010Prop50
 90
       50
102
RTVSPost2010PropOp50
 70
     1
102
RTVSPost2010Prop51ColorIndex
 90
      256
102
RTVSPost2010Prop51ColorRGB
 90
-16777216
102
RTVSPost2010PropOp51
 70
     0
102
RTVSPost2010Prop52
140
1.0
102
RTVSPost2010PropOp52
 70
     0
102
RTVSPost2010Prop53
 90
        2
102
RTVSPost2010PropOp53
 70
     1
102
RTVSPost2010Prop54
  1
strokes_ogs.tif
102
RTVSPost2010PropOp54
 70
     1
102
RTVSPost2010Prop55
280
     0
102
RTVSPost2010PropOp55
 70
     1
102
RTVSPost2010Prop56
140
1.0
102
RTVSPost2010PropOp56
 70
     1
102
RTVSPost2010Prop57
140
1.0
102
RTVSPost2010PropOp57
 70
     1
  0
XRECORD
  5
55D3
102
{ACAD_REACTORS
330
55D2
102
}
330
55D2
100
AcDbXrecord
280
     1
102
RTVSPost2010Prop28
280
     0
102
RTVSPost2010PropOp28
 70
     1
102
RTVSPost2010Prop29
280
     1
102
RTVSPost2010PropOp29
 70
     1
102
RTVSPost2010Prop30
280
     1
102
RTVSPost2010PropOp30
 70
     1
102
RTVSPost2010Prop31
280
     0
102
RTVSPost2010PropOp31
 70
     1
102
RTVSPost2010Prop32
280
     0
102
RTVSPost2010PropOp32
 70
     1
102
RTVSPost2010Prop33
280
     0
102
RTVSPost2010PropOp33
 70
     1
102
RTVSPost2010Prop34
280
     0
102
RTVSPost2010PropOp34
 70
     1
102
RTVSPost2010Prop35
280
     0
102
RTVSPost2010PropOp35
 70
     1
102
RTVSPost2010Prop36
280
     0
102
RTVSPost2010PropOp36
 70
     1
102
RTVSPost2010Prop37
 90
       50
102
RTVSPost2010PropOp37
 70
     1
102
RTVSPost2010Prop38
140
0.0
102
RTVSPost2010PropOp38
 70
     1
102
RTVSPost2010Prop39
140
1.0
102
RTVSPost2010PropOp39
 70
     1
102
RTVSPost2010Prop40
 90
        0
102
RTVSPost2010PropOp40
 70
     1
102
RTVSPost2010Prop41ColorIndex
 90
       18
102
RTVSPost2010Prop41ColorRGB
 90
        0
102
RTVSPost2010PropOp41
 70
     1
102
RTVSPost2010Prop42
 90
       50
102
RTVSPost2010PropOp42
 70
     1
102
RTVSPost2010Prop43
 90
        3
102
RTVSPost2010PropOp43
 70
     1
102
RTVSPost2010Prop44ColorIndex
 90
        5
102
RTVSPost2010Prop44ColorRGB
 90
      255
102
RTVSPost2010PropOp44
 70
     1
102
RTVSPost2010Prop45
280
     0
102
RTVSPost2010PropOp45
 70
     1
102
RTVSPost2010Prop46
 90
       50
102
RTVSPost2010PropOp46
 70
     1
102
RTVSPost2010Prop47
 90
       50
102
RTVSPost2010PropOp47
 70
     1
102
RTVSPost2010Prop48
 90
       50
102
RTVSPost2010PropOp48
 70
     1
102
RTVSPost2010Prop49
280
     0
102
RTVSPost2010PropOp49
 70
     1
102
RTVSPost2010Prop50
 90
       50
102
RTVSPost2010PropOp50
 70
     1
102
RTVSPost2010Prop51ColorIndex
 90
      256
102
RTVSPost2010Prop51ColorRGB
 90
-16777216
102
RTVSPost2010PropOp51
 70
     0
102
RTVSPost2010Prop52
140
1.0
102
RTVSPost2010PropOp52
 70
     0
102
RTVSPost2010Prop53
 90
        2
102
RTVSPost2010PropOp53
 70
     1
102
RTVSPost2010Prop54
  1
strokes_ogs.tif
102
RTVSPost2010PropOp54
 70
     1
102
RTVSPost2010Prop55
280
     0
102
RTVSPost2010PropOp55
 70
     1
102
RTVSPost2010Prop56
140
1.0
102
RTVSPost2010PropOp56
 70
     1
102
RTVSPost2010Prop57
140
1.0
102
RTVSPost2010PropOp57
 70
     1
  0
XRECORD
  5
55D5
102
{ACAD_REACTORS
330
55D4
102
}
330
55D4
100
AcDbXrecord
280
     1
102
RTVSPost2010Prop28
280
     0
102
RTVSPost2010PropOp28
 70
     1
102
RTVSPost2010Prop29
280
     1
102
RTVSPost2010PropOp29
 70
     1
102
RTVSPost2010Prop30
280
     1
102
RTVSPost2010PropOp30
 70
     1
102
RTVSPost2010Prop31
280
     0
102
RTVSPost2010PropOp31
 70
     1
102
RTVSPost2010Prop32
280
     0
102
RTVSPost2010PropOp32
 70
     1
102
RTVSPost2010Prop33
280
     0
102
RTVSPost2010PropOp33
 70
     1
102
RTVSPost2010Prop34
280
     0
102
RTVSPost2010PropOp34
 70
     1
102
RTVSPost2010Prop35
280
     0
102
RTVSPost2010PropOp35
 70
     1
102
RTVSPost2010Prop36
280
     0
102
RTVSPost2010PropOp36
 70
     1
102
RTVSPost2010Prop37
 90
       50
102
RTVSPost2010PropOp37
 70
     1
102
RTVSPost2010Prop38
140
0.0
102
RTVSPost2010PropOp38
 70
     1
102
RTVSPost2010Prop39
140
1.0
102
RTVSPost2010PropOp39
 70
     1
102
RTVSPost2010Prop40
 90
        0
102
RTVSPost2010PropOp40
 70
     1
102
RTVSPost2010Prop41ColorIndex
 90
       18
102
RTVSPost2010Prop41ColorRGB
 90
        0
102
RTVSPost2010PropOp41
 70
     1
102
RTVSPost2010Prop42
 90
       50
102
RTVSPost2010PropOp42
 70
     1
102
RTVSPost2010Prop43
 90
        3
102
RTVSPost2010PropOp43
 70
     1
102
RTVSPost2010Prop44ColorIndex
 90
        5
102
RTVSPost2010Prop44ColorRGB
 90
      255
102
RTVSPost2010PropOp44
 70
     1
102
RTVSPost2010Prop45
280
     0
102
RTVSPost2010PropOp45
 70
     1
102
RTVSPost2010Prop46
 90
       50
102
RTVSPost2010PropOp46
 70
     1
102
RTVSPost2010Prop47
 90
       50
102
RTVSPost2010PropOp47
 70
     1
102
RTVSPost2010Prop48
 90
       50
102
RTVSPost2010PropOp48
 70
     1
102
RTVSPost2010Prop49
280
     0
102
RTVSPost2010PropOp49
 70
     1
102
RTVSPost2010Prop50
 90
       50
102
RTVSPost2010PropOp50
 70
     1
102
RTVSPost2010Prop51ColorIndex
 90
      256
102
RTVSPost2010Prop51ColorRGB
 90
-16777216
102
RTVSPost2010PropOp51
 70
     0
102
RTVSPost2010Prop52
140
1.0
102
RTVSPost2010PropOp52
 70
     0
102
RTVSPost2010Prop53
 90
        2
102
RTVSPost2010PropOp53
 70
     1
102
RTVSPost2010Prop54
  1
strokes_ogs.tif
102
RTVSPost2010PropOp54
 70
     1
102
RTVSPost2010Prop55
280
     0
102
RTVSPost2010PropOp55
 70
     1
102
RTVSPost2010Prop56
140
1.0
102
RTVSPost2010PropOp56
 70
     1
102
RTVSPost2010Prop57
140
1.0
102
RTVSPost2010PropOp57
 70
     1
  0
XRECORD
  5
55DD
102
{ACAD_REACTORS
330
55DC
102
}
330
55DC
100
AcDbXrecord
280
     1
102
RTVSPost2010Prop28
280
     0
102
RTVSPost2010PropOp28
 70
     1
102
RTVSPost2010Prop29
280
     1
102
RTVSPost2010PropOp29
 70
     1
102
RTVSPost2010Prop30
280
     1
102
RTVSPost2010PropOp30
 70
     1
102
RTVSPost2010Prop31
280
     0
102
RTVSPost2010PropOp31
 70
     1
102
RTVSPost2010Prop32
280
     0
102
RTVSPost2010PropOp32
 70
     1
102
RTVSPost2010Prop33
280
     0
102
RTVSPost2010PropOp33
 70
     1
102
RTVSPost2010Prop34
280
     0
102
RTVSPost2010PropOp34
 70
     1
102
RTVSPost2010Prop35
280
     0
102
RTVSPost2010PropOp35
 70
     1
102
RTVSPost2010Prop36
280
     0
102
RTVSPost2010PropOp36
 70
     1
102
RTVSPost2010Prop37
 90
       50
102
RTVSPost2010PropOp37
 70
     1
102
RTVSPost2010Prop38
140
0.0
102
RTVSPost2010PropOp38
 70
     1
102
RTVSPost2010Prop39
140
1.0
102
RTVSPost2010PropOp39
 70
     1
102
RTVSPost2010Prop40
 90
        0
102
RTVSPost2010PropOp40
 70
     1
102
RTVSPost2010Prop41ColorIndex
 90
       18
102
RTVSPost2010Prop41ColorRGB
 90
        0
102
RTVSPost2010PropOp41
 70
     1
102
RTVSPost2010Prop42
 90
       50
102
RTVSPost2010PropOp42
 70
     1
102
RTVSPost2010Prop43
 90
        3
102
RTVSPost2010PropOp43
 70
     1
102
RTVSPost2010Prop44ColorIndex
 90
        5
102
RTVSPost2010Prop44ColorRGB
 90
      255
102
RTVSPost2010PropOp44
 70
     1
102
RTVSPost2010Prop45
280
     0
102
RTVSPost2010PropOp45
 70
     1
102
RTVSPost2010Prop46
 90
       50
102
RTVSPost2010PropOp46
 70
     1
102
RTVSPost2010Prop47
 90
       50
102
RTVSPost2010PropOp47
 70
     1
102
RTVSPost2010Prop48
 90
       50
102
RTVSPost2010PropOp48
 70
     1
102
RTVSPost2010Prop49
280
     0
102
RTVSPost2010PropOp49
 70
     1
102
RTVSPost2010Prop50
 90
       50
102
RTVSPost2010PropOp50
 70
     1
102
RTVSPost2010Prop51ColorIndex
 90
      256
102
RTVSPost2010Prop51ColorRGB
 90
-16777216
102
RTVSPost2010PropOp51
 70
     0
102
RTVSPost2010Prop52
140
1.0
102
RTVSPost2010PropOp52
 70
     0
102
RTVSPost2010Prop53
 90
        2
102
RTVSPost2010PropOp53
 70
     1
102
RTVSPost2010Prop54
  1
strokes_ogs.tif
102
RTVSPost2010PropOp54
 70
     1
102
RTVSPost2010Prop55
280
     0
102
RTVSPost2010PropOp55
 70
     1
102
RTVSPost2010Prop56
140
1.0
102
RTVSPost2010PropOp56
 70
     1
102
RTVSPost2010Prop57
140
1.0
102
RTVSPost2010PropOp57
 70
     1
  0
XRECORD
  5
55EF
102
{ACAD_REACTORS
330
55EE
102
}
330
55EE
100
AcDbXrecord
280
     1
102
RTVSPost2010Prop28
280
     0
102
RTVSPost2010PropOp28
 70
     1
102
RTVSPost2010Prop29
280
     1
102
RTVSPost2010PropOp29
 70
     1
102
RTVSPost2010Prop30
280
     1
102
RTVSPost2010PropOp30
 70
     1
102
RTVSPost2010Prop31
280
     0
102
RTVSPost2010PropOp31
 70
     1
102
RTVSPost2010Prop32
280
     0
102
RTVSPost2010PropOp32
 70
     1
102
RTVSPost2010Prop33
280
     0
102
RTVSPost2010PropOp33
 70
     1
102
RTVSPost2010Prop34
280
     0
102
RTVSPost2010PropOp34
 70
     1
102
RTVSPost2010Prop35
280
     0
102
RTVSPost2010PropOp35
 70
     1
102
RTVSPost2010Prop36
280
     0
102
RTVSPost2010PropOp36
 70
     1
102
RTVSPost2010Prop37
 90
       50
102
RTVSPost2010PropOp37
 70
     1
102
RTVSPost2010Prop38
140
0.0
102
RTVSPost2010PropOp38
 70
     1
102
RTVSPost2010Prop39
140
1.0
102
RTVSPost2010PropOp39
 70
     1
102
RTVSPost2010Prop40
 90
        0
102
RTVSPost2010PropOp40
 70
     1
102
RTVSPost2010Prop41ColorIndex
 90
       18
102
RTVSPost2010Prop41ColorRGB
 90
        0
102
RTVSPost2010PropOp41
 70
     1
102
RTVSPost2010Prop42
 90
       50
102
RTVSPost2010PropOp42
 70
     1
102
RTVSPost2010Prop43
 90
        3
102
RTVSPost2010PropOp43
 70
     1
102
RTVSPost2010Prop44ColorIndex
 90
        5
102
RTVSPost2010Prop44ColorRGB
 90
      255
102
RTVSPost2010PropOp44
 70
     1
102
RTVSPost2010Prop45
280
     0
102
RTVSPost2010PropOp45
 70
     1
102
RTVSPost2010Prop46
 90
       50
102
RTVSPost2010PropOp46
 70
     1
102
RTVSPost2010Prop47
 90
       50
102
RTVSPost2010PropOp47
 70
     1
102
RTVSPost2010Prop48
 90
       50
102
RTVSPost2010PropOp48
 70
     1
102
RTVSPost2010Prop49
280
     0
102
RTVSPost2010PropOp49
 70
     1
102
RTVSPost2010Prop50
 90
       50
102
RTVSPost2010PropOp50
 70
     1
102
RTVSPost2010Prop51ColorIndex
 90
      256
102
RTVSPost2010Prop51ColorRGB
 90
-16777216
102
RTVSPost2010PropOp51
 70
     0
102
RTVSPost2010Prop52
140
1.0
102
RTVSPost2010PropOp52
 70
     0
102
RTVSPost2010Prop53
 90
        2
102
RTVSPost2010PropOp53
 70
     1
102
RTVSPost2010Prop54
  1
strokes_ogs.tif
102
RTVSPost2010PropOp54
 70
     1
102
RTVSPost2010Prop55
280
     0
102
RTVSPost2010PropOp55
 70
     1
102
RTVSPost2010Prop56
140
1.0
102
RTVSPost2010PropOp56
 70
     1
102
RTVSPost2010Prop57
140
1.0
102
RTVSPost2010PropOp57
 70
     1
  0
XRECORD
  5
55E9
102
{ACAD_REACTORS
330
55E8
102
}
330
55E8
100
AcDbXrecord
280
     1
102
RTVSPost2010Prop28
280
     0
102
RTVSPost2010PropOp28
 70
     1
102
RTVSPost2010Prop29
280
     1
102
RTVSPost2010PropOp29
 70
     1
102
RTVSPost2010Prop30
280
     1
102
RTVSPost2010PropOp30
 70
     1
102
RTVSPost2010Prop31
280
     0
102
RTVSPost2010PropOp31
 70
     1
102
RTVSPost2010Prop32
280
     0
102
RTVSPost2010PropOp32
 70
     1
102
RTVSPost2010Prop33
280
     0
102
RTVSPost2010PropOp33
 70
     1
102
RTVSPost2010Prop34
280
     0
102
RTVSPost2010PropOp34
 70
     1
102
RTVSPost2010Prop35
280
     0
102
RTVSPost2010PropOp35
 70
     1
102
RTVSPost2010Prop36
280
     0
102
RTVSPost2010PropOp36
 70
     1
102
RTVSPost2010Prop37
 90
       50
102
RTVSPost2010PropOp37
 70
     1
102
RTVSPost2010Prop38
140
0.0
102
RTVSPost2010PropOp38
 70
     1
102
RTVSPost2010Prop39
140
1.0
102
RTVSPost2010PropOp39
 70
     1
102
RTVSPost2010Prop40
 90
        0
102
RTVSPost2010PropOp40
 70
     1
102
RTVSPost2010Prop41ColorIndex
 90
       18
102
RTVSPost2010Prop41ColorRGB
 90
        0
102
RTVSPost2010PropOp41
 70
     1
102
RTVSPost2010Prop42
 90
       50
102
RTVSPost2010PropOp42
 70
     1
102
RTVSPost2010Prop43
 90
        3
102
RTVSPost2010PropOp43
 70
     1
102
RTVSPost2010Prop44ColorIndex
 90
        5
102
RTVSPost2010Prop44ColorRGB
 90
      255
102
RTVSPost2010PropOp44
 70
     1
102
RTVSPost2010Prop45
280
     0
102
RTVSPost2010PropOp45
 70
     1
102
RTVSPost2010Prop46
 90
       50
102
RTVSPost2010PropOp46
 70
     1
102
RTVSPost2010Prop47
 90
       50
102
RTVSPost2010PropOp47
 70
     1
102
RTVSPost2010Prop48
 90
       50
102
RTVSPost2010PropOp48
 70
     1
102
RTVSPost2010Prop49
280
     0
102
RTVSPost2010PropOp49
 70
     1
102
RTVSPost2010Prop50
 90
       50
102
RTVSPost2010PropOp50
 70
     1
102
RTVSPost2010Prop51ColorIndex
 90
      256
102
RTVSPost2010Prop51ColorRGB
 90
-16777216
102
RTVSPost2010PropOp51
 70
     0
102
RTVSPost2010Prop52
140
1.0
102
RTVSPost2010PropOp52
 70
     0
102
RTVSPost2010Prop53
 90
        2
102
RTVSPost2010PropOp53
 70
     1
102
RTVSPost2010Prop54
  1
strokes_ogs.tif
102
RTVSPost2010PropOp54
 70
     1
102
RTVSPost2010Prop55
280
     0
102
RTVSPost2010PropOp55
 70
     1
102
RTVSPost2010Prop56
140
1.0
102
RTVSPost2010PropOp56
 70
     1
102
RTVSPost2010Prop57
140
1.0
102
RTVSPost2010PropOp57
 70
     1
  0
XRECORD
  5
55F1
102
{ACAD_REACTORS
330
55F0
102
}
330
55F0
100
AcDbXrecord
280
     1
102
RTVSPost2010Prop28
280
     0
102
RTVSPost2010PropOp28
 70
     1
102
RTVSPost2010Prop29
280
     1
102
RTVSPost2010PropOp29
 70
     1
102
RTVSPost2010Prop30
280
     1
102
RTVSPost2010PropOp30
 70
     1
102
RTVSPost2010Prop31
280
     0
102
RTVSPost2010PropOp31
 70
     1
102
RTVSPost2010Prop32
280
     0
102
RTVSPost2010PropOp32
 70
     1
102
RTVSPost2010Prop33
280
     0
102
RTVSPost2010PropOp33
 70
     1
102
RTVSPost2010Prop34
280
     0
102
RTVSPost2010PropOp34
 70
     1
102
RTVSPost2010Prop35
280
     0
102
RTVSPost2010PropOp35
 70
     1
102
RTVSPost2010Prop36
280
     0
102
RTVSPost2010PropOp36
 70
     1
102
RTVSPost2010Prop37
 90
       50
102
RTVSPost2010PropOp37
 70
     1
102
RTVSPost2010Prop38
140
0.0
102
RTVSPost2010PropOp38
 70
     1
102
RTVSPost2010Prop39
140
1.0
102
RTVSPost2010PropOp39
 70
     1
102
RTVSPost2010Prop40
 90
        0
102
RTVSPost2010PropOp40
 70
     1
102
RTVSPost2010Prop41ColorIndex
 90
       18
102
RTVSPost2010Prop41ColorRGB
 90
        0
102
RTVSPost2010PropOp41
 70
     1
102
RTVSPost2010Prop42
 90
       50
102
RTVSPost2010PropOp42
 70
     1
102
RTVSPost2010Prop43
 90
        3
102
RTVSPost2010PropOp43
 70
     1
102
RTVSPost2010Prop44ColorIndex
 90
        5
102
RTVSPost2010Prop44ColorRGB
 90
      255
102
RTVSPost2010PropOp44
 70
     1
102
RTVSPost2010Prop45
280
     0
102
RTVSPost2010PropOp45
 70
     1
102
RTVSPost2010Prop46
 90
       50
102
RTVSPost2010PropOp46
 70
     1
102
RTVSPost2010Prop47
 90
       50
102
RTVSPost2010PropOp47
 70
     1
102
RTVSPost2010Prop48
 90
       50
102
RTVSPost2010PropOp48
 70
     1
102
RTVSPost2010Prop49
280
     0
102
RTVSPost2010PropOp49
 70
     1
102
RTVSPost2010Prop50
 90
       50
102
RTVSPost2010PropOp50
 70
     1
102
RTVSPost2010Prop51ColorIndex
 90
      256
102
RTVSPost2010Prop51ColorRGB
 90
-16777216
102
RTVSPost2010PropOp51
 70
     0
102
RTVSPost2010Prop52
140
1.0
102
RTVSPost2010PropOp52
 70
     0
102
RTVSPost2010Prop53
 90
        2
102
RTVSPost2010PropOp53
 70
     1
102
RTVSPost2010Prop54
  1
strokes_ogs.tif
102
RTVSPost2010PropOp54
 70
     1
102
RTVSPost2010Prop55
280
     0
102
RTVSPost2010PropOp55
 70
     1
102
RTVSPost2010Prop56
140
1.0
102
RTVSPost2010PropOp56
 70
     1
102
RTVSPost2010Prop57
140
1.0
102
RTVSPost2010PropOp57
 70
     1
  0
XRECORD
  5
55E1
102
{ACAD_REACTORS
330
55E0
102
}
330
55E0
100
AcDbXrecord
280
     1
102
RTVSPost2010Prop28
280
     0
102
RTVSPost2010PropOp28
 70
     1
102
RTVSPost2010Prop29
280
     1
102
RTVSPost2010PropOp29
 70
     1
102
RTVSPost2010Prop30
280
     1
102
RTVSPost2010PropOp30
 70
     1
102
RTVSPost2010Prop31
280
     0
102
RTVSPost2010PropOp31
 70
     1
102
RTVSPost2010Prop32
280
     0
102
RTVSPost2010PropOp32
 70
     1
102
RTVSPost2010Prop33
280
     0
102
RTVSPost2010PropOp33
 70
     1
102
RTVSPost2010Prop34
280
     0
102
RTVSPost2010PropOp34
 70
     1
102
RTVSPost2010Prop35
280
     0
102
RTVSPost2010PropOp35
 70
     1
102
RTVSPost2010Prop36
280
     0
102
RTVSPost2010PropOp36
 70
     1
102
RTVSPost2010Prop37
 90
       50
102
RTVSPost2010PropOp37
 70
     1
102
RTVSPost2010Prop38
140
0.0
102
RTVSPost2010PropOp38
 70
     1
102
RTVSPost2010Prop39
140
1.0
102
RTVSPost2010PropOp39
 70
     1
102
RTVSPost2010Prop40
 90
        0
102
RTVSPost2010PropOp40
 70
     1
102
RTVSPost2010Prop41ColorIndex
 90
       18
102
RTVSPost2010Prop41ColorRGB
 90
        0
102
RTVSPost2010PropOp41
 70
     1
102
RTVSPost2010Prop42
 90
       50
102
RTVSPost2010PropOp42
 70
     1
102
RTVSPost2010Prop43
 90
        3
102
RTVSPost2010PropOp43
 70
     1
102
RTVSPost2010Prop44ColorIndex
 90
        5
102
RTVSPost2010Prop44ColorRGB
 90
      255
102
RTVSPost2010PropOp44
 70
     1
102
RTVSPost2010Prop45
280
     0
102
RTVSPost2010PropOp45
 70
     1
102
RTVSPost2010Prop46
 90
       50
102
RTVSPost2010PropOp46
 70
     1
102
RTVSPost2010Prop47
 90
       50
102
RTVSPost2010PropOp47
 70
     1
102
RTVSPost2010Prop48
 90
       50
102
RTVSPost2010PropOp48
 70
     1
102
RTVSPost2010Prop49
280
     0
102
RTVSPost2010PropOp49
 70
     1
102
RTVSPost2010Prop50
 90
       50
102
RTVSPost2010PropOp50
 70
     1
102
RTVSPost2010Prop51ColorIndex
 90
      256
102
RTVSPost2010Prop51ColorRGB
 90
-16777216
102
RTVSPost2010PropOp51
 70
     0
102
RTVSPost2010Prop52
140
1.0
102
RTVSPost2010PropOp52
 70
     0
102
RTVSPost2010Prop53
 90
        2
102
RTVSPost2010PropOp53
 70
     1
102
RTVSPost2010Prop54
  1
strokes_ogs.tif
102
RTVSPost2010PropOp54
 70
     1
102
RTVSPost2010Prop55
280
     0
102
RTVSPost2010PropOp55
 70
     1
102
RTVSPost2010Prop56
140
1.0
102
RTVSPost2010PropOp56
 70
     1
102
RTVSPost2010Prop57
140
1.0
102
RTVSPost2010PropOp57
 70
     1
  0
XRECORD
  5
55FD
102
{ACAD_REACTORS
330
55FC
102
}
330
55FC
100
AcDbXrecord
280
     1
102
RTVSPost2010Prop28
280
     0
102
RTVSPost2010PropOp28
 70
     1
102
RTVSPost2010Prop29
280
     1
102
RTVSPost2010PropOp29
 70
     1
102
RTVSPost2010Prop30
280
     1
102
RTVSPost2010PropOp30
 70
     1
102
RTVSPost2010Prop31
280
     0
102
RTVSPost2010PropOp31
 70
     1
102
RTVSPost2010Prop32
280
     0
102
RTVSPost2010PropOp32
 70
     1
102
RTVSPost2010Prop33
280
     0
102
RTVSPost2010PropOp33
 70
     1
102
RTVSPost2010Prop34
280
     0
102
RTVSPost2010PropOp34
 70
     1
102
RTVSPost2010Prop35
280
     0
102
RTVSPost2010PropOp35
 70
     1
102
RTVSPost2010Prop36
280
     0
102
RTVSPost2010PropOp36
 70
     1
102
RTVSPost2010Prop37
 90
       50
102
RTVSPost2010PropOp37
 70
     1
102
RTVSPost2010Prop38
140
0.0
102
RTVSPost2010PropOp38
 70
     1
102
RTVSPost2010Prop39
140
1.0
102
RTVSPost2010PropOp39
 70
     1
102
RTVSPost2010Prop40
 90
        0
102
RTVSPost2010PropOp40
 70
     1
102
RTVSPost2010Prop41ColorIndex
 90
       18
102
RTVSPost2010Prop41ColorRGB
 90
        0
102
RTVSPost2010PropOp41
 70
     1
102
RTVSPost2010Prop42
 90
       50
102
RTVSPost2010PropOp42
 70
     1
102
RTVSPost2010Prop43
 90
        3
102
RTVSPost2010PropOp43
 70
     1
102
RTVSPost2010Prop44ColorIndex
 90
        5
102
RTVSPost2010Prop44ColorRGB
 90
      255
102
RTVSPost2010PropOp44
 70
     1
102
RTVSPost2010Prop45
280
     0
102
RTVSPost2010PropOp45
 70
     1
102
RTVSPost2010Prop46
 90
       50
102
RTVSPost2010PropOp46
 70
     1
102
RTVSPost2010Prop47
 90
       50
102
RTVSPost2010PropOp47
 70
     1
102
RTVSPost2010Prop48
 90
       50
102
RTVSPost2010PropOp48
 70
     1
102
RTVSPost2010Prop49
280
     0
102
RTVSPost2010PropOp49
 70
     1
102
RTVSPost2010Prop50
 90
       50
102
RTVSPost2010PropOp50
 70
     1
102
RTVSPost2010Prop51ColorIndex
 90
      256
102
RTVSPost2010Prop51ColorRGB
 90
-16777216
102
RTVSPost2010PropOp51
 70
     0
102
RTVSPost2010Prop52
140
1.0
102
RTVSPost2010PropOp52
 70
     0
102
RTVSPost2010Prop53
 90
        2
102
RTVSPost2010PropOp53
 70
     1
102
RTVSPost2010Prop54
  1
strokes_ogs.tif
102
RTVSPost2010PropOp54
 70
     1
102
RTVSPost2010Prop55
280
     0
102
RTVSPost2010PropOp55
 70
     1
102
RTVSPost2010Prop56
140
1.0
102
RTVSPost2010PropOp56
 70
     1
102
RTVSPost2010Prop57
140
1.0
102
RTVSPost2010PropOp57
 70
     1
  0
XRECORD
  5
55FB
102
{ACAD_REACTORS
330
55FA
102
}
330
55FA
100
AcDbXrecord
280
     1
102
RTVSPost2010Prop28
280
     0
102
RTVSPost2010PropOp28
 70
     1
102
RTVSPost2010Prop29
280
     1
102
RTVSPost2010PropOp29
 70
     1
102
RTVSPost2010Prop30
280
     1
102
RTVSPost2010PropOp30
 70
     1
102
RTVSPost2010Prop31
280
     0
102
RTVSPost2010PropOp31
 70
     1
102
RTVSPost2010Prop32
280
     0
102
RTVSPost2010PropOp32
 70
     1
102
RTVSPost2010Prop33
280
     0
102
RTVSPost2010PropOp33
 70
     1
102
RTVSPost2010Prop34
280
     0
102
RTVSPost2010PropOp34
 70
     1
102
RTVSPost2010Prop35
280
     0
102
RTVSPost2010PropOp35
 70
     1
102
RTVSPost2010Prop36
280
     0
102
RTVSPost2010PropOp36
 70
     1
102
RTVSPost2010Prop37
 90
       50
102
RTVSPost2010PropOp37
 70
     1
102
RTVSPost2010Prop38
140
0.0
102
RTVSPost2010PropOp38
 70
     1
102
RTVSPost2010Prop39
140
1.0
102
RTVSPost2010PropOp39
 70
     1
102
RTVSPost2010Prop40
 90
        0
102
RTVSPost2010PropOp40
 70
     1
102
RTVSPost2010Prop41ColorIndex
 90
       18
102
RTVSPost2010Prop41ColorRGB
 90
        0
102
RTVSPost2010PropOp41
 70
     1
102
RTVSPost2010Prop42
 90
       50
102
RTVSPost2010PropOp42
 70
     1
102
RTVSPost2010Prop43
 90
        3
102
RTVSPost2010PropOp43
 70
     1
102
RTVSPost2010Prop44ColorIndex
 90
        5
102
RTVSPost2010Prop44ColorRGB
 90
      255
102
RTVSPost2010PropOp44
 70
     1
102
RTVSPost2010Prop45
280
     0
102
RTVSPost2010PropOp45
 70
     1
102
RTVSPost2010Prop46
 90
       50
102
RTVSPost2010PropOp46
 70
     1
102
RTVSPost2010Prop47
 90
       50
102
RTVSPost2010PropOp47
 70
     1
102
RTVSPost2010Prop48
 90
       50
102
RTVSPost2010PropOp48
 70
     1
102
RTVSPost2010Prop49
280
     0
102
RTVSPost2010PropOp49
 70
     1
102
RTVSPost2010Prop50
 90
       50
102
RTVSPost2010PropOp50
 70
     1
102
RTVSPost2010Prop51ColorIndex
 90
      256
102
RTVSPost2010Prop51ColorRGB
 90
-16777216
102
RTVSPost2010PropOp51
 70
     0
102
RTVSPost2010Prop52
140
1.0
102
RTVSPost2010PropOp52
 70
     0
102
RTVSPost2010Prop53
 90
        2
102
RTVSPost2010PropOp53
 70
     1
102
RTVSPost2010Prop54
  1
strokes_ogs.tif
102
RTVSPost2010PropOp54
 70
     1
102
RTVSPost2010Prop55
280
     0
102
RTVSPost2010PropOp55
 70
     1
102
RTVSPost2010Prop56
140
1.0
102
RTVSPost2010PropOp56
 70
     1
102
RTVSPost2010Prop57
140
1.0
102
RTVSPost2010PropOp57
 70
     1
  0
XRECORD
  5
55F5
102
{ACAD_REACTORS
330
55F4
102
}
330
55F4
100
AcDbXrecord
280
     1
102
RTVSPost2010Prop28
280
     0
102
RTVSPost2010PropOp28
 70
     1
102
RTVSPost2010Prop29
280
     1
102
RTVSPost2010PropOp29
 70
     1
102
RTVSPost2010Prop30
280
     1
102
RTVSPost2010PropOp30
 70
     1
102
RTVSPost2010Prop31
280
     0
102
RTVSPost2010PropOp31
 70
     1
102
RTVSPost2010Prop32
280
     0
102
RTVSPost2010PropOp32
 70
     1
102
RTVSPost2010Prop33
280
     0
102
RTVSPost2010PropOp33
 70
     1
102
RTVSPost2010Prop34
280
     0
102
RTVSPost2010PropOp34
 70
     1
102
RTVSPost2010Prop35
280
     0
102
RTVSPost2010PropOp35
 70
     1
102
RTVSPost2010Prop36
280
     0
102
RTVSPost2010PropOp36
 70
     1
102
RTVSPost2010Prop37
 90
       50
102
RTVSPost2010PropOp37
 70
     1
102
RTVSPost2010Prop38
140
0.0
102
RTVSPost2010PropOp38
 70
     1
102
RTVSPost2010Prop39
140
1.0
102
RTVSPost2010PropOp39
 70
     1
102
RTVSPost2010Prop40
 90
        0
102
RTVSPost2010PropOp40
 70
     1
102
RTVSPost2010Prop41ColorIndex
 90
       18
102
RTVSPost2010Prop41ColorRGB
 90
        0
102
RTVSPost2010PropOp41
 70
     1
102
RTVSPost2010Prop42
 90
       50
102
RTVSPost2010PropOp42
 70
     1
102
RTVSPost2010Prop43
 90
        3
102
RTVSPost2010PropOp43
 70
     1
102
RTVSPost2010Prop44ColorIndex
 90
        5
102
RTVSPost2010Prop44ColorRGB
 90
      255
102
RTVSPost2010PropOp44
 70
     1
102
RTVSPost2010Prop45
280
     0
102
RTVSPost2010PropOp45
 70
     1
102
RTVSPost2010Prop46
 90
       50
102
RTVSPost2010PropOp46
 70
     1
102
RTVSPost2010Prop47
 90
       50
102
RTVSPost2010PropOp47
 70
     1
102
RTVSPost2010Prop48
 90
       50
102
RTVSPost2010PropOp48
 70
     1
102
RTVSPost2010Prop49
280
     0
102
RTVSPost2010PropOp49
 70
     1
102
RTVSPost2010Prop50
 90
       50
102
RTVSPost2010PropOp50
 70
     1
102
RTVSPost2010Prop51ColorIndex
 90
      256
102
RTVSPost2010Prop51ColorRGB
 90
-16777216
102
RTVSPost2010PropOp51
 70
     0
102
RTVSPost2010Prop52
140
1.0
102
RTVSPost2010PropOp52
 70
     0
102
RTVSPost2010Prop53
 90
        2
102
RTVSPost2010PropOp53
 70
     1
102
RTVSPost2010Prop54
  1
strokes_ogs.tif
102
RTVSPost2010PropOp54
 70
     1
102
RTVSPost2010Prop55
280
     0
102
RTVSPost2010PropOp55
 70
     1
102
RTVSPost2010Prop56
140
1.0
102
RTVSPost2010PropOp56
 70
     1
102
RTVSPost2010Prop57
140
1.0
102
RTVSPost2010PropOp57
 70
     1
  0
XRECORD
  5
55F7
102
{ACAD_REACTORS
330
55F6
102
}
330
55F6
100
AcDbXrecord
280
     1
102
RTVSPost2010Prop28
280
     0
102
RTVSPost2010PropOp28
 70
     1
102
RTVSPost2010Prop29
280
     1
102
RTVSPost2010PropOp29
 70
     1
102
RTVSPost2010Prop30
280
     1
102
RTVSPost2010PropOp30
 70
     1
102
RTVSPost2010Prop31
280
     0
102
RTVSPost2010PropOp31
 70
     1
102
RTVSPost2010Prop32
280
     0
102
RTVSPost2010PropOp32
 70
     1
102
RTVSPost2010Prop33
280
     0
102
RTVSPost2010PropOp33
 70
     1
102
RTVSPost2010Prop34
280
     0
102
RTVSPost2010PropOp34
 70
     1
102
RTVSPost2010Prop35
280
     0
102
RTVSPost2010PropOp35
 70
     1
102
RTVSPost2010Prop36
280
     0
102
RTVSPost2010PropOp36
 70
     1
102
RTVSPost2010Prop37
 90
       50
102
RTVSPost2010PropOp37
 70
     1
102
RTVSPost2010Prop38
140
0.0
102
RTVSPost2010PropOp38
 70
     1
102
RTVSPost2010Prop39
140
1.0
102
RTVSPost2010PropOp39
 70
     1
102
RTVSPost2010Prop40
 90
        0
102
RTVSPost2010PropOp40
 70
     1
102
RTVSPost2010Prop41ColorIndex
 90
       18
102
RTVSPost2010Prop41ColorRGB
 90
        0
102
RTVSPost2010PropOp41
 70
     1
102
RTVSPost2010Prop42
 90
       50
102
RTVSPost2010PropOp42
 70
     1
102
RTVSPost2010Prop43
 90
        3
102
RTVSPost2010PropOp43
 70
     1
102
RTVSPost2010Prop44ColorIndex
 90
        5
102
RTVSPost2010Prop44ColorRGB
 90
      255
102
RTVSPost2010PropOp44
 70
     1
102
RTVSPost2010Prop45
280
     0
102
RTVSPost2010PropOp45
 70
     1
102
RTVSPost2010Prop46
 90
       50
102
RTVSPost2010PropOp46
 70
     1
102
RTVSPost2010Prop47
 90
       50
102
RTVSPost2010PropOp47
 70
     1
102
RTVSPost2010Prop48
 90
       50
102
RTVSPost2010PropOp48
 70
     1
102
RTVSPost2010Prop49
280
     0
102
RTVSPost2010PropOp49
 70
     1
102
RTVSPost2010Prop50
 90
       50
102
RTVSPost2010PropOp50
 70
     1
102
RTVSPost2010Prop51ColorIndex
 90
      256
102
RTVSPost2010Prop51ColorRGB
 90
-16777216
102
RTVSPost2010PropOp51
 70
     0
102
RTVSPost2010Prop52
140
1.0
102
RTVSPost2010PropOp52
 70
     0
102
RTVSPost2010Prop53
 90
        2
102
RTVSPost2010PropOp53
 70
     1
102
RTVSPost2010Prop54
  1
strokes_ogs.tif
102
RTVSPost2010PropOp54
 70
     1
102
RTVSPost2010Prop55
280
     0
102
RTVSPost2010PropOp55
 70
     1
102
RTVSPost2010Prop56
140
1.0
102
RTVSPost2010PropOp56
 70
     1
102
RTVSPost2010Prop57
140
1.0
102
RTVSPost2010PropOp57
 70
     1
  0
XRECORD
  5
55E7
102
{ACAD_REACTORS
330
55E6
102
}
330
55E6
100
AcDbXrecord
280
     1
102
RTVSPost2010Prop28
280
     0
102
RTVSPost2010PropOp28
 70
     1
102
RTVSPost2010Prop29
280
     1
102
RTVSPost2010PropOp29
 70
     1
102
RTVSPost2010Prop30
280
     1
102
RTVSPost2010PropOp30
 70
     1
102
RTVSPost2010Prop31
280
     0
102
RTVSPost2010PropOp31
 70
     1
102
RTVSPost2010Prop32
280
     0
102
RTVSPost2010PropOp32
 70
     1
102
RTVSPost2010Prop33
280
     0
102
RTVSPost2010PropOp33
 70
     1
102
RTVSPost2010Prop34
280
     0
102
RTVSPost2010PropOp34
 70
     1
102
RTVSPost2010Prop35
280
     0
102
RTVSPost2010PropOp35
 70
     1
102
RTVSPost2010Prop36
280
     0
102
RTVSPost2010PropOp36
 70
     1
102
RTVSPost2010Prop37
 90
       50
102
RTVSPost2010PropOp37
 70
     1
102
RTVSPost2010Prop38
140
0.0
102
RTVSPost2010PropOp38
 70
     1
102
RTVSPost2010Prop39
140
1.0
102
RTVSPost2010PropOp39
 70
     1
102
RTVSPost2010Prop40
 90
        0
102
RTVSPost2010PropOp40
 70
     1
102
RTVSPost2010Prop41ColorIndex
 90
       18
102
RTVSPost2010Prop41ColorRGB
 90
        0
102
RTVSPost2010PropOp41
 70
     1
102
RTVSPost2010Prop42
 90
       50
102
RTVSPost2010PropOp42
 70
     1
102
RTVSPost2010Prop43
 90
        3
102
RTVSPost2010PropOp43
 70
     1
102
RTVSPost2010Prop44ColorIndex
 90
        5
102
RTVSPost2010Prop44ColorRGB
 90
      255
102
RTVSPost2010PropOp44
 70
     1
102
RTVSPost2010Prop45
280
     0
102
RTVSPost2010PropOp45
 70
     1
102
RTVSPost2010Prop46
 90
       50
102
RTVSPost2010PropOp46
 70
     1
102
RTVSPost2010Prop47
 90
       50
102
RTVSPost2010PropOp47
 70
     1
102
RTVSPost2010Prop48
 90
       50
102
RTVSPost2010PropOp48
 70
     1
102
RTVSPost2010Prop49
280
     0
102
RTVSPost2010PropOp49
 70
     1
102
RTVSPost2010Prop50
 90
       50
102
RTVSPost2010PropOp50
 70
     1
102
RTVSPost2010Prop51ColorIndex
 90
      256
102
RTVSPost2010Prop51ColorRGB
 90
-16777216
102
RTVSPost2010PropOp51
 70
     0
102
RTVSPost2010Prop52
140
1.0
102
RTVSPost2010PropOp52
 70
     0
102
RTVSPost2010Prop53
 90
        2
102
RTVSPost2010PropOp53
 70
     1
102
RTVSPost2010Prop54
  1
strokes_ogs.tif
102
RTVSPost2010PropOp54
 70
     1
102
RTVSPost2010Prop55
280
     0
102
RTVSPost2010PropOp55
 70
     1
102
RTVSPost2010Prop56
140
1.0
102
RTVSPost2010PropOp56
 70
     1
102
RTVSPost2010Prop57
140
1.0
102
RTVSPost2010PropOp57
 70
     1
  0
XRECORD
  5
55DB
102
{ACAD_REACTORS
330
55DA
102
}
330
55DA
100
AcDbXrecord
280
     1
102
RTVSPost2010Prop28
280
     0
102
RTVSPost2010PropOp28
 70
     1
102
RTVSPost2010Prop29
280
     1
102
RTVSPost2010PropOp29
 70
     1
102
RTVSPost2010Prop30
280
     1
102
RTVSPost2010PropOp30
 70
     1
102
RTVSPost2010Prop31
280
     0
102
RTVSPost2010PropOp31
 70
     1
102
RTVSPost2010Prop32
280
     0
102
RTVSPost2010PropOp32
 70
     1
102
RTVSPost2010Prop33
280
     0
102
RTVSPost2010PropOp33
 70
     1
102
RTVSPost2010Prop34
280
     0
102
RTVSPost2010PropOp34
 70
     1
102
RTVSPost2010Prop35
280
     0
102
RTVSPost2010PropOp35
 70
     1
102
RTVSPost2010Prop36
280
     0
102
RTVSPost2010PropOp36
 70
     1
102
RTVSPost2010Prop37
 90
       50
102
RTVSPost2010PropOp37
 70
     1
102
RTVSPost2010Prop38
140
0.0
102
RTVSPost2010PropOp38
 70
     1
102
RTVSPost2010Prop39
140
1.0
102
RTVSPost2010PropOp39
 70
     1
102
RTVSPost2010Prop40
 90
        0
102
RTVSPost2010PropOp40
 70
     1
102
RTVSPost2010Prop41ColorIndex
 90
       18
102
RTVSPost2010Prop41ColorRGB
 90
        0
102
RTVSPost2010PropOp41
 70
     1
102
RTVSPost2010Prop42
 90
       50
102
RTVSPost2010PropOp42
 70
     1
102
RTVSPost2010Prop43
 90
        3
102
RTVSPost2010PropOp43
 70
     1
102
RTVSPost2010Prop44ColorIndex
 90
        5
102
RTVSPost2010Prop44ColorRGB
 90
      255
102
RTVSPost2010PropOp44
 70
     1
102
RTVSPost2010Prop45
280
     0
102
RTVSPost2010PropOp45
 70
     1
102
RTVSPost2010Prop46
 90
       50
102
RTVSPost2010PropOp46
 70
     1
102
RTVSPost2010Prop47
 90
       50
102
RTVSPost2010PropOp47
 70
     1
102
RTVSPost2010Prop48
 90
       50
102
RTVSPost2010PropOp48
 70
     1
102
RTVSPost2010Prop49
280
     0
102
RTVSPost2010PropOp49
 70
     1
102
RTVSPost2010Prop50
 90
       50
102
RTVSPost2010PropOp50
 70
     1
102
RTVSPost2010Prop51ColorIndex
 90
      256
102
RTVSPost2010Prop51ColorRGB
 90
-16777216
102
RTVSPost2010PropOp51
 70
     0
102
RTVSPost2010Prop52
140
1.0
102
RTVSPost2010PropOp52
 70
     0
102
RTVSPost2010Prop53
 90
        2
102
RTVSPost2010PropOp53
 70
     1
102
RTVSPost2010Prop54
  1
strokes_ogs.tif
102
RTVSPost2010PropOp54
 70
     1
102
RTVSPost2010Prop55
280
     0
102
RTVSPost2010PropOp55
 70
     1
102
RTVSPost2010Prop56
140
1.0
102
RTVSPost2010PropOp56
 70
     1
102
RTVSPost2010Prop57
140
1.0
102
RTVSPost2010PropOp57
 70
     1
  0
XRECORD
  5
55F9
102
{ACAD_REACTORS
330
55F8
102
}
330
55F8
100
AcDbXrecord
280
     1
102
RTVSPost2010Prop28
280
     0
102
RTVSPost2010PropOp28
 70
     1
102
RTVSPost2010Prop29
280
     1
102
RTVSPost2010PropOp29
 70
     1
102
RTVSPost2010Prop30
280
     1
102
RTVSPost2010PropOp30
 70
     1
102
RTVSPost2010Prop31
280
     0
102
RTVSPost2010PropOp31
 70
     1
102
RTVSPost2010Prop32
280
     0
102
RTVSPost2010PropOp32
 70
     1
102
RTVSPost2010Prop33
280
     0
102
RTVSPost2010PropOp33
 70
     1
102
RTVSPost2010Prop34
280
     0
102
RTVSPost2010PropOp34
 70
     1
102
RTVSPost2010Prop35
280
     0
102
RTVSPost2010PropOp35
 70
     1
102
RTVSPost2010Prop36
280
     0
102
RTVSPost2010PropOp36
 70
     1
102
RTVSPost2010Prop37
 90
       50
102
RTVSPost2010PropOp37
 70
     1
102
RTVSPost2010Prop38
140
0.0
102
RTVSPost2010PropOp38
 70
     1
102
RTVSPost2010Prop39
140
1.0
102
RTVSPost2010PropOp39
 70
     1
102
RTVSPost2010Prop40
 90
        0
102
RTVSPost2010PropOp40
 70
     1
102
RTVSPost2010Prop41ColorIndex
 90
       18
102
RTVSPost2010Prop41ColorRGB
 90
        0
102
RTVSPost2010PropOp41
 70
     1
102
RTVSPost2010Prop42
 90
       50
102
RTVSPost2010PropOp42
 70
     1
102
RTVSPost2010Prop43
 90
        3
102
RTVSPost2010PropOp43
 70
     1
102
RTVSPost2010Prop44ColorIndex
 90
        5
102
RTVSPost2010Prop44ColorRGB
 90
      255
102
RTVSPost2010PropOp44
 70
     1
102
RTVSPost2010Prop45
280
     0
102
RTVSPost2010PropOp45
 70
     1
102
RTVSPost2010Prop46
 90
       50
102
RTVSPost2010PropOp46
 70
     1
102
RTVSPost2010Prop47
 90
       50
102
RTVSPost2010PropOp47
 70
     1
102
RTVSPost2010Prop48
 90
       50
102
RTVSPost2010PropOp48
 70
     1
102
RTVSPost2010Prop49
280
     0
102
RTVSPost2010PropOp49
 70
     1
102
RTVSPost2010Prop50
 90
       50
102
RTVSPost2010PropOp50
 70
     1
102
RTVSPost2010Prop51ColorIndex
 90
      256
102
RTVSPost2010Prop51ColorRGB
 90
-16777216
102
RTVSPost2010PropOp51
 70
     0
102
RTVSPost2010Prop52
140
1.0
102
RTVSPost2010PropOp52
 70
     0
102
RTVSPost2010Prop53
 90
        2
102
RTVSPost2010PropOp53
 70
     1
102
RTVSPost2010Prop54
  1
strokes_ogs.tif
102
RTVSPost2010PropOp54
 70
     1
102
RTVSPost2010Prop55
280
     0
102
RTVSPost2010PropOp55
 70
     1
102
RTVSPost2010Prop56
140
1.0
102
RTVSPost2010PropOp56
 70
     1
102
RTVSPost2010Prop57
140
1.0
102
RTVSPost2010PropOp57
 70
     1
  0
XRECORD
  5
1D20
102
{ACAD_REACTORS
330
1D1F
102
}
330
1D1F
100
AcDbXrecord
280
     1
1071
 82437801
1071
112294725
 70
    25
 70
   104
 10
0.0
 20
0.0
 30
0.0
  0
XRECORD
  5
1D28
102
{ACAD_REACTORS
330
1D27
102
}
330
1D27
100
AcDbXrecord
280
     1
1071
 82437801
1071
112294725
 70
    25
 70
   104
 10
0.0
 20
0.0
 30
0.0
  0
XRECORD
  5
1D2F
102
{ACAD_REACTORS
330
1D2E
102
}
330
1D2E
100
AcDbXrecord
280
     1
1071
 82437801
1071
112294725
 70
    25
 70
   104
 10
0.0
 20
0.0
 30
0.0
  0
XRECORD
  5
1D36
102
{ACAD_REACTORS
330
1D35
102
}
330
1D35
100
AcDbXrecord
280
     1
1071
 82437801
1071
112294725
 70
    25
 70
   104
 10
0.0
 20
0.0
 30
0.0
  0
XRECORD
  5
1D3D
102
{ACAD_REACTORS
330
1D3C
102
}
330
1D3C
100
AcDbXrecord
280
     1
1071
 82437801
1071
112294725
 70
    25
 70
   104
 10
0.0
 20
0.0
 30
0.0
  0
XRECORD
  5
1D45
102
{ACAD_REACTORS
330
1D44
102
}
330
1D44
100
AcDbXrecord
280
     1
1071
 82437801
1071
112294725
 70
    25
 70
   104
 10
0.0
 20
0.0
 30
0.0
  0
XRECORD
  5
4B42
102
{ACAD_REACTORS
330
4B41
102
}
330
4B41
100
AcDbXrecord
280
     1
1071
 82437801
1071
112294725
 70
    25
 70
   104
 10
0.0
 20
0.0
 30
0.0
  0
XRECORD
  5
1D54
102
{ACAD_REACTORS
330
1D53
102
}
330
1D53
100
AcDbXrecord
280
     1
1071
 82437801
1071
112294725
 70
    25
 70
   104
 10
0.0
 20
0.0
 30
0.0
  0
XRECORD
  5
2124
102
{ACAD_REACTORS
330
2123
102
}
330
2123
100
AcDbXrecord
280
     1
1071
 82437801
1071
112294725
 70
    25
 70
   104
 10
0.0
 20
0.0
 30
0.0
  0
XRECORD
  5
212D
102
{ACAD_REACTORS
330
212C
102
}
330
212C
100
AcDbXrecord
280
     1
1071
 82437801
1071
112294725
 70
    25
 70
   104
 10
0.0
 20
0.0
 30
0.0
  0
XRECORD
  5
2135
102
{ACAD_REACTORS
330
2134
102
}
330
2134
100
AcDbXrecord
280
     1
1071
 82437801
1071
112294725
 70
    25
 70
   104
 10
0.0
 20
0.0
 30
0.0
  0
XRECORD
  5
5007
102
{ACAD_REACTORS
330
5006
102
}
330
5006
100
AcDbXrecord
280
     1
1071
 82437801
1071
112294725
 70
    25
 70
   104
 10
0.0
 20
0.0
 30
0.0
  0
XRECORD
  5
500E
102
{ACAD_REACTORS
330
500D
102
}
330
500D
100
AcDbXrecord
280
     1
1071
 82437801
1071
112294725
 70
    25
 70
   104
 10
0.0
 20
0.0
 30
0.0
  0
XRECORD
  5
505B
102
{ACAD_REACTORS
330
505A
102
}
330
505A
100
AcDbXrecord
280
     1
1071
 82437801
1071
112294725
 70
    25
 70
   104
 10
0.0
 20
0.0
 30
0.0
  0
XRECORD
  5
5062
102
{ACAD_REACTORS
330
5061
102
}
330
5061
100
AcDbXrecord
280
     1
1071
 82437801
1071
112294725
 70
    25
 70
   104
 10
0.0
 20
0.0
 30
0.0
  0
XRECORD
  5
51CC
102
{ACAD_REACTORS
330
51CB
102
}
330
51CB
100
AcDbXrecord
280
     1
1071
 82437801
1071
112294725
 70
    25
 70
   104
 10
0.0
 20
0.0
 30
0.0
  0
XRECORD
  5
51D4
102
{ACAD_REACTORS
330
51D3
102
}
330
51D3
100
AcDbXrecord
280
     1
1071
 82437801
1071
112294725
 70
    25
 70
   104
 10
0.0
 20
0.0
 30
0.0
  0
XRECORD
  5
51DB
102
{ACAD_REACTORS
330
51DA
102
}
330
51DA
100
AcDbXrecord
280
     1
1071
 82437801
1071
112294725
 70
    25
 70
   104
 10
0.0
 20
0.0
 30
0.0
  0
XRECORD
  5
51E4
102
{ACAD_REACTORS
330
51E3
102
}
330
51E3
100
AcDbXrecord
280
     1
1071
 82437801
1071
112294725
 70
    25
 70
   104
 10
0.0
 20
0.0
 30
0.0
  0
XRECORD
  5
52C0
102
{ACAD_REACTORS
330
52BF
102
}
330
52BF
100
AcDbXrecord
280
     1
1071
 82437801
1071
112294725
 70
    25
 70
   104
 10
0.0
 20
0.0
 30
0.0
  0
XRECORD
  5
52C9
102
{ACAD_REACTORS
330
52C8
102
}
330
52C8
100
AcDbXrecord
280
     1
1071
 82437801
1071
112294725
 70
    25
 70
   104
 10
0.0
 20
0.0
 30
0.0
  0
XRECORD
  5
52D2
102
{ACAD_REACTORS
330
52D1
102
}
330
52D1
100
AcDbXrecord
280
     1
1071
 82437801
1071
112294725
 70
    25
 70
   104
 10
0.0
 20
0.0
 30
0.0
  0
XRECORD
  5
52DF
102
{ACAD_REACTORS
330
52DE
102
}
330
52DE
100
AcDbXrecord
280
     1
1071
 82437801
1071
112294725
 70
    25
 70
   104
 10
0.0
 20
0.0
 30
0.0
  0
XRECORD
  5
52E6
102
{ACAD_REACTORS
330
52E5
102
}
330
52E5
100
AcDbXrecord
280
     1
1071
 82437801
1071
112294725
 70
    25
 70
   104
 10
0.0
 20
0.0
 30
0.0
  0
XRECORD
  5
52EF
102
{ACAD_REACTORS
330
52EE
102
}
330
52EE
100
AcDbXrecord
280
     1
1071
 82437801
1071
112294725
 70
    25
 70
   104
 10
0.0
 20
0.0
 30
0.0
  0
XRECORD
  5
54C3
102
{ACAD_REACTORS
330
54C2
102
}
330
54C2
100
AcDbXrecord
280
     1
1071
 82437801
1071
112294725
 70
    25
 70
   104
 10
0.0
 20
0.0
 30
0.0
  0
XRECORD
  5
54CA
102
{ACAD_REACTORS
330
54C9
102
}
330
54C9
100
AcDbXrecord
280
     1
1071
 82437801
1071
112294725
 70
    25
 70
   104
 10
0.0
 20
0.0
 30
0.0
  0
XRECORD
  5
54D2
102
{ACAD_REACTORS
330
54D1
102
}
330
54D1
100
AcDbXrecord
280
     1
1071
 82437801
1071
112294725
 70
    25
 70
   104
 10
0.0
 20
0.0
 30
0.0
  0
XRECORD
  5
54DA
102
{ACAD_REACTORS
330
54D9
102
}
330
54D9
100
AcDbXrecord
280
     1
1071
 82437801
1071
112294725
 70
    25
 70
   104
 10
0.0
 20
0.0
 30
0.0
  0
XRECORD
  5
54E1
102
{ACAD_REACTORS
330
54E0
102
}
330
54E0
100
AcDbXrecord
280
     1
1071
 82437801
1071
112294725
 70
    25
 70
   104
 10
0.0
 20
0.0
 30
0.0
  0
ENDSEC
  0
EOF
