  0
SECTION
  2
HEADER
  9
$ACADVER
  1
AC1027
  9
$ACADMAINTVER
 70
   105
  9
$DWGCODEPAGE
  3
ANSI_936
  9
$LASTSAVEDBY
  1
admin
  9
$REQUIREDVERSIONS
160
                 0
  9
$INSBASE
 10
0.0
 20
0.0
 30
0.0
  9
$EXTMIN
 10
0.0
 20
0.0
 30
0.0
  9
$EXTMAX
 10
2396.0
 20
1144.0
 30
0.0
  9
$LIMMIN
 10
0.0
 20
0.0
  9
$LIMMAX
 10
420.0
 20
297.0
  9
$ORTHOMODE
 70
     0
  9
$REGENMODE
 70
     1
  9
$FILLMODE
 70
     1
  9
$QTEXTMODE
 70
     0
  9
$MIRRTEXT
 70
     0
  9
$LTSCALE
 40
1.0
  9
$ATTMODE
 70
     1
  9
$TEXTSIZE
 40
20.0
  9
$TRACEWID
 40
1.0
  9
$TEXTSTYLE
  7
Standard
  9
$CLAYER
  8
DM-0.4kV-Wire
  9
$CELTYPE
  6
ByLayer
  9
$CECOLOR
 62
   256
  9
$CELTSCALE
 40
1.0
  9
$DISPSILH
 70
     0
  9
$DIMSCALE
 40
1.0
  9
$DIMASZ
 40
2.5
  9
$DIMEXO
 40
0.625
  9
$DIMDLI
 40
3.75
  9
$DIMRND
 40
0.0
  9
$DIMDLE
 40
0.0
  9
$DIMEXE
 40
1.25
  9
$DIMTP
 40
0.0
  9
$DIMTM
 40
0.0
  9
$DIMTXT
 40
2.5
  9
$DIMCEN
 40
2.5
  9
$DIMTSZ
 40
0.0
  9
$DIMTOL
 70
     0
  9
$DIMLIM
 70
     0
  9
$DIMTIH
 70
     0
  9
$DIMTOH
 70
     0
  9
$DIMSE1
 70
     0
  9
$DIMSE2
 70
     0
  9
$DIMTAD
 70
     1
  9
$DIMZIN
 70
     8
  9
$DIMBLK
  1

  9
$DIMASO
 70
     1
  9
$DIMSHO
 70
     1
  9
$DIMPOST
  1

  9
$DIMAPOST
  1

  9
$DIMALT
 70
     0
  9
$DIMALTD
 70
     3
  9
$DIMALTF
 40
0.03937007874016
  9
$DIMLFAC
 40
1.0
  9
$DIMTOFL
 70
     1
  9
$DIMTVP
 40
0.0
  9
$DIMTIX
 70
     0
  9
$DIMSOXD
 70
     0
  9
$DIMSAH
 70
     0
  9
$DIMBLK1
  1

  9
$DIMBLK2
  1

  9
$DIMSTYLE
  2
ISO-25
  9
$DIMCLRD
 70
     0
  9
$DIMCLRE
 70
     0
  9
$DIMCLRT
 70
     0
  9
$DIMTFAC
 40
1.0
  9
$DIMGAP
 40
0.625
  9
$DIMJUST
 70
     0
  9
$DIMSD1
 70
     0
  9
$DIMSD2
 70
     0
  9
$DIMTOLJ
 70
     0
  9
$DIMTZIN
 70
     8
  9
$DIMALTZ
 70
     0
  9
$DIMALTTZ
 70
     0
  9
$DIMUPT
 70
     0
  9
$DIMDEC
 70
     2
  9
$DIMTDEC
 70
     2
  9
$DIMALTU
 70
     2
  9
$DIMALTTD
 70
     3
  9
$DIMTXSTY
  7
Standard
  9
$DIMAUNIT
 70
     0
  9
$DIMADEC
 70
     0
  9
$DIMALTRND
 40
0.0
  9
$DIMAZIN
 70
     0
  9
$DIMDSEP
 70
    44
  9
$DIMATFIT
 70
     3
  9
$DIMFRAC
 70
     0
  9
$DIMLDRBLK
  1

  9
$DIMLUNIT
 70
     2
  9
$DIMLWD
 70
    -2
  9
$DIMLWE
 70
    -2
  9
$DIMTMOVE
 70
     0
  9
$DIMFXL
 40
1.0
  9
$DIMFXLON
 70
     0
  9
$DIMJOGANG
 40
0.7853981633974483
  9
$DIMTFILL
 70
     0
  9
$DIMTFILLCLR
 70
     0
  9
$DIMARCSYM
 70
     0
  9
$DIMLTYPE
  6

  9
$DIMLTEX1
  6

  9
$DIMLTEX2
  6

  9
$DIMTXTDIRECTION
 70
     0
  9
$LUNITS
 70
     2
  9
$LUPREC
 70
     4
  9
$SKETCHINC
 40
1.0
  9
$FILLETRAD
 40
0.0
  9
$AUNITS
 70
     0
  9
$AUPREC
 70
     0
  9
$MENU
  1
.
  9
$ELEVATION
 40
0.0
  9
$PELEVATION
 40
0.0
  9
$THICKNESS
 40
0.0
  9
$LIMCHECK
 70
     0
  9
$CHAMFERA
 40
0.0
  9
$CHAMFERB
 40
0.0
  9
$CHAMFERC
 40
0.0
  9
$CHAMFERD
 40
0.0
  9
$SKPOLY
 70
     0
  9
$TDCREATE
 40
2457724.731902708
  9
$TDUCREATE
 40
2457724.398569375
  9
$TDUPDATE
 40
2458046.427179386
  9
$TDUUPDATE
 40
2458046.093846053
  9
$TDINDWG
 40
0.4373534838
  9
$TDUSRTIMER
 40
0.4373534491
  9
$USRTIMER
 70
     1
  9
$ANGBASE
 50
0.0
  9
$ANGDIR
 70
     0
  9
$PDMODE
 70
     0
  9
$PDSIZE
 40
0.0
  9
$PLINEWID
 40
0.0
  9
$SPLFRAME
 70
     0
  9
$SPLINETYPE
 70
     6
  9
$SPLINESEGS
 70
     8
  9
$HANDSEED
  5
74B9
  9
$SURFTAB1
 70
     6
  9
$SURFTAB2
 70
     6
  9
$SURFTYPE
 70
     6
  9
$SURFU
 70
     6
  9
$SURFV
 70
     6
  9
$UCSBASE
  2

  9
$UCSNAME
  2

  9
$UCSORG
 10
0.0
 20
0.0
 30
0.0
  9
$UCSXDIR
 10
1.0
 20
0.0
 30
0.0
  9
$UCSYDIR
 10
0.0
 20
1.0
 30
0.0
  9
$UCSORTHOREF
  2

  9
$UCSORTHOVIEW
 70
     0
  9
$UCSORGTOP
 10
0.0
 20
0.0
 30
0.0
  9
$UCSORGBOTTOM
 10
0.0
 20
0.0
 30
0.0
  9
$UCSORGLEFT
 10
0.0
 20
0.0
 30
0.0
  9
$UCSORGRIGHT
 10
0.0
 20
0.0
 30
0.0
  9
$UCSORGFRONT
 10
0.0
 20
0.0
 30
0.0
  9
$UCSORGBACK
 10
0.0
 20
0.0
 30
0.0
  9
$PUCSBASE
  2

  9
$PUCSNAME
  2

  9
$PUCSORG
 10
0.0
 20
0.0
 30
0.0
  9
$PUCSXDIR
 10
1.0
 20
0.0
 30
0.0
  9
$PUCSYDIR
 10
0.0
 20
1.0
 30
0.0
  9
$PUCSORTHOREF
  2

  9
$PUCSORTHOVIEW
 70
     0
  9
$PUCSORGTOP
 10
0.0
 20
0.0
 30
0.0
  9
$PUCSORGBOTTOM
 10
0.0
 20
0.0
 30
0.0
  9
$PUCSORGLEFT
 10
0.0
 20
0.0
 30
0.0
  9
$PUCSORGRIGHT
 10
0.0
 20
0.0
 30
0.0
  9
$PUCSORGFRONT
 10
0.0
 20
0.0
 30
0.0
  9
$PUCSORGBACK
 10
0.0
 20
0.0
 30
0.0
  9
$USERI1
 70
     0
  9
$USERI2
 70
     0
  9
$USERI3
 70
     0
  9
$USERI4
 70
     0
  9
$USERI5
 70
     0
  9
$USERR1
 40
0.0
  9
$USERR2
 40
0.0
  9
$USERR3
 40
0.0
  9
$USERR4
 40
0.0
  9
$USERR5
 40
0.0
  9
$WORLDVIEW
 70
     1
  9
$SHADEDGE
 70
     3
  9
$SHADEDIF
 70
    70
  9
$TILEMODE
 70
     1
  9
$MAXACTVP
 70
    64
  9
$PINSBASE
 10
0.0
 20
0.0
 30
0.0
  9
$PLIMCHECK
 70
     0
  9
$PEXTMIN
 10
0.0
 20
0.0
 30
0.0
  9
$PEXTMAX
 10
0.0
 20
0.0
 30
0.0
  9
$PLIMMIN
 10
0.0
 20
0.0
  9
$PLIMMAX
 10
12.0
 20
9.0
  9
$UNITMODE
 70
     0
  9
$VISRETAIN
 70
     1
  9
$PLINEGEN
 70
     0
  9
$PSLTSCALE
 70
     1
  9
$TREEDEPTH
 70
  3020
  9
$CMLSTYLE
  2
Standard
  9
$CMLJUST
 70
     0
  9
$CMLSCALE
 40
20.0
  9
$PROXYGRAPHICS
 70
     1
  9
$MEASUREMENT
 70
     1
  9
$CELWEIGHT
370
    -1
  9
$ENDCAPS
280
     0
  9
$JOINSTYLE
280
     0
  9
$LWDISPLAY
290
     1
  9
$INSUNITS
 70
     4
  9
$HYPERLINKBASE
  1

  9
$STYLESHEET
  1

  9
$XEDIT
290
     1
  9
$CEPSNTYPE
380
     0
  9
$PSTYLEMODE
290
     1
  9
$FINGERPRINTGUID
  2
{653EACD8-77A6-4CF1-BA8B-00A6C84D356E}
  9
$VERSIONGUID
  2
{98029B6C-5FCC-486B-A915-B9AC9D1068DC}
  9
$EXTNAMES
290
     1
  9
$PSVPSCALE
 40
0.0
  9
$OLESTARTUP
290
     0
  9
$SORTENTS
280
   127
  9
$INDEXCTL
280
     0
  9
$HIDETEXT
280
     1
  9
$XCLIPFRAME
280
     2
  9
$HALOGAP
280
     0
  9
$OBSCOLOR
 70
   257
  9
$OBSLTYPE
280
     0
  9
$INTERSECTIONDISPLAY
280
     0
  9
$INTERSECTIONCOLOR
 70
   257
  9
$DIMASSOC
280
     2
  9
$PROJECTNAME
  1

  9
$CAMERADISPLAY
290
     0
  9
$LENSLENGTH
 40
50.0
  9
$CAMERAHEIGHT
 40
0.0
  9
$STEPSPERSEC
 40
2.0
  9
$STEPSIZE
 40
6.0
  9
$3DDWFPREC
 40
2.0
  9
$PSOLWIDTH
 40
5.0
  9
$PSOLHEIGHT
 40
80.0
  9
$LOFTANG1
 40
1.570796326794896
  9
$LOFTANG2
 40
1.570796326794896
  9
$LOFTMAG1
 40
0.0
  9
$LOFTMAG2
 40
0.0
  9
$LOFTPARAM
 70
     7
  9
$LOFTNORMALS
280
     1
  9
$LATITUDE
 40
37.795
  9
$LONGITUDE
 40
-122.394
  9
$NORTHDIRECTION
 40
0.0
  9
$TIMEZONE
 70
 -8000
  9
$LIGHTGLYPHDISPLAY
280
     1
  9
$TILEMODELIGHTSYNCH
280
     1
  9
$CMATERIAL
347
EC
  9
$SOLIDHIST
280
     0
  9
$SHOWHIST
280
     1
  9
$DWFFRAME
280
     2
  9
$DGNFRAME
280
     0
  9
$REALWORLDSCALE
290
     1
  9
$INTERFERECOLOR
 62
     1
  9
$INTERFEREOBJVS
345
F9
  9
$INTERFEREVPVS
346
F6
  9
$CSHADOW
280
     0
  9
$SHADOWPLANELOCATION
 40
0.0
  0
ENDSEC
  0
SECTION
  2
CLASSES
  0
CLASS
  1
ACDBDICTIONARYWDFLT
  2
AcDbDictionaryWithDefault
  3
ObjectDBX Classes
 90
        0
 91
        1
280
     0
281
     0
  0
CLASS
  1
DICTIONARYVAR
  2
AcDbDictionaryVar
  3
ObjectDBX Classes
 90
        0
 91
       12
280
     0
281
     0
  0
CLASS
  1
TABLESTYLE
  2
AcDbTableStyle
  3
ObjectDBX Classes
 90
     4095
 91
        1
280
     0
281
     0
  0
CLASS
  1
MATERIAL
  2
AcDbMaterial
  3
ObjectDBX Classes
 90
     1153
 91
        3
280
     0
281
     0
  0
CLASS
  1
VISUALSTYLE
  2
AcDbVisualStyle
  3
ObjectDBX Classes
 90
     4095
 91
       26
280
     0
281
     0
  0
CLASS
  1
SCALE
  2
AcDbScale
  3
ObjectDBX Classes
 90
     1153
 91
       17
280
     0
281
     0
  0
CLASS
  1
MLEADERSTYLE
  2
AcDbMLeaderStyle
  3
ACDB_MLEADERSTYLE_CLASS
 90
     4095
 91
        2
280
     0
281
     0
  0
CLASS
  1
CELLSTYLEMAP
  2
AcDbCellStyleMap
  3
ObjectDBX Classes
 90
     1152
 91
        1
280
     0
281
     0
  0
CLASS
  1
EXACXREFPANELOBJECT
  2
ExAcXREFPanelObject
  3
EXAC_ESW
 90
     1025
 91
        0
280
     0
281
     0
  0
CLASS
  1
NPOCOLLECTION
  2
AcDbImpNonPersistentObjectsCollection
  3
ObjectDBX Classes
 90
     1153
 91
        0
280
     0
281
     0
  0
CLASS
  1
LAYER_INDEX
  2
AcDbLayerIndex
  3
ObjectDBX Classes
 90
        0
 91
        0
280
     0
281
     0
  0
CLASS
  1
SPATIAL_INDEX
  2
AcDbSpatialIndex
  3
ObjectDBX Classes
 90
        0
 91
        0
280
     0
281
     0
  0
CLASS
  1
IDBUFFER
  2
AcDbIdBuffer
  3
ObjectDBX Classes
 90
        0
 91
        0
280
     0
281
     0
  0
CLASS
  1
ACDBSECTIONVIEWSTYLE
  2
AcDbSectionViewStyle
  3
ObjectDBX Classes
 90
     1025
 91
        1
280
     0
281
     0
  0
CLASS
  1
ACDBDETAILVIEWSTYLE
  2
AcDbDetailViewStyle
  3
ObjectDBX Classes
 90
     1025
 91
        1
280
     0
281
     0
  0
CLASS
  1
ACAD_EVALUATION_GRAPH
  2
AcDbEvalGraph
  3
ObjectDBX Classes
 90
     1153
 91
       13
280
     0
281
     0
  0
CLASS
  1
BLOCKBASEPOINTPARAMETER
  2
AcDbBlockBasepointParameter
  3
ObjectDBX Classes
 90
     1153
 91
       13
280
     0
281
     0
  0
CLASS
  1
ACDB_DYNAMICBLOCKPURGEPREVENTER_VERSION
  2
AcDbDynamicBlockPurgePreventer
  3
ObjectDBX Classes
 90
     1153
 91
       13
280
     0
281
     0
  0
CLASS
  1
SORTENTSTABLE
  2
AcDbSortentsTable
  3
ObjectDBX Classes
 90
        0
 91
        5
280
     0
281
     0
  0
CLASS
  1
ACDB_BLOCKREPRESENTATION_DATA
  2
AcDbBlockRepresentationData
  3
ObjectDBX Classes
 90
     1153
 91
       33
280
     0
281
     0
  0
CLASS
  1
ACDBASSOCPERSSUBENTMANAGER
  2
AcDbAssocPersSubentManager
  3
ObjectDBX Classes
 90
     1024
 91
        1
280
     0
281
     0
  0
CLASS
  1
ACDBPERSSUBENTMANAGER
  2
AcDbPersSubentManager
  3
AcDbPersSubentManager
 90
     1024
 91
        1
280
     0
281
     0
  0
CLASS
  1
ACAECUSTOBJ
  2
AcAeEditorObj
  3
AcAeEditorObj
 90
     1024
 91
        0
280
     0
281
     0
  0
CLASS
  1
BASEPOINTPARAMETERENTITY
  2
AcDbBlockBasepointParameterEntity
  3
ObjectDBX Classes
 90
     1025
 91
        0
280
     0
281
     1
  0
CLASS
  1
ACAEEEMGROBJ
  2
AcAeEEMgrObj
  3
AcAeEEMgrObj
 90
     1024
 91
        0
280
     0
281
     0
  0
ENDSEC
  0
SECTION
  2
TABLES
  0
TABLE
  2
VPORT
  5
8
102
{ACAD_XDICTIONARY
360
4F8F
102
}
330
0
100
AcDbSymbolTable
 70
     1
  0
VPORT
  5
EA
330
8
100
AcDbSymbolTableRecord
100
AcDbViewportTableRecord
  2
*Active
 70
     0
 10
0.0
 20
0.0
 11
1.0
 21
1.0
 12
789.8864352961477
 22
631.0063788497254
 13
0.0
 23
0.0
 14
10.0
 24
10.0
 15
10.0
 25
10.0
 16
0.0
 26
0.0
 36
1.0
 17
0.0
 27
0.0
 37
0.0
 40
676.2922402120002
 41
1.3325
 42
50.0
 43
0.0
 44
0.0
 50
0.0
 51
0.0
 71
     0
 72
  1000
 73
     1
 74
     3
 75
     0
 76
     1
 77
     0
 78
     0
281
     0
 65
     1
110
0.0
120
0.0
130
0.0
111
1.0
121
0.0
131
0.0
112
0.0
122
1.0
132
0.0
 79
     0
146
0.0
348
F5
 60
     3
 61
     5
292
     1
282
     1
141
0.0
142
0.0
 63
   250
421
  3355443
1001
ACAD_NAV_VCDISPLAY
1070
     3
  0
ENDTAB
  0
TABLE
  2
LTYPE
  5
5
330
0
100
AcDbSymbolTable
 70
     5
  0
LTYPE
  5
14
330
5
100
AcDbSymbolTableRecord
100
AcDbLinetypeTableRecord
  2
ByBlock
 70
     0
  3

 72
    65
 73
     0
 40
0.0
  0
LTYPE
  5
15
330
5
100
AcDbSymbolTableRecord
100
AcDbLinetypeTableRecord
  2
ByLayer
 70
     0
  3

 72
    65
 73
     0
 40
0.0
  0
LTYPE
  5
16
330
5
100
AcDbSymbolTableRecord
100
AcDbLinetypeTableRecord
  2
Continuous
 70
     0
  3
Solid line
 72
    65
 73
     0
 40
0.0
  0
LTYPE
  5
532
330
5
100
AcDbSymbolTableRecord
100
AcDbLinetypeTableRecord
  2
ACAD_ISO03W100
 70
     0
  3
ISO dash space __    __    __    __    __    __
 72
    65
 73
     2
 40
30.0
 49
12.0
 74
     0
 49
-18.0
 74
     0
  0
LTYPE
  5
533
330
5
100
AcDbSymbolTableRecord
100
AcDbLinetypeTableRecord
  2
DASHED2
 70
     0
  3
Dashed (.5x) _ _ _ _ _ _ _ _ _ _ _ _ _ _ _ _ _
 72
    65
 73
     2
 40
9.524999999999998
 49
6.349999999999999
 74
     0
 49
-3.174999999999999
 74
     0
  0
LTYPE
  5
3C52
330
5
100
AcDbSymbolTableRecord
100
AcDbLinetypeTableRecord
  2
DASHED
 70
     0
  3
__ __ __ __ __ __ __ __ __ __ __ __ __ __ __ __
 72
    65
 73
     2
 40
0.75
 49
0.5
 74
     0
 49
-0.25
 74
     0
  0
ENDTAB
  0
TABLE
  2
LAYER
  5
2
102
{ACAD_XDICTIONARY
360
1FF
102
}
330
0
100
AcDbSymbolTable
 70
    38
  0
LAYER
  5
10
102
{ACAD_XDICTIONARY
360
13C
102
}
330
2
100
AcDbSymbolTableRecord
100
AcDbLayerTableRecord
  2
0
 70
     0
 62
     7
  6
Continuous
370
    -3
390
F
347
EE
348
0
  0
LAYER
  5
534
330
2
100
AcDbSymbolTableRecord
100
AcDbLayerTableRecord
  2
DM-ZCT
 70
     0
 62
     7
  6
Continuous
370
    -3
390
F
347
EE
348
0
1001
AcAecLayerStandard
1000

1000

  0
LAYER
  5
535
330
2
100
AcDbSymbolTableRecord
100
AcDbLayerTableRecord
  2
DM-GND
 70
     0
 62
     7
  6
Continuous
370
    -3
390
F
347
EE
348
0
1001
AcAecLayerStandard
1000

1000

  0
LAYER
  5
536
330
2
100
AcDbSymbolTableRecord
100
AcDbLayerTableRecord
  2
DM-Earthing Switch
 70
     0
 62
     7
  6
Continuous
370
    -3
390
F
347
EE
348
0
1001
AcAecLayerStandard
1000

1000

  0
LAYER
  5
537
330
2
100
AcDbSymbolTableRecord
100
AcDbLayerTableRecord
  2
DM-Outgoing Line
 70
     0
 62
     7
  6
Continuous
370
    -3
390
F
347
EE
348
0
1001
AcAecLayerStandard
1000

1000

  0
LAYER
  5
538
330
2
100
AcDbSymbolTableRecord
100
AcDbLayerTableRecord
  2
DM-Arrester
 70
     0
 62
     7
  6
Continuous
370
    -3
390
F
347
EE
348
0
1001
AcAecLayerStandard
1000

1000

  0
LAYER
  5
539
330
2
100
AcDbSymbolTableRecord
100
AcDbLayerTableRecord
  2
DM-VCB
 70
     0
 62
     7
  6
Continuous
370
    -3
390
F
347
EE
348
0
1001
AcAecLayerStandard
1000

1000

  0
LAYER
  5
53A
330
2
100
AcDbSymbolTableRecord
100
AcDbLayerTableRecord
  2
DM-DXN-T
 70
     0
 62
     7
  6
Continuous
370
    -3
390
F
347
EE
348
0
1001
AcAecLayerStandard
1000

1000

  0
LAYER
  5
53B
330
2
100
AcDbSymbolTableRecord
100
AcDbLayerTableRecord
  2
DM-CT
 70
     0
 62
     7
  6
Continuous
370
    -3
390
F
347
EE
348
0
1001
AcAecLayerStandard
1000

1000

  0
LAYER
  5
53C
330
2
100
AcDbSymbolTableRecord
100
AcDbLayerTableRecord
  2
DM-10kV-Wire
 70
     0
 62
     1
  6
Continuous
370
    -3
390
F
347
EE
348
0
1001
AcAecLayerStandard
1000

1000

  0
LAYER
  5
53D
330
2
100
AcDbSymbolTableRecord
100
AcDbLayerTableRecord
  2
DM-HPT-180
 70
     0
 62
     7
  6
Continuous
370
    -3
390
F
347
EE
348
0
1001
AcAecLayerStandard
1000

1000

  0
LAYER
  5
53E
330
2
100
AcDbSymbolTableRecord
100
AcDbLayerTableRecord
  2
DM-Handcart-180
 70
     0
 62
     7
  6
Continuous
370
    -3
390
F
347
EE
348
0
1001
AcAecLayerStandard
1000

1000

  0
LAYER
  5
53F
330
2
100
AcDbSymbolTableRecord
100
AcDbLayerTableRecord
  2
DM-Outgoing Line-180
 70
     0
 62
     7
  6
Continuous
370
    -3
390
F
347
EE
348
0
1001
AcAecLayerStandard
1000

1000

  0
LAYER
  5
540
330
2
100
AcDbSymbolTableRecord
100
AcDbLayerTableRecord
  2
DM-Wireframe
 70
     0
 62
     7
  6
Continuous
370
    -3
390
F
347
EE
348
0
1001
AcAecLayerStandard
1000

1000

  0
LAYER
  5
541
330
2
100
AcDbSymbolTableRecord
100
AcDbLayerTableRecord
  2
DM-Text
 70
     0
 62
     7
  6
Continuous
370
    -3
390
F
347
EE
348
0
1001
AcAecLayerStandard
1000

1000

  0
LAYER
  5
542
330
2
100
AcDbSymbolTableRecord
100
AcDbLayerTableRecord
  2
DM-HPT
 70
     0
 62
     7
  6
Continuous
370
    -3
390
F
347
EE
348
0
1001
AcAecLayerStandard
1000

1000

  0
LAYER
  5
543
330
2
100
AcDbSymbolTableRecord
100
AcDbLayerTableRecord
  2
DM-Handcart
 70
     0
 62
     7
  6
Continuous
370
    -3
390
F
347
EE
348
0
1001
AcAecLayerStandard
1000

1000

  0
LAYER
  5
1B7C
330
2
100
AcDbSymbolTableRecord
100
AcDbLayerTableRecord
  2
标注图层（高压）
 70
     0
 62
   220
  6
Continuous
370
    -3
390
F
347
EE
348
0
1001
AcAecLayerStandard
1000

1000

1001
AcCmTransparency
1071
        0
  0
LAYER
  5
1C25
330
2
100
AcDbSymbolTableRecord
100
AcDbLayerTableRecord
  2
DM-0.4kV-Wire
 70
     0
 62
     3
  6
Continuous
370
    -3
390
F
347
EE
348
0
1001
AcAecLayerStandard
1000

1000

  0
LAYER
  5
1C26
330
2
100
AcDbSymbolTableRecord
100
AcDbLayerTableRecord
  2
DM-DblClmnTrans
 70
     0
 62
     7
  6
Continuous
370
    -3
390
F
347
EE
348
0
1001
AcAecLayerStandard
1000

1000

  0
LAYER
  5
214B
330
2
100
AcDbSymbolTableRecord
100
AcDbLayerTableRecord
  2
标注图层（低压）
 70
     0
 62
   100
  6
Continuous
370
    -3
390
F
347
EE
348
0
1001
AcAecLayerStandard
1000

1000

1001
AcCmTransparency
1071
        0
  0
LAYER
  5
27E9
330
2
100
AcDbSymbolTableRecord
100
AcDbLayerTableRecord
  2
DM-GND-270
 70
     0
 62
     7
  6
Continuous
370
    -3
390
F
347
EE
348
0
1001
AcAecLayerStandard
1000

1000

  0
LAYER
  5
27EA
330
2
100
AcDbSymbolTableRecord
100
AcDbLayerTableRecord
  2
DM-Arrester-270
 70
     0
 62
     7
  6
Continuous
370
    -3
390
F
347
EE
348
0
1001
AcAecLayerStandard
1000

1000

  0
LAYER
  5
27EB
330
2
100
AcDbSymbolTableRecord
100
AcDbLayerTableRecord
  2
DM-DXN-T-270
 70
     0
 62
     7
  6
Continuous
370
    -3
390
F
347
EE
348
0
1001
AcAecLayerStandard
1000

1000

1001
AcCmTransparency
1071
        0
  0
LAYER
  5
27EC
330
2
100
AcDbSymbolTableRecord
100
AcDbLayerTableRecord
  2
DM-Earthing Switch-90
 70
     0
 62
     7
  6
Continuous
370
    -3
390
F
347
EE
348
0
1001
AcAecLayerStandard
1000

1000

1001
AcCmTransparency
1071
        0
  0
LAYER
  5
27ED
330
2
100
AcDbSymbolTableRecord
100
AcDbLayerTableRecord
  2
DM-DXN-T-90
 70
     0
 62
     7
  6
Continuous
370
    -3
390
F
347
EE
348
0
1001
AcAecLayerStandard
1000

1000

1001
AcCmTransparency
1071
        0
  0
LAYER
  5
3C53
330
2
100
AcDbSymbolTableRecord
100
AcDbLayerTableRecord
  2
DM-10kV-Cable
 70
     0
 62
     1
  6
Continuous
370
    30
390
F
347
EE
348
0
1001
AcAecLayerStandard
1000

1000

  0
LAYER
  5
3C54
330
2
100
AcDbSymbolTableRecord
100
AcDbLayerTableRecord
  2
DM-Knife Switch
 70
     0
 62
     7
  6
Continuous
370
    -3
390
F
347
EE
348
0
1001
AcAecLayerStandard
1000

1000

  0
LAYER
  5
3C55
330
2
100
AcDbSymbolTableRecord
100
AcDbLayerTableRecord
  2
DM-HV FUSE
 70
     0
 62
     7
  6
Continuous
370
    -3
390
F
347
EE
348
0
1001
AcAecLayerStandard
1000

1000

  0
LAYER
  5
3C56
330
2
100
AcDbSymbolTableRecord
100
AcDbLayerTableRecord
  2
DM-Ctrl-Wire
 70
     0
 62
     5
  6
Continuous
370
    -3
390
F
347
EE
348
0
1001
AcAecLayerStandard
1000

1000

  0
LAYER
  5
3C57
330
2
100
AcDbSymbolTableRecord
100
AcDbLayerTableRecord
  2
DM-GND-180
 70
     0
 62
     7
  6
Continuous
370
    -3
390
F
347
EE
348
0
1001
AcAecLayerStandard
1000

1000

1001
AcCmTransparency
1071
        0
  0
LAYER
  5
3C58
330
2
100
AcDbSymbolTableRecord
100
AcDbLayerTableRecord
  2
DM-DXN-T-180
 70
     0
 62
     7
  6
Continuous
370
    -3
390
F
347
EE
348
0
1001
AcAecLayerStandard
1000

1000

1001
AcCmTransparency
1071
        0
  0
LAYER
  5
4075
330
2
100
AcDbSymbolTableRecord
100
AcDbLayerTableRecord
  2
DM-Arrester-180
 70
     0
 62
     7
  6
Continuous
370
    -3
390
F
347
EE
348
0
1001
AcAecLayerStandard
1000

1000

1001
AcCmTransparency
1071
        0
  0
LAYER
  5
4CC9
330
2
100
AcDbSymbolTableRecord
100
AcDbLayerTableRecord
  2
DM-GND-90
 70
     0
 62
     7
  6
Continuous
370
    -3
390
F
347
EE
348
0
1001
AcAecLayerStandard
1000

1000

1001
AcCmTransparency
1071
        0
  0
LAYER
  5
4D26
330
2
100
AcDbSymbolTableRecord
100
AcDbLayerTableRecord
  2
DM-0.4kV-Cable
 70
     0
 62
     3
  6
Continuous
370
    30
390
F
347
EE
348
0
1001
AcAecLayerStandard
1000

1000

1001
AcCmTransparency
1071
        0
  0
LAYER
  5
4E21
330
2
100
AcDbSymbolTableRecord
100
AcDbLayerTableRecord
  2
Defpoints
 70
     0
 62
     7
  6
Continuous
290
     0
370
    -3
390
F
347
EE
348
0
  0
LAYER
  5
70A1
102
{ACAD_XDICTIONARY
360
70A2
102
}
330
2
100
AcDbSymbolTableRecord
100
AcDbLayerTableRecord
  2
BORDER
 70
     0
 62
    15
  6
Continuous
370
    -3
390
F
347
EE
348
0
  0
LAYER
  5
71D3
330
2
100
AcDbSymbolTableRecord
100
AcDbLayerTableRecord
  2
DM-Earthing Switch-270
 70
     0
 62
     7
  6
Continuous
370
    -3
390
F
347
EE
348
0
1001
AcAecLayerStandard
1000

1000

1001
AcCmTransparency
1071
        0
  0
ENDTAB
  0
TABLE
  2
STYLE
  5
3
330
0
100
AcDbSymbolTable
 70
     2
  0
STYLE
  5
11
330
3
100
AcDbSymbolTableRecord
100
AcDbTextStyleTableRecord
  2
Standard
 70
     0
 40
0.0
 41
1.0
 50
0.0
 71
     0
 42
20.0
  3
arial.ttf
  4

1001
ACAD
1000
Arial
1071
       34
  0
STYLE
  5
132
330
3
100
AcDbSymbolTableRecord
100
AcDbTextStyleTableRecord
  2
Annotative
 70
     0
 40
0.0
 41
1.0
 50
0.0
 71
     0
 42
2.5
  3
arial.ttf
  4

1001
AcadAnnotative
1000
AnnotativeData
1002
{
1070
     1
1070
     1
1002
}
1001
ACAD
1000
Arial
1071
       34
  0
ENDTAB
  0
TABLE
  2
VIEW
  5
6
330
0
100
AcDbSymbolTable
 70
     1
  0
ENDTAB
  0
TABLE
  2
UCS
  5
7
330
0
100
AcDbSymbolTable
 70
     0
  0
ENDTAB
  0
TABLE
  2
APPID
  5
9
330
0
100
AcDbSymbolTable
 70
    16
  0
APPID
  5
12
330
9
100
AcDbSymbolTableRecord
100
AcDbRegAppTableRecord
  2
ACAD
 70
     0
  0
APPID
  5
9E
330
9
100
AcDbSymbolTableRecord
100
AcDbRegAppTableRecord
  2
ACAD_PSEXT
 70
     0
  0
APPID
  5
133
330
9
100
AcDbSymbolTableRecord
100
AcDbRegAppTableRecord
  2
AcadAnnoPO
 70
     0
  0
APPID
  5
134
330
9
100
AcDbSymbolTableRecord
100
AcDbRegAppTableRecord
  2
AcadAnnotative
 70
     0
  0
APPID
  5
135
330
9
100
AcDbSymbolTableRecord
100
AcDbRegAppTableRecord
  2
ACAD_DSTYLE_DIMJAG
 70
     0
  0
APPID
  5
136
330
9
100
AcDbSymbolTableRecord
100
AcDbRegAppTableRecord
  2
ACAD_DSTYLE_DIMTALN
 70
     0
  0
APPID
  5
165
330
9
100
AcDbSymbolTableRecord
100
AcDbRegAppTableRecord
  2
ACAD_MLEADERVER
 70
     0
  0
APPID
  5
217
330
9
100
AcDbSymbolTableRecord
100
AcDbRegAppTableRecord
  2
ACAD_NAV_VCDISPLAY
 70
     0
  0
APPID
  5
544
330
9
100
AcDbSymbolTableRecord
100
AcDbRegAppTableRecord
  2
AcDbDynamicBlockGUID
 70
     0
  0
APPID
  5
545
330
9
100
AcDbSymbolTableRecord
100
AcDbRegAppTableRecord
  2
AcDbDynamicBlockTrueName
 70
     0
  0
APPID
  5
546
330
9
100
AcDbSymbolTableRecord
100
AcDbRegAppTableRecord
  2
AcDbBlockRepETag
 70
     0
  0
APPID
  5
547
330
9
100
AcDbSymbolTableRecord
100
AcDbRegAppTableRecord
  2
AcDbBlockRepBTag
 70
     0
  0
APPID
  5
548
330
9
100
AcDbSymbolTableRecord
100
AcDbRegAppTableRecord
  2
AcAecLayerStandard
 70
     0
  0
APPID
  5
1B72
330
9
100
AcDbSymbolTableRecord
100
AcDbRegAppTableRecord
  2
ACAD_EXEMPT_FROM_CAD_STANDARDS
 70
     0
  0
APPID
  5
1B7D
330
9
100
AcDbSymbolTableRecord
100
AcDbRegAppTableRecord
  2
AcCmTransparency
 70
     0
  0
APPID
  5
4AB7
330
9
100
AcDbSymbolTableRecord
100
AcDbRegAppTableRecord
  2
ACAUTHENVIRON
 70
     0
  0
ENDTAB
  0
TABLE
  2
DIMSTYLE
  5
A
330
0
100
AcDbSymbolTable
 70
     3
100
AcDbDimStyleTable
 71
     2
340
27
340
137
  0
DIMSTYLE
105
1B0
330
A
100
AcDbSymbolTableRecord
100
AcDbDimStyleTableRecord
  2
Standard
 70
     0
340
11
  0
DIMSTYLE
105
137
330
A
100
AcDbSymbolTableRecord
100
AcDbDimStyleTableRecord
  2
Annotative
 70
     0
 40
0.0
 41
2.5
 42
0.625
 43
3.75
 44
1.25
 73
     0
 74
     0
 77
     1
 78
     8
140
2.5
141
2.5
143
0.03937007874016
147
0.625
171
     3
172
     1
271
     2
272
     2
274
     3
278
    44
283
     0
284
     8
340
11
1001
AcadAnnotative
1000
AnnotativeData
1002
{
1070
     1
1070
     1
1002
}
1001
ACAD_DSTYLE_DIMJAG
1070
   388
1040
1.5
1001
ACAD_DSTYLE_DIMTALN
1070
   392
1070
     0
  0
DIMSTYLE
105
27
330
A
100
AcDbSymbolTableRecord
100
AcDbDimStyleTableRecord
  2
ISO-25
 70
     0
 41
2.5
 42
0.625
 43
3.75
 44
1.25
 73
     0
 74
     0
 77
     1
 78
     8
140
2.5
141
2.5
143
0.03937007874016
147
0.625
171
     3
172
     1
271
     2
272
     2
274
     3
278
    44
283
     0
284
     8
340
11
  0
ENDTAB
  0
TABLE
  2
BLOCK_RECORD
  5
1
330
0
100
AcDbSymbolTable
 70
    91
  0
BLOCK_RECORD
  5
1F
102
{ACAD_XDICTIONARY
360
1CE
102
}
330
1
100
AcDbSymbolTableRecord
100
AcDbBlockTableRecord
  2
*Model_Space
340
22
 70
     0
280
     1
281
     0
  0
BLOCK_RECORD
  5
D2
330
1
100
AcDbSymbolTableRecord
100
AcDbBlockTableRecord
  2
*Paper_Space
340
D3
 70
     0
280
     1
281
     0
  0
BLOCK_RECORD
  5
D6
330
1
100
AcDbSymbolTableRecord
100
AcDbBlockTableRecord
  2
*Paper_Space0
340
D7
 70
     0
280
     1
281
     0
  0
BLOCK_RECORD
  5
25F
102
{ACAD_XDICTIONARY
360
260
102
}
330
1
100
AcDbSymbolTableRecord
100
AcDbBlockTableRecord
  2
DM-ZCT
340
0
 70
     4
280
     1
281
     0
1001
AcDbBlockRepETag
1070
     1
1071
        7
1001
AcDbDynamicBlockTrueName
1000
DM-ZCT
1001
AcDbDynamicBlockGUID
1000
{DED5EF8E-6339-4EE0-A490-487238975096}
  0
BLOCK_RECORD
  5
26D
102
{ACAD_XDICTIONARY
360
4AB4
102
}
330
1
100
AcDbSymbolTableRecord
100
AcDbBlockTableRecord
  2
DM-GND
340
0
310
2800000020000000200000000100080000000000000400000000000000000000000000000000000000000000000080000080000000808000800000008000800080800000C0C0C000C0DCC000F0CAA6000020400000206000002080000020A0000020C0000020E00000400000004020000040400000406000004080000040A0
310
000040C0000040E00000600000006020000060400000606000006080000060A0000060C0000060E00000800000008020000080400000806000008080000080A0000080C0000080E00000A0000000A0200000A0400000A0600000A0800000A0A00000A0C00000A0E00000C0000000C0200000C0400000C0600000C0800000C0
310
A00000C0C00000C0E00000E0000000E0200000E0400000E0600000E0800000E0A00000E0C00000E0E00040000000400020004000400040006000400080004000A0004000C0004000E00040200000402020004020400040206000402080004020A0004020C0004020E000404000004040200040404000404060004040800040
310
40A0004040C0004040E00040600000406020004060400040606000406080004060A0004060C0004060E00040800000408020004080400040806000408080004080A0004080C0004080E00040A0000040A0200040A0400040A0600040A0800040A0A00040A0C00040A0E00040C0000040C0200040C0400040C0600040C08000
310
40C0A00040C0C00040C0E00040E0000040E0200040E0400040E0600040E0800040E0A00040E0C00040E0E00080000000800020008000400080006000800080008000A0008000C0008000E00080200000802020008020400080206000802080008020A0008020C0008020E00080400000804020008040400080406000804080
310
008040A0008040C0008040E00080600000806020008060400080606000806080008060A0008060C0008060E00080800000808020008080400080806000808080008080A0008080C0008080E00080A0000080A0200080A0400080A0600080A0800080A0A00080A0C00080A0E00080C0000080C0200080C0400080C0600080C0
310
800080C0A00080C0C00080C0E00080E0000080E0200080E0400080E0600080E0800080E0A00080E0C00080E0E000C0000000C0002000C0004000C0006000C0008000C000A000C000C000C000E000C0200000C0202000C0204000C0206000C0208000C020A000C020C000C020E000C0400000C0402000C0404000C0406000C0
310
408000C040A000C040C000C040E000C0600000C0602000C0604000C0606000C0608000C060A000C060C000C060E000C0800000C0802000C0804000C0806000C0808000C080A000C080C000C080E000C0A00000C0A02000C0A04000C0A06000C0A08000C0A0A000C0A0C000C0A0E000C0C00000C0C02000C0C04000C0C06000
310
C0C08000C0C0A000F0FBFF00A4A0A000808080000000FF0000FF000000FFFF00FF000000FF00FF00FFFF0000FFFFFF00000000000000000000000000000000000000000000000000000000000000000000000000000000000000000000FFFFFFFFFFFF00000000000000000000000000000000000000000000000000000000
310
00000000000000000000000000000000000000000000000000000000000000000000000000000000000000000000000000000000000000000000000000000000000000000000000000000000000000000000000000000000000000000000000000000000000000000000000000000000000000000000000000000000FFFFFF
310
FFFFFFFFFFFFFF000000000000000000000000000000000000000000000000000000000000000000000000000000000000000000000000000000000000000000000000000000000000000000000000000000000000000000000000000000000000000000000000000000000000000000000000000000000000000000000000
310
00000000000000000000000000000000000000000000000000FFFFFFFFFFFFFFFFFFFFFFFFFFFFFFFFFFFFFFFF00000000000000000000000000000000000000000000FF00000000000000000000000000000000000000000000000000000000000000FF000000000000000000000000000000000000000000000000000000
310
00000000FF00000000000000000000000000000000000000000000000000000000000000FF00000000000000000000000000000000000000000000000000000000000000FF00000000000000000000000000000000000000000000000000000000000000FF0000000000000000000000000000000000000000000000000000
310
0000000000FF00000000000000000000000000000000000000000000000000000000000000FF00000000000000000000000000000000000000000000000000000000000000FF00000000000000000000000000000000000000000000000000000000000000FF00000000000000000000000000000000000000000000000000
310
000000000000FF00000000000000000000000000000000000000000000000000000000000000FF00000000000000000000000000000000000000000000000000000000000000FF00000000000000000000000000000000000000000000000000000000000000FF000000000000000000000000000000000000000000000000
310
00000000000000FF00000000000000000000000000000000000000000000000000000000000000FF00000000000000000000000000000000000000000000000000000000000000FF00000000000000000000000000000000000000000000000000000000000000FF0000000000000000000000000000000000000000000000
310
0000000000000000FF0000000000000000000000000000000000000000000000000000000000000000000000000000000000000000000000
 70
     4
280
     1
281
     0
1001
AcDbBlockRepETag
1070
     1
1071
        5
1001
AcDbDynamicBlockTrueName
1000
DM-GND
1001
AcDbDynamicBlockGUID
1000
{7DDB1551-A4F8-4AAD-8FDD-A68FAD188131}
  0
BLOCK_RECORD
  5
279
102
{ACAD_XDICTIONARY
360
4C05
102
}
330
1
100
AcDbSymbolTableRecord
100
AcDbBlockTableRecord
  2
DM-Earthing Switch
340
0
310
2800000020000000200000000100080000000000000400000000000000000000000000000000000000000000000080000080000000808000800000008000800080800000C0C0C000C0DCC000F0CAA6000020400000206000002080000020A0000020C0000020E00000400000004020000040400000406000004080000040A0
310
000040C0000040E00000600000006020000060400000606000006080000060A0000060C0000060E00000800000008020000080400000806000008080000080A0000080C0000080E00000A0000000A0200000A0400000A0600000A0800000A0A00000A0C00000A0E00000C0000000C0200000C0400000C0600000C0800000C0
310
A00000C0C00000C0E00000E0000000E0200000E0400000E0600000E0800000E0A00000E0C00000E0E00040000000400020004000400040006000400080004000A0004000C0004000E00040200000402020004020400040206000402080004020A0004020C0004020E000404000004040200040404000404060004040800040
310
40A0004040C0004040E00040600000406020004060400040606000406080004060A0004060C0004060E00040800000408020004080400040806000408080004080A0004080C0004080E00040A0000040A0200040A0400040A0600040A0800040A0A00040A0C00040A0E00040C0000040C0200040C0400040C0600040C08000
310
40C0A00040C0C00040C0E00040E0000040E0200040E0400040E0600040E0800040E0A00040E0C00040E0E00080000000800020008000400080006000800080008000A0008000C0008000E00080200000802020008020400080206000802080008020A0008020C0008020E00080400000804020008040400080406000804080
310
008040A0008040C0008040E00080600000806020008060400080606000806080008060A0008060C0008060E00080800000808020008080400080806000808080008080A0008080C0008080E00080A0000080A0200080A0400080A0600080A0800080A0A00080A0C00080A0E00080C0000080C0200080C0400080C0600080C0
310
800080C0A00080C0C00080C0E00080E0000080E0200080E0400080E0600080E0800080E0A00080E0C00080E0E000C0000000C0002000C0004000C0006000C0008000C000A000C000C000C000E000C0200000C0202000C0204000C0206000C0208000C020A000C020C000C020E000C0400000C0402000C0404000C0406000C0
310
408000C040A000C040C000C040E000C0600000C0602000C0604000C0606000C0608000C060A000C060C000C060E000C0800000C0802000C0804000C0806000C0808000C080A000C080C000C080E000C0A00000C0A02000C0A04000C0A06000C0A08000C0A0A000C0A0C000C0A0E000C0C00000C0C02000C0C04000C0C06000
310
C0C08000C0C0A000F0FBFF00A4A0A000808080000000FF0000FF000000FFFF00FF000000FF00FF00FFFF0000FFFFFF00000000000000000000000000000000000000000000000000000000000000000000000000000000000000000000000000FFFFFF00000000000000000000000000000000000000000000000000000000
310
000000000000000000000000000000000000000000000000000000000000000000FFFFFFFF00000000000000000000000000000000000000000000000000000000000000000000000000000000000000000000000000000000000000000000FFFFFFFFFFFFFFFF000000000000000000000000000000000000000000000000
310
000000FF00000000000000000000000000000000000000000000000000000000000000FF00000000000000000000000000000000000000000000000000000000000000FF00000000000000000000000000000000000000000000000000000000000000FF000000000000000000000000000000000000000000000000000000
310
00000000FF00000000000000000000000000000000000000000000000000000000000000FF00000000000000000000000000000000000000000000000000000000000000FF000000000000000000000000000000000000000000000000000000000000FF000000000000000000000000000000000000000000000000000000
310
00000000FF000000000000000000000000000000000000000000000000000000000000FF00000000000000000000000000000000000000000000000000000000000000FF000000000000000000000000000000000000000000000000000000000000FF00000000000000000000000000000000000000000000000000000000
310
000000FF000000000000000000000000000000000000000000000000000000000000FF000000000000000000000000000000000000000000000000000000000000FF00000000000000000000000000000000000000000000000000000000000000FF0000000000000000000000000000000000000000000000000000000000
310
00FF00000000000000000000000000000000000000000000000000000000000000FF000000000000000000000000000000000000000000000000000000000000FF0000000000000000000000000000000000000000000000000000000000000000000000FFFFFFFFFFFFFFFF00000000000000000000000000000000000000
310
0000000000000000FF00000000000000000000000000000000000000000000000000000000000000FF00000000000000000000000000000000000000000000000000000000000000FF00000000000000000000000000000000000000000000000000000000000000FF00000000000000000000000000000000000000000000
310
000000000000000000FF00000000000000000000000000000000000000000000000000000000000000000000000000000000000000000000
 70
     4
280
     1
281
     0
1001
AcDbBlockRepETag
1070
     1
1071
        9
1001
AcDbDynamicBlockTrueName
1000
DM-Earthing Switch
1001
AcDbDynamicBlockGUID
1000
{BA96303A-3AAF-4EEC-A17F-F5628F4F7571}
  0
BLOCK_RECORD
  5
284
102
{ACAD_XDICTIONARY
360
285
102
}
330
1
100
AcDbSymbolTableRecord
100
AcDbBlockTableRecord
  2
DM-Outgoing Line
340
0
310
2800000020000000200000000100080000000000000400000000000000000000000000000000000000000000000080000080000000808000800000008000800080800000C0C0C000C0DCC000F0CAA6000020400000206000002080000020A0000020C0000020E00000400000004020000040400000406000004080000040A0
310
000040C0000040E00000600000006020000060400000606000006080000060A0000060C0000060E00000800000008020000080400000806000008080000080A0000080C0000080E00000A0000000A0200000A0400000A0600000A0800000A0A00000A0C00000A0E00000C0000000C0200000C0400000C0600000C0800000C0
310
A00000C0C00000C0E00000E0000000E0200000E0400000E0600000E0800000E0A00000E0C00000E0E00040000000400020004000400040006000400080004000A0004000C0004000E00040200000402020004020400040206000402080004020A0004020C0004020E000404000004040200040404000404060004040800040
310
40A0004040C0004040E00040600000406020004060400040606000406080004060A0004060C0004060E00040800000408020004080400040806000408080004080A0004080C0004080E00040A0000040A0200040A0400040A0600040A0800040A0A00040A0C00040A0E00040C0000040C0200040C0400040C0600040C08000
310
40C0A00040C0C00040C0E00040E0000040E0200040E0400040E0600040E0800040E0A00040E0C00040E0E00080000000800020008000400080006000800080008000A0008000C0008000E00080200000802020008020400080206000802080008020A0008020C0008020E00080400000804020008040400080406000804080
310
008040A0008040C0008040E00080600000806020008060400080606000806080008060A0008060C0008060E00080800000808020008080400080806000808080008080A0008080C0008080E00080A0000080A0200080A0400080A0600080A0800080A0A00080A0C00080A0E00080C0000080C0200080C0400080C0600080C0
310
800080C0A00080C0C00080C0E00080E0000080E0200080E0400080E0600080E0800080E0A00080E0C00080E0E000C0000000C0002000C0004000C0006000C0008000C000A000C000C000C000E000C0200000C0202000C0204000C0206000C0208000C020A000C020C000C020E000C0400000C0402000C0404000C0406000C0
310
408000C040A000C040C000C040E000C0600000C0602000C0604000C0606000C0608000C060A000C060C000C060E000C0800000C0802000C0804000C0806000C0808000C080A000C080C000C080E000C0A00000C0A02000C0A04000C0A06000C0A08000C0A0A000C0A0C000C0A0E000C0C00000C0C02000C0C04000C0C06000
310
C0C08000C0C0A000F0FBFF00A4A0A000808080000000FF0000FF000000FFFF00FF000000FF00FF00FFFF0000FFFFFF00000000000000000000000000000000000000000000000000000000000000000000000000000000000000000000000000FF000000000000000000000000000000000000000000000000000000000000
310
00FF00000000000000000000000000000000000000000000000000000000000000FF00000000000000000000000000000000000000000000000000000000000000FF00000000000000000000000000000000000000000000000000000000000000FF0000000000000000000000000000000000000000000000000000000000
310
0000FF00000000000000000000000000000000000000000000000000000000000000FF00000000000000000000000000000000000000000000000000000000000000FF00000000000000000000000000000000000000000000000000000000000000FF00000000000000000000000000000000000000000000000000000000
310
000000FF00000000000000000000000000000000000000000000000000000000000000FF00000000000000000000000000000000000000000000000000000000000000FF00000000000000000000000000000000000000000000000000000000000000FF000000000000000000000000000000000000000000000000000000
310
00000000FF00000000000000000000000000000000000000000000000000000000000000FF00000000000000000000000000000000000000000000000000000000000000FF00000000000000000000000000000000000000000000000000000000000000FF0000000000000000000000000000000000000000000000000000
310
0000000000FF00000000000000000000000000000000000000000000000000000000000000FF00000000000000000000000000000000000000000000000000000000000000FF00000000000000000000000000000000000000000000000000000000000000FF00000000000000000000000000000000000000000000000000
310
000000000000FF00000000000000000000000000000000000000000000000000000000000000FF00000000000000000000000000000000000000000000000000000000000000FF00000000000000000000000000000000000000000000000000000000000000FF000000000000000000000000000000000000000000000000
310
00000000000000FF0000000000000000000000000000000000000000000000000000000000FFFFFFFF0000000000000000000000000000000000000000000000000000000000FFFFFF0000000000000000000000000000000000000000000000000000000000FFFF0000000000000000000000000000000000000000000000
310
0000000000000000FF0000000000000000000000000000000000000000000000000000000000000000000000000000000000000000000000
102
{BLKREFS
331
73E7
331
73E8
102
}
 70
     4
280
     1
281
     0
1001
AcDbBlockRepETag
1070
     1
1071
        5
1001
AcDbDynamicBlockTrueName
1000
DM-Outgoing Line
1001
AcDbDynamicBlockGUID
1000
{1F4D528B-C22E-4297-8F61-09D595576DAC}
  0
BLOCK_RECORD
  5
290
102
{ACAD_XDICTIONARY
360
291
102
}
330
1
100
AcDbSymbolTableRecord
100
AcDbBlockTableRecord
  2
DM-Arrester
340
0
310
2800000020000000200000000100080000000000000400000000000000000000000000000000000000000000000080000080000000808000800000008000800080800000C0C0C000C0DCC000F0CAA6000020400000206000002080000020A0000020C0000020E00000400000004020000040400000406000004080000040A0
310
000040C0000040E00000600000006020000060400000606000006080000060A0000060C0000060E00000800000008020000080400000806000008080000080A0000080C0000080E00000A0000000A0200000A0400000A0600000A0800000A0A00000A0C00000A0E00000C0000000C0200000C0400000C0600000C0800000C0
310
A00000C0C00000C0E00000E0000000E0200000E0400000E0600000E0800000E0A00000E0C00000E0E00040000000400020004000400040006000400080004000A0004000C0004000E00040200000402020004020400040206000402080004020A0004020C0004020E000404000004040200040404000404060004040800040
310
40A0004040C0004040E00040600000406020004060400040606000406080004060A0004060C0004060E00040800000408020004080400040806000408080004080A0004080C0004080E00040A0000040A0200040A0400040A0600040A0800040A0A00040A0C00040A0E00040C0000040C0200040C0400040C0600040C08000
310
40C0A00040C0C00040C0E00040E0000040E0200040E0400040E0600040E0800040E0A00040E0C00040E0E00080000000800020008000400080006000800080008000A0008000C0008000E00080200000802020008020400080206000802080008020A0008020C0008020E00080400000804020008040400080406000804080
310
008040A0008040C0008040E00080600000806020008060400080606000806080008060A0008060C0008060E00080800000808020008080400080806000808080008080A0008080C0008080E00080A0000080A0200080A0400080A0600080A0800080A0A00080A0C00080A0E00080C0000080C0200080C0400080C0600080C0
310
800080C0A00080C0C00080C0E00080E0000080E0200080E0400080E0600080E0800080E0A00080E0C00080E0E000C0000000C0002000C0004000C0006000C0008000C000A000C000C000C000E000C0200000C0202000C0204000C0206000C0208000C020A000C020C000C020E000C0400000C0402000C0404000C0406000C0
310
408000C040A000C040C000C040E000C0600000C0602000C0604000C0606000C0608000C060A000C060C000C060E000C0800000C0802000C0804000C0806000C0808000C080A000C080C000C080E000C0A00000C0A02000C0A04000C0A06000C0A08000C0A0A000C0A0C000C0A0E000C0C00000C0C02000C0C04000C0C06000
310
C0C08000C0C0A000F0FBFF00A4A0A000808080000000FF0000FF000000FFFF00FF000000FF00FF00FFFF0000FFFFFF00000000000000000000000000000000000000000000000000000000000000000000000000000000000000000000000000FF000000000000000000000000000000000000000000000000000000000000
310
00FF00000000000000000000000000000000000000000000000000000000000000FF00000000000000000000000000000000000000000000000000000000000000FF00000000000000000000000000000000000000000000000000000000000000FF0000000000000000000000000000000000000000000000000000000000
310
0000FF00000000000000000000000000000000000000000000000000000000000000FF000000000000000000000000000000000000000000000000000000FFFFFFFFFFFFFFFF000000000000000000000000000000000000000000000000FF000000000000FF000000000000000000000000000000000000000000000000FF
310
000000000000FF000000000000000000000000000000000000000000000000FF000000000000FF000000000000000000000000000000000000000000000000FF000000000000FF000000000000000000000000000000000000000000000000FF000000000000FF000000000000000000000000000000000000000000000000
310
FF000000000000FF000000000000000000000000000000000000000000000000FF000000000000FF000000000000000000000000000000000000000000000000FF000000FF0000FF000000000000000000000000000000000000000000000000FF000000FF0000FF0000000000000000000000000000000000000000000000
310
00FF0000FF00FF00FF000000000000000000000000000000000000000000000000FF0000FF00FF00FF000000000000000000000000000000000000000000000000FF00FF0000FF00FF000000000000000000000000000000000000000000000000FF00FF000000FFFF00000000000000000000000000000000000000000000
310
0000FFFFFFFFFFFFFFFF000000000000000000000000000000000000000000000000FFFFFFFFFFFFFFFF00000000000000000000000000000000000000000000000000000000FF00000000000000000000000000000000000000000000000000000000000000FF000000000000000000000000000000000000000000000000
310
00000000000000FF00000000000000000000000000000000000000000000000000000000000000FF00000000000000000000000000000000000000000000000000000000000000FF00000000000000000000000000000000000000000000000000000000000000FF0000000000000000000000000000000000000000000000
310
0000000000000000FF0000000000000000000000000000000000000000000000000000000000000000000000000000000000000000000000
 70
     4
280
     1
281
     0
1001
AcDbBlockRepETag
1070
     1
1071
       12
1001
AcDbDynamicBlockTrueName
1000
DM-Arrester
1001
AcDbDynamicBlockGUID
1000
{4F636408-9389-49C7-9E67-DE74801E7BE0}
  0
BLOCK_RECORD
  5
2A4
102
{ACAD_XDICTIONARY
360
2A5
102
}
330
1
100
AcDbSymbolTableRecord
100
AcDbBlockTableRecord
  2
DM-DXN-T
340
0
310
2800000020000000200000000100080000000000000400000000000000000000000000000000000000000000000080000080000000808000800000008000800080800000C0C0C000C0DCC000F0CAA6000020400000206000002080000020A0000020C0000020E00000400000004020000040400000406000004080000040A0
310
000040C0000040E00000600000006020000060400000606000006080000060A0000060C0000060E00000800000008020000080400000806000008080000080A0000080C0000080E00000A0000000A0200000A0400000A0600000A0800000A0A00000A0C00000A0E00000C0000000C0200000C0400000C0600000C0800000C0
310
A00000C0C00000C0E00000E0000000E0200000E0400000E0600000E0800000E0A00000E0C00000E0E00040000000400020004000400040006000400080004000A0004000C0004000E00040200000402020004020400040206000402080004020A0004020C0004020E000404000004040200040404000404060004040800040
310
40A0004040C0004040E00040600000406020004060400040606000406080004060A0004060C0004060E00040800000408020004080400040806000408080004080A0004080C0004080E00040A0000040A0200040A0400040A0600040A0800040A0A00040A0C00040A0E00040C0000040C0200040C0400040C0600040C08000
310
40C0A00040C0C00040C0E00040E0000040E0200040E0400040E0600040E0800040E0A00040E0C00040E0E00080000000800020008000400080006000800080008000A0008000C0008000E00080200000802020008020400080206000802080008020A0008020C0008020E00080400000804020008040400080406000804080
310
008040A0008040C0008040E00080600000806020008060400080606000806080008060A0008060C0008060E00080800000808020008080400080806000808080008080A0008080C0008080E00080A0000080A0200080A0400080A0600080A0800080A0A00080A0C00080A0E00080C0000080C0200080C0400080C0600080C0
310
800080C0A00080C0C00080C0E00080E0000080E0200080E0400080E0600080E0800080E0A00080E0C00080E0E000C0000000C0002000C0004000C0006000C0008000C000A000C000C000C000E000C0200000C0202000C0204000C0206000C0208000C020A000C020C000C020E000C0400000C0402000C0404000C0406000C0
310
408000C040A000C040C000C040E000C0600000C0602000C0604000C0606000C0608000C060A000C060C000C060E000C0800000C0802000C0804000C0806000C0808000C080A000C080C000C080E000C0A00000C0A02000C0A04000C0A06000C0A08000C0A0A000C0A0C000C0A0E000C0C00000C0C02000C0C04000C0C06000
310
C0C08000C0C0A000F0FBFF00A4A0A000808080000000FF0000FF000000FFFF00FF000000FF00FF00FFFF0000FFFFFF00000000000000000000000000000000000000000000000000000000000000000000000000000000000000000000000000FF000000000000000000000000000000000000000000000000000000000000
310
00FF00000000000000000000000000000000000000000000000000000000000000FF00000000000000000000000000000000000000000000000000000000000000FF00000000000000000000000000000000000000000000000000000000000000FF0000000000000000000000000000000000000000000000000000000000
310
0000FF00000000000000000000000000000000000000000000000000000000FFFFFFFFFFFF00000000000000000000000000000000000000000000000000FF000000000000FF0000000000000000000000000000000000000000000000FF00FF00000000FF00FF000000000000000000000000000000000000000000FFFF00
310
00FF000000FF00FF000000000000000000000000000000000000000000FF00000000FF00FF000000FF0000000000000000000000000000000000000000FF0000000000FF00000000FF0000000000000000000000000000000000000000FF00000000FF00FF000000FF000000000000000000000000000000000000000000FF
310
0000FF000000FF00FF00000000000000000000000000000000000000000000FF00FF00000000FF00FF0000000000000000000000000000000000000000000000FF000000000000FF00000000000000000000000000000000000000000000000000FFFFFFFFFFFF000000000000000000000000000000000000000000000000
310
0000000000FF00000000000000000000000000000000000000000000000000000000000000FF00000000000000000000000000000000000000000000000000000000000000FF000000000000000000000000000000000000000000000000000000FFFFFFFFFFFFFFFF00000000000000000000000000000000000000000000
310
000000000000000000000000000000000000000000000000000000000000000000000000000000000000000000000000000000000000000000000000000000000000FFFFFFFFFFFFFFFF00000000000000000000000000000000000000000000000000000000FF000000000000000000000000000000000000000000000000
310
00000000000000FF00000000000000000000000000000000000000000000000000000000000000FF00000000000000000000000000000000000000000000000000000000000000FF00000000000000000000000000000000000000000000000000000000000000FF0000000000000000000000000000000000000000000000
310
0000000000000000FF0000000000000000000000000000000000000000000000000000000000000000000000000000000000000000000000
 70
     4
280
     1
281
     0
1001
AcDbBlockRepETag
1070
     1
1071
       16
1001
AcDbDynamicBlockTrueName
1000
DM-DXN-T
1001
AcDbDynamicBlockGUID
1000
{F52421EC-04EA-4F31-9340-41CAA1FB21BB}
  0
BLOCK_RECORD
  5
2BB
102
{ACAD_XDICTIONARY
360
2BC
102
}
330
1
100
AcDbSymbolTableRecord
100
AcDbBlockTableRecord
  2
DM-HPT
340
0
310
2800000020000000200000000100080000000000000400000000000000000000000000000000000000000000000080000080000000808000800000008000800080800000C0C0C000C0DCC000F0CAA6000020400000206000002080000020A0000020C0000020E00000400000004020000040400000406000004080000040A0
310
000040C0000040E00000600000006020000060400000606000006080000060A0000060C0000060E00000800000008020000080400000806000008080000080A0000080C0000080E00000A0000000A0200000A0400000A0600000A0800000A0A00000A0C00000A0E00000C0000000C0200000C0400000C0600000C0800000C0
310
A00000C0C00000C0E00000E0000000E0200000E0400000E0600000E0800000E0A00000E0C00000E0E00040000000400020004000400040006000400080004000A0004000C0004000E00040200000402020004020400040206000402080004020A0004020C0004020E000404000004040200040404000404060004040800040
310
40A0004040C0004040E00040600000406020004060400040606000406080004060A0004060C0004060E00040800000408020004080400040806000408080004080A0004080C0004080E00040A0000040A0200040A0400040A0600040A0800040A0A00040A0C00040A0E00040C0000040C0200040C0400040C0600040C08000
310
40C0A00040C0C00040C0E00040E0000040E0200040E0400040E0600040E0800040E0A00040E0C00040E0E00080000000800020008000400080006000800080008000A0008000C0008000E00080200000802020008020400080206000802080008020A0008020C0008020E00080400000804020008040400080406000804080
310
008040A0008040C0008040E00080600000806020008060400080606000806080008060A0008060C0008060E00080800000808020008080400080806000808080008080A0008080C0008080E00080A0000080A0200080A0400080A0600080A0800080A0A00080A0C00080A0E00080C0000080C0200080C0400080C0600080C0
310
800080C0A00080C0C00080C0E00080E0000080E0200080E0400080E0600080E0800080E0A00080E0C00080E0E000C0000000C0002000C0004000C0006000C0008000C000A000C000C000C000E000C0200000C0202000C0204000C0206000C0208000C020A000C020C000C020E000C0400000C0402000C0404000C0406000C0
310
408000C040A000C040C000C040E000C0600000C0602000C0604000C0606000C0608000C060A000C060C000C060E000C0800000C0802000C0804000C0806000C0808000C080A000C080C000C080E000C0A00000C0A02000C0A04000C0A06000C0A08000C0A0A000C0A0C000C0A0E000C0C00000C0C02000C0C04000C0C06000
310
C0C08000C0C0A000F0FBFF00A4A0A000808080000000FF0000FF000000FFFF00FF000000FF00FF00FFFF0000FFFFFF00000000000000000000000000000000000000000000000000000000000000000000000000000000000000000000FFFF0000FF00000000000000000000000000000000000000000000000000FFFFFF00
310
FFFF00FFFF0000000000000000000000000000000000000000000000FF0000FF00FFFF0000FF000000000000000000000000000000000000000000FF000000FF0000FF000000FF0000000000000000000000000000000000000000FF000000FFFFFFFF000000FF0000000000000000000000000000000000000000FF0000FF
310
FF0000FFFF0000FF000000000000000000000000000000000000000000FFFF00FF00FFFFFFFFFF00000000000000000000000000000000000000000000FFFFFFFFFFFFFFFFFF000000000000000000000000000000000000000000000000FF000000000000FF000000000000000000000000000000000000000000000000FF
310
0000000000FFFF00000000000000000000000000000000000000000000000000FF00000000FF000000000000000000000000000000000000000000000000000000FFFFFFFF0000000000000000000000000000000000000000000000000000000000FF00000000000000000000000000000000000000000000000000000000
310
000000FF00000000000000000000000000000000000000000000000000000000000000FF000000000000000000000000000000000000000000000000000000000000FFFFFFFF00000000000000000000000000000000000000000000000000000000FFFF00FF00000000000000000000000000000000000000000000000000
310
000000FFFF00FF00000000000000000000000000000000000000000000000000000000FFFF00FF00000000000000000000000000000000000000000000000000000000FFFF00FF00000000000000000000000000000000000000000000000000000000FFFF00FF000000000000000000000000000000000000000000000000
310
00000000FFFF00FF00000000000000000000000000000000000000000000000000000000FFFFFFFF0000000000000000000000000000000000000000000000000000000000FF00000000000000000000000000000000000000000000000000000000000000FF00000000000000000000000000000000000000000000000000
310
0000000000FFFF00FF0000000000000000000000000000000000000000000000000000000000FFFF0000000000000000000000000000000000000000000000000000000000FFFF00FF0000000000000000000000000000000000000000000000000000000000FFFF0000000000000000000000000000000000000000000000
310
00000000000000FF000000000000000000000000000000000000000000000000000000000000000000000000000000000000000000000000
 70
     4
280
     1
281
     0
1001
AcDbBlockRepETag
1070
     1
1071
       15
1001
AcDbDynamicBlockTrueName
1000
DM-HPT
1001
AcDbDynamicBlockGUID
1000
{5DAE612F-3A9C-4EA9-AEF3-1F864454EAE6}
  0
BLOCK_RECORD
  5
2CD
102
{ACAD_XDICTIONARY
360
2CE
102
}
330
1
100
AcDbSymbolTableRecord
100
AcDbBlockTableRecord
  2
DM-VCB
340
0
 70
     4
280
     1
281
     0
1001
AcDbBlockRepETag
1070
     1
1071
       16
1001
AcDbDynamicBlockTrueName
1000
DM-VCB
1001
AcDbDynamicBlockGUID
1000
{6C4F85F5-66A4-472E-8C28-4F2DE754C081}
  0
BLOCK_RECORD
  5
2E4
102
{ACAD_XDICTIONARY
360
2E5
102
}
330
1
100
AcDbSymbolTableRecord
100
AcDbBlockTableRecord
  2
DM-CT
340
0
 70
     4
280
     1
281
     0
1001
AcDbBlockRepETag
1070
     1
1071
        2
1001
AcDbDynamicBlockTrueName
1000
DM-CT
1001
AcDbDynamicBlockGUID
1000
{76D9655E-CC24-424F-BF17-AE8111AAC11B}
  0
BLOCK_RECORD
  5
2F0
102
{ACAD_XDICTIONARY
360
2F1
102
}
330
1
100
AcDbSymbolTableRecord
100
AcDbBlockTableRecord
  2
DM-Handcart
340
0
310
2800000020000000200000000100080000000000000400000000000000000000000000000000000000000000000080000080000000808000800000008000800080800000C0C0C000C0DCC000F0CAA6000020400000206000002080000020A0000020C0000020E00000400000004020000040400000406000004080000040A0
310
000040C0000040E00000600000006020000060400000606000006080000060A0000060C0000060E00000800000008020000080400000806000008080000080A0000080C0000080E00000A0000000A0200000A0400000A0600000A0800000A0A00000A0C00000A0E00000C0000000C0200000C0400000C0600000C0800000C0
310
A00000C0C00000C0E00000E0000000E0200000E0400000E0600000E0800000E0A00000E0C00000E0E00040000000400020004000400040006000400080004000A0004000C0004000E00040200000402020004020400040206000402080004020A0004020C0004020E000404000004040200040404000404060004040800040
310
40A0004040C0004040E00040600000406020004060400040606000406080004060A0004060C0004060E00040800000408020004080400040806000408080004080A0004080C0004080E00040A0000040A0200040A0400040A0600040A0800040A0A00040A0C00040A0E00040C0000040C0200040C0400040C0600040C08000
310
40C0A00040C0C00040C0E00040E0000040E0200040E0400040E0600040E0800040E0A00040E0C00040E0E00080000000800020008000400080006000800080008000A0008000C0008000E00080200000802020008020400080206000802080008020A0008020C0008020E00080400000804020008040400080406000804080
310
008040A0008040C0008040E00080600000806020008060400080606000806080008060A0008060C0008060E00080800000808020008080400080806000808080008080A0008080C0008080E00080A0000080A0200080A0400080A0600080A0800080A0A00080A0C00080A0E00080C0000080C0200080C0400080C0600080C0
310
800080C0A00080C0C00080C0E00080E0000080E0200080E0400080E0600080E0800080E0A00080E0C00080E0E000C0000000C0002000C0004000C0006000C0008000C000A000C000C000C000E000C0200000C0202000C0204000C0206000C0208000C020A000C020C000C020E000C0400000C0402000C0404000C0406000C0
310
408000C040A000C040C000C040E000C0600000C0602000C0604000C0606000C0608000C060A000C060C000C060E000C0800000C0802000C0804000C0806000C0808000C080A000C080C000C080E000C0A00000C0A02000C0A04000C0A06000C0A08000C0A0A000C0A0C000C0A0E000C0C00000C0C02000C0C04000C0C06000
310
C0C08000C0C0A000F0FBFF00A4A0A000808080000000FF0000FF000000FFFF00FF000000FF00FF00FFFF0000FFFFFF000000000000000000000000000000000000000000000000000000000000000000000000000000000000000000000000FF00000000000000000000000000000000000000000000000000000000000000
310
FF00000000000000000000000000000000000000000000000000000000000000FF00000000000000000000000000000000000000000000000000000000000000FF00000000000000000000000000000000000000000000000000000000000000FF000000000000000000000000000000000000000000000000000000000000
310
00FF0000000000000000000000000000000000000000FF00000000000000000000FF0000000000000000000000FF000000000000000000FF000000000000000000FF00000000000000000000FF0000000000000000000000FF0000000000000000FF000000000000000000FF00000000000000000000000000FF0000000000
310
0000FF0000000000000000FF000000000000000000000000000000FF000000000000FF00000000000000FF0000000000000000000000000000000000FF0000000000FF0000000000FFFF00000000000000000000000000000000000000FF00000000FF00000000FF00000000000000000000000000000000000000000000FF
310
000000FF000000FF000000000000000000000000000000000000000000000000FF0000FF0000FF0000000000000000000000000000000000000000000000000000FF00FF00FF00000000000000000000000000000000000000000000000000000000FFFFFF00000000000000000000000000000000000000FF000000000000
310
00000000FF0000000000000000000000FF000000000000000000FF000000000000000000FF00000000000000000000FF0000000000000000000000FF0000000000000000FF000000000000000000FF00000000000000000000000000FF00000000000000FF0000000000000000FF000000000000000000000000000000FF00
310
0000000000FF00000000000000FF0000000000000000000000000000000000FF0000000000FF000000000000FF000000000000000000000000000000000000FF0000000000FF0000000000FF0000000000000000000000000000000000000000FF00000000FF00000000FF0000000000000000000000000000000000000000
310
0000FF000000FF000000FF000000000000000000000000000000000000000000000000FF0000FF0000FF0000000000000000000000000000000000000000000000000000FF00FF00FF00000000000000000000000000000000000000000000000000000000FFFFFF0000000000000000000000000000000000000000000000
310
00000000000000FF000000000000000000000000000000000000000000000000000000000000000000000000000000000000000000000000
 70
     4
280
     1
281
     0
1001
AcDbBlockRepETag
1070
     1
1071
        5
1001
AcDbDynamicBlockTrueName
1000
DM-Handcart
1001
AcDbDynamicBlockGUID
1000
{4CB7BC1F-2E7C-4D51-A1D3-94A96028914D}
  0
BLOCK_RECORD
  5
1B9D
102
{ACAD_XDICTIONARY
360
1B9E
102
}
330
1
100
AcDbSymbolTableRecord
100
AcDbBlockTableRecord
  2
DM-DblClmnTrans
340
0
310
2800000020000000200000000100080000000000000400000000000000000000000000000000000000000000000080000080000000808000800000008000800080800000C0C0C000C0DCC000F0CAA6000020400000206000002080000020A0000020C0000020E00000400000004020000040400000406000004080000040A0
310
000040C0000040E00000600000006020000060400000606000006080000060A0000060C0000060E00000800000008020000080400000806000008080000080A0000080C0000080E00000A0000000A0200000A0400000A0600000A0800000A0A00000A0C00000A0E00000C0000000C0200000C0400000C0600000C0800000C0
310
A00000C0C00000C0E00000E0000000E0200000E0400000E0600000E0800000E0A00000E0C00000E0E00040000000400020004000400040006000400080004000A0004000C0004000E00040200000402020004020400040206000402080004020A0004020C0004020E000404000004040200040404000404060004040800040
310
40A0004040C0004040E00040600000406020004060400040606000406080004060A0004060C0004060E00040800000408020004080400040806000408080004080A0004080C0004080E00040A0000040A0200040A0400040A0600040A0800040A0A00040A0C00040A0E00040C0000040C0200040C0400040C0600040C08000
310
40C0A00040C0C00040C0E00040E0000040E0200040E0400040E0600040E0800040E0A00040E0C00040E0E00080000000800020008000400080006000800080008000A0008000C0008000E00080200000802020008020400080206000802080008020A0008020C0008020E00080400000804020008040400080406000804080
310
008040A0008040C0008040E00080600000806020008060400080606000806080008060A0008060C0008060E00080800000808020008080400080806000808080008080A0008080C0008080E00080A0000080A0200080A0400080A0600080A0800080A0A00080A0C00080A0E00080C0000080C0200080C0400080C0600080C0
310
800080C0A00080C0C00080C0E00080E0000080E0200080E0400080E0600080E0800080E0A00080E0C00080E0E000C0000000C0002000C0004000C0006000C0008000C000A000C000C000C000E000C0200000C0202000C0204000C0206000C0208000C020A000C020C000C020E000C0400000C0402000C0404000C0406000C0
310
408000C040A000C040C000C040E000C0600000C0602000C0604000C0606000C0608000C060A000C060C000C060E000C0800000C0802000C0804000C0806000C0808000C080A000C080C000C080E000C0A00000C0A02000C0A04000C0A06000C0A08000C0A0A000C0A0C000C0A0E000C0C00000C0C02000C0C04000C0C06000
310
C0C08000C0C0A000F0FBFF00A4A0A000808080000000FF0000FF000000FFFF00FF000000FF00FF00FFFF0000FFFFFF0000000000000000000000000000000000000000000000000000000000000000000000000000000000000000000000FFFFFF00000000000000000000000000000000000000000000000000000000FF00
310
0000FFFFFF00000000000000000000000000000000000000000000FFFFFF00000000000000FF000000000000000000000000000000000000000000FF00000000000000000000FFFF000000000000000000000000000000000000FF00000000000000000000000000FF00000000000000000000000000000000FF0000000000
310
000000000000000000FF000000000000000000000000000000FF000000000000000000000000000000FF000000000000000000000000000000FF00000000000000000000000000000000FF0000000000000000000000000000FF00000000000000000000000000000000FF0000000000000000000000000000FF0000000000
310
0000000000000000000000FF0000000000000000000000000000FF00000000000000000000000000000000FF0000000000000000000000000000FF00000000000000000000000000000000FF000000000000000000000000000000FF00000000FFFFFFFFFFFFFF000000FF00000000000000000000000000000000FF0000FF
310
FF00000000000000FF0000FF0000000000000000000000000000000000FFFF00000000000000000000FFFFFF0000000000000000000000000000000000FFFF0000000000000000000000FFFF00000000000000000000000000000000FF0000FF0000000000000000FFFF00FF00000000000000000000000000000000FF0000
310
00FFFFFFFFFFFFFFFF000000FF000000000000000000000000000000FF00000000000000000000000000000000FF0000000000000000000000000000FF00000000000000000000000000000000FF0000000000000000000000000000FF00000000000000000000000000000000FF0000000000000000000000000000FF0000
310
0000000000000000000000000000FF0000000000000000000000000000FF00000000000000000000000000000000FF0000000000000000000000000000FF000000000000000000000000000000FF00000000000000000000000000000000FF0000000000000000000000000000FF0000000000000000000000000000000000
310
FF00000000000000000000000000FF000000000000000000000000000000000000FF0000000000000000000000FF00000000000000000000000000000000000000FFFF0000000000000000FFFF00000000000000000000000000000000000000000000FFFF000000FFFFFF0000000000000000000000000000000000000000
310
000000000000FFFFFF0000000000000000000000000000000000000000000000000000000000000000000000000000000000000000000000
102
{BLKREFS
331
73E6
102
}
 70
     4
280
     1
281
     0
1001
AcDbBlockRepETag
1070
     1
1071
       11
1001
AcDbDynamicBlockTrueName
1000
DM-DblClmnTrans
1001
AcDbDynamicBlockGUID
1000
{4B78E843-0953-40D3-87DA-71D54A7F30AE}
  0
BLOCK_RECORD
  5
3B26
102
{ACAD_XDICTIONARY
360
744D
102
}
330
1
100
AcDbSymbolTableRecord
100
AcDbBlockTableRecord
  2
DM-Knife Switch
340
0
 70
     4
280
     1
281
     0
1001
AcDbBlockRepETag
1070
     1
1071
        5
1001
AcDbDynamicBlockTrueName
1000
DM-Knife Switch
1001
AcDbDynamicBlockGUID
1000
{50B764F4-0502-42EA-8B41-D145E2EC1920}
  0
BLOCK_RECORD
  5
3B2F
102
{ACAD_XDICTIONARY
360
3B30
102
}
330
1
100
AcDbSymbolTableRecord
100
AcDbBlockTableRecord
  2
DM-HV FUSE
340
0
310
2800000020000000200000000100080000000000000400000000000000000000000000000000000000000000000080000080000000808000800000008000800080800000C0C0C000C0DCC000F0CAA6000020400000206000002080000020A0000020C0000020E00000400000004020000040400000406000004080000040A0
310
000040C0000040E00000600000006020000060400000606000006080000060A0000060C0000060E00000800000008020000080400000806000008080000080A0000080C0000080E00000A0000000A0200000A0400000A0600000A0800000A0A00000A0C00000A0E00000C0000000C0200000C0400000C0600000C0800000C0
310
A00000C0C00000C0E00000E0000000E0200000E0400000E0600000E0800000E0A00000E0C00000E0E00040000000400020004000400040006000400080004000A0004000C0004000E00040200000402020004020400040206000402080004020A0004020C0004020E000404000004040200040404000404060004040800040
310
40A0004040C0004040E00040600000406020004060400040606000406080004060A0004060C0004060E00040800000408020004080400040806000408080004080A0004080C0004080E00040A0000040A0200040A0400040A0600040A0800040A0A00040A0C00040A0E00040C0000040C0200040C0400040C0600040C08000
310
40C0A00040C0C00040C0E00040E0000040E0200040E0400040E0600040E0800040E0A00040E0C00040E0E00080000000800020008000400080006000800080008000A0008000C0008000E00080200000802020008020400080206000802080008020A0008020C0008020E00080400000804020008040400080406000804080
310
008040A0008040C0008040E00080600000806020008060400080606000806080008060A0008060C0008060E00080800000808020008080400080806000808080008080A0008080C0008080E00080A0000080A0200080A0400080A0600080A0800080A0A00080A0C00080A0E00080C0000080C0200080C0400080C0600080C0
310
800080C0A00080C0C00080C0E00080E0000080E0200080E0400080E0600080E0800080E0A00080E0C00080E0E000C0000000C0002000C0004000C0006000C0008000C000A000C000C000C000E000C0200000C0202000C0204000C0206000C0208000C020A000C020C000C020E000C0400000C0402000C0404000C0406000C0
310
408000C040A000C040C000C040E000C0600000C0602000C0604000C0606000C0608000C060A000C060C000C060E000C0800000C0802000C0804000C0806000C0808000C080A000C080C000C080E000C0A00000C0A02000C0A04000C0A06000C0A08000C0A0A000C0A0C000C0A0E000C0C00000C0C02000C0C04000C0C06000
310
C0C08000C0C0A000F0FBFF00A4A0A000808080000000FF0000FF000000FFFF00FF000000FF00FF00FFFF0000FFFFFF000000000000000000000000000000000000000000000000000000000000000000000000000000000000000000000000FF00000000000000000000000000000000000000000000000000000000000000
310
FF00000000000000000000000000000000000000000000000000000000000000FF00000000000000000000000000000000000000000000000000000000000000FF00000000000000000000000000000000000000000000000000000000000000FF000000000000000000000000000000000000000000000000000000FFFFFF
310
FFFFFFFFFFFFFF00000000000000000000000000000000000000000000FF000000FF00000000FF00000000000000000000000000000000000000000000FF000000FF00000000FF00000000000000000000000000000000000000000000FF000000FF00000000FF00000000000000000000000000000000000000000000FF00
310
0000FF00000000FF00000000000000000000000000000000000000000000FF000000FF00000000FF00000000000000000000000000000000000000000000FF000000FF00000000FF00000000000000000000000000000000000000000000FF000000FF00000000FF00000000000000000000000000000000000000000000FF
310
000000FF00000000FF00000000000000000000000000000000000000000000FF000000FF00000000FF00000000000000000000000000000000000000000000FF000000FF00000000FF00000000000000000000000000000000000000000000FF000000FF00000000FF00000000000000000000000000000000000000000000
310
FF000000FF00000000FF00000000000000000000000000000000000000000000FF000000FF00000000FF00000000000000000000000000000000000000000000FF000000FF00000000FF00000000000000000000000000000000000000000000FF000000FF00000000FF000000000000000000000000000000000000000000
310
00FF000000FF00000000FF00000000000000000000000000000000000000000000FF000000FF00000000FF00000000000000000000000000000000000000000000FF000000FF00000000FF00000000000000000000000000000000000000000000FFFFFFFFFFFFFFFFFFFF0000000000000000000000000000000000000000
310
000000000000FF00000000000000000000000000000000000000000000000000000000000000FF00000000000000000000000000000000000000000000000000000000000000FF00000000000000000000000000000000000000000000000000000000000000FF000000000000000000000000000000000000000000000000
310
00000000000000FF000000000000000000000000000000000000000000000000000000000000000000000000000000000000000000000000
 70
     4
280
     1
281
     0
1001
AcDbBlockRepETag
1070
     1
1071
        4
1001
AcDbDynamicBlockTrueName
1000
DM-HV FUSE
1001
AcDbDynamicBlockGUID
1000
{AAB1CD6A-C9E7-477B-926C-8A63FA795208}
  0
BLOCK_RECORD
  5
6A44
102
{ACAD_XDICTIONARY
360
6AA2
102
}
330
1
100
AcDbSymbolTableRecord
100
AcDbBlockTableRecord
  2
A$C3A216533
340
0
 70
     4
280
     1
281
     0
  0
BLOCK_RECORD
  5
6AA5
102
{ACAD_XDICTIONARY
360
6AAD
102
}
330
1
100
AcDbSymbolTableRecord
100
AcDbBlockTableRecord
  2
*U38
340
0
102
{BLKREFS
331
6A4C
102
}
 70
     0
280
     1
281
     0
1001
AcDbBlockRepBTag
1070
     1
1005
284
  0
BLOCK_RECORD
  5
6AB0
102
{ACAD_XDICTIONARY
360
6ABC
102
}
330
1
100
AcDbSymbolTableRecord
100
AcDbBlockTableRecord
  2
*U39
340
0
102
{BLKREFS
331
6A59
102
}
 70
     0
280
     1
281
     0
1001
AcDbBlockRepBTag
1070
     1
1005
279
  0
BLOCK_RECORD
  5
6ABF
102
{ACAD_XDICTIONARY
360
6ACE
102
}
330
1
100
AcDbSymbolTableRecord
100
AcDbBlockTableRecord
  2
*U40
340
0
102
{BLKREFS
331
6A60
102
}
 70
     0
280
     1
281
     0
1001
AcDbBlockRepBTag
1070
     1
1005
290
  0
BLOCK_RECORD
  5
6AD2
102
{ACAD_XDICTIONARY
360
6ADA
102
}
330
1
100
AcDbSymbolTableRecord
100
AcDbBlockTableRecord
  2
*U41
340
0
102
{BLKREFS
331
6A67
102
}
 70
     0
280
     1
281
     0
1001
AcDbBlockRepBTag
1070
     1
1005
26D
  0
BLOCK_RECORD
  5
6ADD
102
{ACAD_XDICTIONARY
360
6AF0
102
}
330
1
100
AcDbSymbolTableRecord
100
AcDbBlockTableRecord
  2
*U42
340
0
102
{BLKREFS
331
6A70
102
}
 70
     0
280
     1
281
     0
1001
AcDbBlockRepBTag
1070
     1
1005
2A4
  0
BLOCK_RECORD
  5
6AF3
102
{ACAD_XDICTIONARY
360
6AFB
102
}
330
1
100
AcDbSymbolTableRecord
100
AcDbBlockTableRecord
  2
*U43
340
0
102
{BLKREFS
331
6A77
102
}
 70
     0
280
     1
281
     0
1001
AcDbBlockRepBTag
1070
     1
1005
26D
  0
BLOCK_RECORD
  5
6AFE
102
{ACAD_XDICTIONARY
360
6B06
102
}
330
1
100
AcDbSymbolTableRecord
100
AcDbBlockTableRecord
  2
*U44
340
0
102
{BLKREFS
331
6A7E
102
}
 70
     0
280
     1
281
     0
1001
AcDbBlockRepBTag
1070
     1
1005
2E4
  0
BLOCK_RECORD
  5
6B09
102
{ACAD_XDICTIONARY
360
6B11
102
}
330
1
100
AcDbSymbolTableRecord
100
AcDbBlockTableRecord
  2
*U45
340
0
102
{BLKREFS
331
6A85
102
}
 70
     0
280
     1
281
     0
1001
AcDbBlockRepBTag
1070
     1
1005
2E4
  0
BLOCK_RECORD
  5
6B14
102
{ACAD_XDICTIONARY
360
6B1C
102
}
330
1
100
AcDbSymbolTableRecord
100
AcDbBlockTableRecord
  2
*U46
340
0
102
{BLKREFS
331
6A8C
102
}
 70
     0
280
     1
281
     0
1001
AcDbBlockRepBTag
1070
     1
1005
2E4
  0
BLOCK_RECORD
  5
6B1F
102
{ACAD_XDICTIONARY
360
6B27
102
}
330
1
100
AcDbSymbolTableRecord
100
AcDbBlockTableRecord
  2
*U47
340
0
102
{BLKREFS
331
6A93
102
}
 70
     0
280
     1
281
     0
1001
AcDbBlockRepBTag
1070
     1
1005
2E4
  0
BLOCK_RECORD
  5
6B2A
102
{ACAD_XDICTIONARY
360
6B3D
102
}
330
1
100
AcDbSymbolTableRecord
100
AcDbBlockTableRecord
  2
*U48
340
0
102
{BLKREFS
331
6A9A
102
}
 70
     0
280
     1
281
     0
1001
AcDbBlockRepBTag
1070
     1
1005
2CD
  0
BLOCK_RECORD
  5
6B40
102
{ACAD_XDICTIONARY
360
6B4A
102
}
330
1
100
AcDbSymbolTableRecord
100
AcDbBlockTableRecord
  2
*U49
340
0
102
{BLKREFS
331
6A45
102
}
 70
     0
280
     1
281
     0
1001
AcDbBlockRepBTag
1070
     1
1005
25F
  0
BLOCK_RECORD
  5
7283
102
{ACAD_XDICTIONARY
360
728A
102
}
330
1
100
AcDbSymbolTableRecord
100
AcDbBlockTableRecord
  2
*U69
340
0
102
{BLKREFS
331
7384
102
}
 70
     0
280
     1
281
     0
1001
AcDbBlockRepBTag
1070
     1
1005
3B2F
  0
BLOCK_RECORD
  5
728D
102
{ACAD_XDICTIONARY
360
72A0
102
}
330
1
100
AcDbSymbolTableRecord
100
AcDbBlockTableRecord
  2
*U70
340
0
102
{BLKREFS
331
73D5
102
}
 70
     0
280
     1
281
     0
1001
AcDbBlockRepBTag
1070
     1
1005
2A4
  0
BLOCK_RECORD
  5
72A3
102
{ACAD_XDICTIONARY
360
72AB
102
}
330
1
100
AcDbSymbolTableRecord
100
AcDbBlockTableRecord
  2
*U71
340
0
102
{BLKREFS
331
73DC
102
}
 70
     0
280
     1
281
     0
1001
AcDbBlockRepBTag
1070
     1
1005
26D
  0
BLOCK_RECORD
  5
72AE
102
{ACAD_XDICTIONARY
360
72C1
102
}
330
1
100
AcDbSymbolTableRecord
100
AcDbBlockTableRecord
  2
*U72
340
0
102
{BLKREFS
331
73EA
102
}
 70
     0
280
     1
281
     0
1001
AcDbBlockRepBTag
1070
     1
1005
2CD
  0
BLOCK_RECORD
  5
72C4
102
{ACAD_XDICTIONARY
360
72CC
102
}
330
1
100
AcDbSymbolTableRecord
100
AcDbBlockTableRecord
  2
*U73
340
0
102
{BLKREFS
331
73F2
102
}
 70
     0
280
     1
281
     0
1001
AcDbBlockRepBTag
1070
     1
1005
2E4
  0
BLOCK_RECORD
  5
72CF
102
{ACAD_XDICTIONARY
360
72D7
102
}
330
1
100
AcDbSymbolTableRecord
100
AcDbBlockTableRecord
  2
*U74
340
0
102
{BLKREFS
331
73F9
102
}
 70
     0
280
     1
281
     0
1001
AcDbBlockRepBTag
1070
     1
1005
2E4
  0
BLOCK_RECORD
  5
72DA
102
{ACAD_XDICTIONARY
360
72E2
102
}
330
1
100
AcDbSymbolTableRecord
100
AcDbBlockTableRecord
  2
*U75
340
0
102
{BLKREFS
331
7400
102
}
 70
     0
280
     1
281
     0
1001
AcDbBlockRepBTag
1070
     1
1005
2E4
  0
BLOCK_RECORD
  5
72E5
102
{ACAD_XDICTIONARY
360
72ED
102
}
330
1
100
AcDbSymbolTableRecord
100
AcDbBlockTableRecord
  2
*U76
340
0
102
{BLKREFS
331
7407
102
}
 70
     0
280
     1
281
     0
1001
AcDbBlockRepBTag
1070
     1
1005
2E4
  0
BLOCK_RECORD
  5
72F0
102
{ACAD_XDICTIONARY
360
72FF
102
}
330
1
100
AcDbSymbolTableRecord
100
AcDbBlockTableRecord
  2
*U77
340
0
102
{BLKREFS
331
740F
102
}
 70
     0
280
     1
281
     0
1001
AcDbBlockRepBTag
1070
     1
1005
290
  0
BLOCK_RECORD
  5
7303
102
{ACAD_XDICTIONARY
360
730B
102
}
330
1
100
AcDbSymbolTableRecord
100
AcDbBlockTableRecord
  2
*U78
340
0
102
{BLKREFS
331
7416
102
}
 70
     0
280
     1
281
     0
1001
AcDbBlockRepBTag
1070
     1
1005
26D
  0
BLOCK_RECORD
  5
730E
102
{ACAD_XDICTIONARY
360
7316
102
}
330
1
100
AcDbSymbolTableRecord
100
AcDbBlockTableRecord
  2
*U79
340
0
102
{BLKREFS
331
741E
102
}
 70
     0
280
     1
281
     0
1001
AcDbBlockRepBTag
1070
     1
1005
284
  0
BLOCK_RECORD
  5
7319
102
{ACAD_XDICTIONARY
360
7321
102
}
330
1
100
AcDbSymbolTableRecord
100
AcDbBlockTableRecord
  2
*U80
340
0
102
{BLKREFS
331
738C
102
}
 70
     0
280
     1
281
     0
1001
AcDbBlockRepBTag
1070
     1
1005
284
  0
BLOCK_RECORD
  5
7324
102
{ACAD_XDICTIONARY
360
732C
102
}
330
1
100
AcDbSymbolTableRecord
100
AcDbBlockTableRecord
  2
*U81
340
0
102
{BLKREFS
331
739B
102
}
 70
     0
280
     1
281
     0
1001
AcDbBlockRepBTag
1070
     1
1005
26D
  0
BLOCK_RECORD
  5
732F
102
{ACAD_XDICTIONARY
360
7342
102
}
330
1
100
AcDbSymbolTableRecord
100
AcDbBlockTableRecord
  2
*U82
340
0
102
{BLKREFS
331
73A3
102
}
 70
     0
280
     1
281
     0
1001
AcDbBlockRepBTag
1070
     1
1005
2A4
  0
BLOCK_RECORD
  5
7345
102
{ACAD_XDICTIONARY
360
734D
102
}
330
1
100
AcDbSymbolTableRecord
100
AcDbBlockTableRecord
  2
*U83
340
0
102
{BLKREFS
331
73AA
102
}
 70
     0
280
     1
281
     0
1001
AcDbBlockRepBTag
1070
     1
1005
26D
  0
BLOCK_RECORD
  5
7350
102
{ACAD_XDICTIONARY
360
735C
102
}
330
1
100
AcDbSymbolTableRecord
100
AcDbBlockTableRecord
  2
*U84
340
0
102
{BLKREFS
331
73B2
102
}
 70
     0
280
     1
281
     0
1001
AcDbBlockRepBTag
1070
     1
1005
279
  0
BLOCK_RECORD
  5
735F
102
{ACAD_XDICTIONARY
360
7367
102
}
330
1
100
AcDbSymbolTableRecord
100
AcDbBlockTableRecord
  2
*U85
340
0
102
{BLKREFS
331
73BA
102
}
 70
     0
280
     1
281
     0
1001
AcDbBlockRepBTag
1070
     1
1005
26D
  0
BLOCK_RECORD
  5
736A
102
{ACAD_XDICTIONARY
360
7372
102
}
330
1
100
AcDbSymbolTableRecord
100
AcDbBlockTableRecord
  2
*U86
340
0
102
{BLKREFS
331
73C4
102
}
 70
     0
280
     1
281
     0
1001
AcDbBlockRepBTag
1070
     1
1005
284
  0
BLOCK_RECORD
  5
7375
102
{ACAD_XDICTIONARY
360
737D
102
}
330
1
100
AcDbSymbolTableRecord
100
AcDbBlockTableRecord
  2
*U87
340
0
102
{BLKREFS
331
73CB
102
}
 70
     0
280
     1
281
     0
1001
AcDbBlockRepBTag
1070
     1
1005
26D
  0
BLOCK_RECORD
  5
7480
102
{ACAD_XDICTIONARY
360
7488
102
}
330
1
100
AcDbSymbolTableRecord
100
AcDbBlockTableRecord
  2
*U89
340
0
102
{BLKREFS
331
7399
331
73D3
102
}
 70
     0
280
     1
281
     0
1001
AcDbBlockRepBTag
1070
     1
1005
3B26
  0
ENDTAB
  0
ENDSEC
  0
SECTION
  2
BLOCKS
  0
BLOCK
  5
20
330
1F
100
AcDbEntity
  8
0
100
AcDbBlockBegin
  2
*Model_Space
 70
     0
 10
0.0
 20
0.0
 30
0.0
  3
*Model_Space
  1

  0
ENDBLK
  5
21
330
1F
100
AcDbEntity
  8
0
100
AcDbBlockEnd
  0
BLOCK
  5
D4
330
D2
100
AcDbEntity
 67
     1
  8
0
100
AcDbBlockBegin
  2
*Paper_Space
 70
     0
 10
0.0
 20
0.0
 30
0.0
  3
*Paper_Space
  1

  0
ENDBLK
  5
D5
330
D2
100
AcDbEntity
 67
     1
  8
0
100
AcDbBlockEnd
  0
BLOCK
  5
D8
330
D6
100
AcDbEntity
 67
     1
  8
0
100
AcDbBlockBegin
  2
*Paper_Space0
 70
     0
 10
0.0
 20
0.0
 30
0.0
  3
*Paper_Space0
  1

  0
ENDBLK
  5
D9
330
D6
100
AcDbEntity
 67
     1
  8
0
100
AcDbBlockEnd
  0
BLOCK
  5
264
330
25F
100
AcDbEntity
  8
0
 48
0.1
100
AcDbBlockBegin
  2
DM-ZCT
 70
     0
 10
0.0
 20
0.0
 30
0.0
  3
DM-ZCT
  1

  0
LINE
  5
265
330
25F
100
AcDbEntity
  8
0
  6
DASHED2
100
AcDbLine
 10
0.0
 20
0.0
 30
0.0
 11
0.0
 21
-24.0
 31
0.0
1001
AcDbBlockRepETag
1070
     1
1071
        0
1005
265
  0
CIRCLE
  5
266
330
25F
100
AcDbEntity
  8
0
100
AcDbCircle
 10
0.0
 20
-12.0
 30
0.0
 40
5.0
1001
AcDbBlockRepETag
1070
     1
1071
        1
1005
266
  0
LINE
  5
267
330
25F
100
AcDbEntity
  8
0
100
AcDbLine
 10
7.999999147599737
 20
-10.0
 30
0.0
 11
5.999999147599737
 21
-14.0
 31
0.0
1001
AcDbBlockRepETag
1070
     1
1071
        3
1005
267
  0
LINE
  5
268
330
25F
100
AcDbEntity
  8
0
100
AcDbLine
 10
9.999999147599737
 20
-10.0
 30
0.0
 11
7.999999147599737
 21
-14.0
 31
0.0
1001
AcDbBlockRepETag
1070
     1
1071
        4
1005
268
  0
LINE
  5
269
330
25F
100
AcDbEntity
  8
0
  6
DASHED2
100
AcDbLine
 10
-3.0
 20
-4.0
 30
0.0
 11
-3.0
 21
-20.0
 31
0.0
1001
AcDbBlockRepETag
1070
     1
1071
        2
1005
269
  0
LINE
  5
26A
330
25F
100
AcDbEntity
  8
0
  6
DASHED2
100
AcDbLine
 10
3.0
 20
-4.0
 30
0.0
 11
3.0
 21
-20.0
 31
0.0
1001
AcDbBlockRepETag
1070
     1
1071
        5
1005
26A
  0
LINE
  5
26B
330
25F
100
AcDbEntity
  8
0
100
AcDbLine
 10
5.0
 20
-11.99999999863691
 30
0.0
 11
11.0
 21
-11.99999999863691
 31
0.0
1001
AcDbBlockRepETag
1070
     1
1071
        6
1005
26B
  0
ENDBLK
  5
26C
330
25F
100
AcDbEntity
  8
0
 48
0.1
100
AcDbBlockEnd
  0
BLOCK
  5
272
330
26D
100
AcDbEntity
  8
0
100
AcDbBlockBegin
  2
DM-GND
 70
     0
 10
0.0
 20
0.0
 30
0.0
  3
DM-GND
  1

  0
LINE
  5
4AAF
330
26D
100
AcDbEntity
  8
0
100
AcDbLine
 10
0.0
 20
0.0
 30
0.0
 11
0.0
 21
-4.0
 31
0.0
1001
AcDbBlockRepETag
1070
     1
1071
        0
1005
4AAF
  0
LINE
  5
4AB0
330
26D
100
AcDbEntity
  8
0
100
AcDbLine
 10
-2.0
 20
-4.0
 30
0.0
 11
2.0
 21
-4.0
 31
0.0
1001
AcDbBlockRepETag
1070
     1
1071
        1
1005
4AB0
  0
LINE
  5
4AB1
330
26D
100
AcDbEntity
  8
0
100
AcDbLine
 10
-1.0
 20
-5.0
 30
0.0
 11
1.0
 21
-5.0
 31
0.0
1001
AcDbBlockRepETag
1070
     1
1071
        2
1005
4AB1
  0
LINE
  5
4AB2
330
26D
100
AcDbEntity
  8
0
100
AcDbLine
 10
0.0
 20
-6.0
 30
0.0
 11
0.0
 21
-6.0
 31
0.0
1001
AcDbBlockRepETag
1070
     1
1071
        3
1005
4AB2
  0
LINE
  5
4AB3
330
26D
100
AcDbEntity
  8
0
100
AcDbLine
 10
0.5
 20
-6.0
 30
0.0
 11
-0.5
 21
-6.0
 31
0.0
1001
AcDbBlockRepETag
1070
     1
1071
        4
1005
4AB3
  0
ENDBLK
  5
278
330
26D
100
AcDbEntity
  8
0
100
AcDbBlockEnd
  0
BLOCK
  5
27E
330
279
100
AcDbEntity
  8
0
370
   158
100
AcDbBlockBegin
  2
DM-Earthing Switch
 70
     0
 10
0.0
 20
0.0
 30
0.0
  3
DM-Earthing Switch
  1

  0
LINE
  5
4C01
330
279
100
AcDbEntity
  8
0
100
AcDbLine
 10
-4.0
 20
-6.0
 30
0.0
 11
4.0
 21
-6.0
 31
0.0
1001
AcDbBlockRepETag
1070
     1
1071
        1
1005
4C01
  0
LINE
  5
4C02
330
279
100
AcDbEntity
  8
0
100
AcDbLine
 10
0.0
 20
0.0
 30
0.0
 11
0.0
 21
-6.0
 31
0.0
1001
AcDbBlockRepETag
1070
     1
1071
        2
1005
4C02
  0
LINE
  5
4C03
330
279
100
AcDbEntity
  8
0
100
AcDbLine
 10
0.0000004987477951
 20
-20.0
 30
0.0
 11
-8.0
 21
-6.0
 31
0.0
1001
AcDbBlockRepETag
1070
     1
1071
        3
1005
4C03
  0
LINE
  5
4C04
330
279
100
AcDbEntity
  8
0
 48
0.1
100
AcDbLine
 10
0.0000004987477951
 20
-20.0
 30
0.0
 11
0.0000004987477951
 21
-32.0
 31
0.0
1001
AcDbBlockRepETag
1070
     1
1071
        4
1005
4C04
  0
LINE
  5
4C17
330
279
100
AcDbEntity
  8
0
100
AcDbLine
 10
0.0000004987477951
 20
-32.0
 30
0.0
 11
0.0000004987477951
 21
-40.0
 31
0.0
1001
AcDbBlockRepETag
1070
     1
1071
        0
1005
4C17
  0
LINE
  5
4C18
330
279
100
AcDbEntity
  8
0
100
AcDbLine
 10
-3.999999501252204
 20
-40.0
 30
0.0
 11
4.000000498747795
 21
-40.0
 31
0.0
1001
AcDbBlockRepETag
1070
     1
1071
        5
1005
4C18
  0
LINE
  5
4C19
330
279
100
AcDbEntity
  8
0
100
AcDbLine
 10
-1.999999501252204
 20
-42.0
 30
0.0
 11
2.000000498747795
 21
-42.0
 31
0.0
1001
AcDbBlockRepETag
1070
     1
1071
        6
1005
4C19
  0
LINE
  5
4C1A
330
279
100
AcDbEntity
  8
0
100
AcDbLine
 10
0.0000004987477951
 20
-44.0
 30
0.0
 11
0.0000004987477951
 21
-44.0
 31
0.0
1001
AcDbBlockRepETag
1070
     1
1071
        7
1005
4C1A
  0
LINE
  5
4C1B
330
279
100
AcDbEntity
  8
0
100
AcDbLine
 10
1.000000498747795
 20
-44.0
 30
0.0
 11
-0.9999995012522049
 21
-44.0
 31
0.0
1001
AcDbBlockRepETag
1070
     1
1071
        8
1005
4C1B
  0
ENDBLK
  5
283
330
279
100
AcDbEntity
  8
0
370
   158
100
AcDbBlockEnd
  0
BLOCK
  5
289
330
284
100
AcDbEntity
  8
0
 48
0.1
100
AcDbBlockBegin
  2
DM-Outgoing Line
 70
     0
 10
0.0
 20
0.0
 30
0.0
  3
DM-Outgoing Line
  1

  0
LINE
  5
28A
330
284
100
AcDbEntity
  8
0
100
AcDbLine
 10
0.0
 20
0.0
 30
0.0
 11
0.0
 21
15.0
 31
0.0
1001
AcDbBlockRepETag
1070
     1
1071
        0
1005
28A
  0
HATCH
  5
28B
330
284
100
AcDbEntity
  8
0
100
AcDbHatch
 10
0.0
 20
0.0
 30
0.0
210
0.0
220
0.0
230
1.0
  2
SOLID
 70
     1
 71
     1
 91
        1
 92
        1
 93
        3
 72
     1
 10
0.0
 20
15.0
 11
-2.0
 21
10.99999910797555
 72
     1
 10
-2.0
 20
10.99999910797555
 11
2.0
 21
10.99999910797555
 72
     1
 10
2.0
 20
10.99999910797555
 11
0.0
 21
15.0
 97
        3
330
28C
330
28D
330
28E
 75
     0
 76
     1
 98
        1
 10
-854.0
 20
84.99999910797555
450
        0
451
        0
460
0.0
461
0.0
452
        1
462
1.0
453
        2
463
0.0
 63
     5
421
      255
463
1.0
 63
     7
421
 16777215
470
LINEAR
1001
ACAD
1010
0.0
1020
0.0
1030
0.0
1001
AcDbBlockRepETag
1070
     1
1071
        1
1005
28B
  0
LINE
  5
28C
102
{ACAD_REACTORS
330
28B
102
}
330
284
100
AcDbEntity
  8
0
100
AcDbLine
 10
0.0
 20
15.0
 30
0.0
 11
-2.0
 21
10.99999910797555
 31
0.0
1001
AcDbBlockRepETag
1070
     1
1071
        2
1005
28C
  0
LINE
  5
28D
102
{ACAD_REACTORS
330
28B
102
}
330
284
100
AcDbEntity
  8
0
100
AcDbLine
 10
-2.0
 20
10.99999910797555
 30
0.0
 11
2.0
 21
10.99999910797555
 31
0.0
1001
AcDbBlockRepETag
1070
     1
1071
        3
1005
28D
  0
LINE
  5
28E
102
{ACAD_REACTORS
330
28B
102
}
330
284
100
AcDbEntity
  8
0
100
AcDbLine
 10
2.0
 20
10.99999910797555
 30
0.0
 11
0.0
 21
15.0
 31
0.0
1001
AcDbBlockRepETag
1070
     1
1071
        4
1005
28E
  0
ENDBLK
  5
28F
330
284
100
AcDbEntity
  8
0
 48
0.1
100
AcDbBlockEnd
  0
BLOCK
  5
296
330
290
100
AcDbEntity
  8
0
100
AcDbBlockBegin
  2
DM-Arrester
 70
     0
 10
0.0
 20
0.0
 30
0.0
  3
DM-Arrester
  1

  0
LINE
  5
297
330
290
100
AcDbEntity
  8
0
100
AcDbLine
 10
0.0
 20
0.0
 30
0.0
 11
0.0
 21
-4.0
 31
0.0
1001
AcDbBlockRepETag
1070
     1
1071
        0
1005
297
  0
LINE
  5
298
330
290
100
AcDbEntity
  8
0
100
AcDbLine
 10
-2.0
 20
-4.0
 30
0.0
 11
2.0
 21
-4.0
 31
0.0
1001
AcDbBlockRepETag
1070
     1
1071
        1
1005
298
  0
LINE
  5
299
330
290
100
AcDbEntity
  8
0
100
AcDbLine
 10
2.0
 20
-4.0
 30
0.0
 11
2.0
 21
-12.0
 31
0.0
1001
AcDbBlockRepETag
1070
     1
1071
        2
1005
299
  0
LINE
  5
29A
330
290
100
AcDbEntity
  8
0
100
AcDbLine
 10
2.0
 20
-12.0
 30
0.0
 11
-2.0
 21
-12.0
 31
0.0
1001
AcDbBlockRepETag
1070
     1
1071
        3
1005
29A
  0
LINE
  5
29B
330
290
100
AcDbEntity
  8
0
100
AcDbLine
 10
-2.0
 20
-12.0
 30
0.0
 11
-2.0
 21
-4.0
 31
0.0
1001
AcDbBlockRepETag
1070
     1
1071
        4
1005
29B
  0
LINE
  5
29C
330
290
100
AcDbEntity
  8
0
100
AcDbLine
 10
0.0
 20
-16.0
 30
0.0
 11
0.0
 21
-12.0
 31
0.0
1001
AcDbBlockRepETag
1070
     1
1071
        5
1005
29C
  0
LINE
  5
29D
330
290
100
AcDbEntity
  8
0
100
AcDbLine
 10
0.0
 20
-4.0
 30
0.0
 11
0.0
 21
-4.5
 31
0.0
1001
AcDbBlockRepETag
1070
     1
1071
        6
1005
29D
  0
HATCH
  5
29E
330
290
100
AcDbEntity
  8
0
100
AcDbHatch
 10
0.0
 20
0.0
 30
0.0
210
0.0
220
0.0
230
1.0
  2
SOLID
 70
     1
 71
     1
 91
        1
 92
        1
 93
        4
 72
     1
 10
0.0
 20
-4.5
 11
1.5
 21
-4.5
 72
     1
 10
1.5
 20
-4.5
 11
0.0
 21
-8.0
 72
     1
 10
0.0
 20
-8.0
 11
-1.5
 21
-4.5
 72
     1
 10
-1.5
 20
-4.5
 11
0.0
 21
-4.5
 97
        4
330
29F
330
2A1
330
2A2
330
2A0
 75
     0
 76
     1
 98
        1
 10
-3024.0
 20
314.0
450
        0
451
        0
460
0.0
461
0.0
452
        1
462
1.0
453
        2
463
0.0
 63
     5
421
      255
463
1.0
 63
     7
421
 16777215
470
LINEAR
1001
ACAD
1010
0.0
1020
0.0
1030
0.0
1001
AcDbBlockRepETag
1070
     1
1071
       11
1005
29E
  0
LINE
  5
29F
102
{ACAD_REACTORS
330
29E
102
}
330
290
100
AcDbEntity
  8
0
100
AcDbLine
 10
0.0
 20
-4.5
 30
0.0
 11
1.5
 21
-4.5
 31
0.0
1001
AcDbBlockRepETag
1070
     1
1071
        7
1005
29F
  0
LINE
  5
2A0
102
{ACAD_REACTORS
330
29E
102
}
330
290
100
AcDbEntity
  8
0
100
AcDbLine
 10
0.0
 20
-4.5
 30
0.0
 11
-1.5
 21
-4.5
 31
0.0
1001
AcDbBlockRepETag
1070
     1
1071
        8
1005
2A0
  0
LINE
  5
2A1
102
{ACAD_REACTORS
330
29E
102
}
330
290
100
AcDbEntity
  8
0
100
AcDbLine
 10
0.0
 20
-8.0
 30
0.0
 11
1.5
 21
-4.5
 31
0.0
1001
AcDbBlockRepETag
1070
     1
1071
        9
1005
2A1
  0
LINE
  5
2A2
102
{ACAD_REACTORS
330
29E
102
}
330
290
100
AcDbEntity
  8
0
100
AcDbLine
 10
0.0
 20
-8.0
 30
0.0
 11
-1.5
 21
-4.5
 31
0.0
1001
AcDbBlockRepETag
1070
     1
1071
       10
1005
2A2
  0
ENDBLK
  5
2A3
330
290
100
AcDbEntity
  8
0
100
AcDbBlockEnd
  0
BLOCK
  5
2A9
330
2A4
100
AcDbEntity
  8
0
100
AcDbBlockBegin
  2
DM-DXN-T
 70
     0
 10
0.0
 20
0.0
 30
0.0
  3
DM-DXN-T
  1

  0
LINE
  5
2AA
330
2A4
100
AcDbEntity
  8
0
100
AcDbLine
 10
0.0
 20
0.0
 30
0.0
 11
0.0
 21
-3.0
 31
0.0
1001
AcDbBlockRepETag
1070
     1
1071
        0
1005
2AA
  0
LINE
  5
2AB
330
2A4
100
AcDbEntity
  8
0
100
AcDbLine
 10
2.0
 20
-3.0
 30
0.0
 11
-2.0
 21
-3.0
 31
0.0
1001
AcDbBlockRepETag
1070
     1
1071
        1
1005
2AB
  0
LINE
  5
2AC
330
2A4
100
AcDbEntity
  8
0
100
AcDbLine
 10
-2.0
 20
-5.0
 30
0.0
 11
2.0
 21
-5.0
 31
0.0
1001
AcDbBlockRepETag
1070
     1
1071
        2
1005
2AC
  0
LINE
  5
2AD
330
2A4
100
AcDbEntity
  8
0
100
AcDbLine
 10
0.0
 20
-8.0
 30
0.0
 11
0.0
 21
-5.0
 31
0.0
1001
AcDbBlockRepETag
1070
     1
1071
        3
1005
2AD
  0
CIRCLE
  5
2AE
330
2A4
100
AcDbEntity
  8
0
100
AcDbCircle
 10
0.0
 20
-10.5
 30
0.0
 40
2.5
1001
AcDbBlockRepETag
1070
     1
1071
        4
1005
2AE
  0
LINE
  5
2AF
330
2A4
100
AcDbEntity
  8
0
100
AcDbLine
 10
0.0
 20
-16.0
 30
0.0
 11
0.0
 21
-13.0
 31
0.0
1001
AcDbBlockRepETag
1070
     1
1071
        5
1005
2AF
  0
LINE
  5
2B0
330
2A4
100
AcDbEntity
  8
0
100
AcDbLine
 10
0.0
 20
-10.5
 30
0.0
 11
0.0
 21
-10.5
 31
0.0
1001
AcDbBlockRepETag
1070
     1
1071
        6
1005
2B0
  0
LINE
  5
2B1
330
2A4
100
AcDbEntity
  8
0
100
AcDbLine
 10
0.0
 20
-10.5
 30
0.0
 11
0.0
 21
-10.5
 31
0.0
1001
AcDbBlockRepETag
1070
     1
1071
        7
1005
2B1
  0
LINE
  5
2B2
330
2A4
100
AcDbEntity
  8
0
100
AcDbLine
 10
0.0
 20
-10.5
 30
0.0
 11
0.0
 21
-10.5
 31
0.0
1001
AcDbBlockRepETag
1070
     1
1071
        8
1005
2B2
  0
LINE
  5
2B3
330
2A4
100
AcDbEntity
  8
0
100
AcDbLine
 10
0.0
 20
-10.5
 30
0.0
 11
0.0
 21
-10.5
 31
0.0
1001
AcDbBlockRepETag
1070
     1
1071
        9
1005
2B3
  0
LINE
  5
2B4
330
2A4
100
AcDbEntity
  8
0
100
AcDbLine
 10
0.0
 20
-10.5
 30
0.0
 11
0.0
 21
-10.5
 31
0.0
1001
AcDbBlockRepETag
1070
     1
1071
       10
1005
2B4
  0
LINE
  5
2B5
330
2A4
100
AcDbEntity
  8
0
100
AcDbLine
 10
0.0
 20
-10.5
 30
0.0
 11
0.0
 21
-10.5
 31
0.0
1001
AcDbBlockRepETag
1070
     1
1071
       11
1005
2B5
  0
LINE
  5
2B6
330
2A4
100
AcDbEntity
  8
0
100
AcDbLine
 10
0.0
 20
-10.5
 30
0.0
 11
-1.767766952966212
 21
-8.732233047033616
 31
0.0
1001
AcDbBlockRepETag
1070
     1
1071
       12
1005
2B6
  0
LINE
  5
2B7
330
2A4
100
AcDbEntity
  8
0
100
AcDbLine
 10
0.0
 20
-10.5
 30
0.0
 11
1.767766952966212
 21
-8.732233047033616
 31
0.0
1001
AcDbBlockRepETag
1070
     1
1071
       13
1005
2B7
  0
LINE
  5
2B8
330
2A4
100
AcDbEntity
  8
0
100
AcDbLine
 10
0.0
 20
-10.5
 30
0.0
 11
1.767766952966212
 21
-12.26776695296638
 31
0.0
1001
AcDbBlockRepETag
1070
     1
1071
       14
1005
2B8
  0
LINE
  5
2B9
330
2A4
100
AcDbEntity
  8
0
100
AcDbLine
 10
0.0
 20
-10.5
 30
0.0
 11
-1.767766952966212
 21
-12.26776695296638
 31
0.0
1001
AcDbBlockRepETag
1070
     1
1071
       15
1005
2B9
  0
ENDBLK
  5
2BA
330
2A4
100
AcDbEntity
  8
0
100
AcDbBlockEnd
  0
BLOCK
  5
2C0
330
2BB
100
AcDbEntity
  8
0
 48
0.1
100
AcDbBlockBegin
  2
DM-HPT
 70
     0
 10
0.0
 20
0.0
 30
0.0
  3
DM-HPT
  1

  0
LINE
  5
2C1
330
2BB
100
AcDbEntity
  8
0
100
AcDbLine
 10
0.0
 20
0.0
 30
0.0
 11
0.0
 21
-48.0
 31
0.0
1001
AcDbBlockRepETag
1070
     1
1071
        0
1005
2C1
  0
LINE
  5
2C2
330
2BB
100
AcDbEntity
  8
0
100
AcDbLine
 10
-4.0
 20
-16.0
 30
0.0
 11
4.0
 21
-16.0
 31
0.0
1001
AcDbBlockRepETag
1070
     1
1071
        1
1005
2C2
  0
LINE
  5
2C3
330
2BB
100
AcDbEntity
  8
0
100
AcDbLine
 10
4.0
 20
-16.0
 30
0.0
 11
4.0
 21
-32.0
 31
0.0
1001
AcDbBlockRepETag
1070
     1
1071
        2
1005
2C3
  0
LINE
  5
2C4
330
2BB
100
AcDbEntity
  8
0
100
AcDbLine
 10
4.0
 20
-32.0
 30
0.0
 11
-4.0
 21
-32.0
 31
0.0
1001
AcDbBlockRepETag
1070
     1
1071
        3
1005
2C4
  0
LINE
  5
2C5
330
2BB
100
AcDbEntity
  8
0
100
AcDbLine
 10
-4.0
 20
-32.0
 30
0.0
 11
-4.0
 21
-16.0
 31
0.0
1001
AcDbBlockRepETag
1070
     1
1071
        4
1005
2C5
  0
CIRCLE
  5
2C6
330
2BB
100
AcDbEntity
  8
0
100
AcDbCircle
 10
15.0
 20
-53.0
 30
0.0
 40
8.0
1001
AcDbBlockRepETag
1070
     1
1071
        5
1005
2C6
  0
CIRCLE
  5
2C7
330
2BB
100
AcDbEntity
  8
0
100
AcDbCircle
 10
-15.0
 20
-43.0
 30
0.0
 40
8.0
1001
AcDbBlockRepETag
1070
     1
1071
        6
1005
2C7
  0
CIRCLE
  5
2C8
330
2BB
100
AcDbEntity
  8
0
100
AcDbCircle
 10
15.0
 20
-43.0
 30
0.0
 40
8.0
1001
AcDbBlockRepETag
1070
     1
1071
        7
1005
2C8
  0
LINE
  5
2C9
330
2BB
100
AcDbEntity
  8
0
100
AcDbLine
 10
0.0
 20
-48.0
 30
0.0
 11
8.75500200160161
 21
-48.0
 31
0.0
1001
AcDbBlockRepETag
1070
     1
1071
       12
1005
2C9
  0
LINE
  5
2CA
330
2BB
100
AcDbEntity
  8
0
100
AcDbLine
 10
0.0
 20
-48.0
 30
0.0
 11
-8.75500200160161
 21
-48.0
 31
0.0
1001
AcDbBlockRepETag
1070
     1
1071
       13
1005
2CA
  0
CIRCLE
  5
2CB
330
2BB
100
AcDbEntity
  8
0
100
AcDbCircle
 10
-15.0
 20
-53.0
 30
0.0
 40
8.0
1001
AcDbBlockRepETag
1070
     1
1071
       14
1005
2CB
  0
ENDBLK
  5
2CC
330
2BB
100
AcDbEntity
  8
0
 48
0.1
100
AcDbBlockEnd
  0
BLOCK
  5
2D2
330
2CD
100
AcDbEntity
  8
0
 48
0.1
100
AcDbBlockBegin
  2
DM-VCB
 70
     0
 10
0.0
 20
0.0
 30
0.0
  3
DM-VCB
  1

  0
LINE
  5
2D3
330
2CD
100
AcDbEntity
  8
0
100
AcDbLine
 10
0.0
 20
0.0
 30
0.0
 11
0.0
 21
-24.0
 31
0.0
1001
AcDbBlockRepETag
1070
     1
1071
        0
1005
2D3
  0
HATCH
  5
2D4
330
2CD
100
AcDbEntity
  8
0
100
AcDbHatch
 10
0.0
 20
0.0
 30
0.0
210
0.0
220
0.0
230
1.0
  2
SOLID
 70
     1
 71
     1
 91
        1
 92
        1
 93
        5
 72
     1
 10
-4.0
 20
-24.0
 11
-4.0
 21
-40.0
 72
     1
 10
-4.0
 20
-40.0
 11
4.0
 21
-40.0
 72
     1
 10
4.0
 20
-40.0
 11
4.0
 21
-32.0
 72
     1
 10
4.0
 20
-32.0
 11
4.0
 21
-24.0
 72
     1
 10
4.0
 20
-24.0
 11
-4.0
 21
-24.0
 97
        5
330
2D8
330
2D9
330
2D7
330
2D6
330
2D5
 75
     0
 76
     1
 98
        1
 10
-730.0000011883575
 20
-101.9999995897865
450
        0
451
        0
460
0.0
461
0.0
452
        1
462
1.0
453
        2
463
0.0
 63
     5
421
      255
463
1.0
 63
     7
421
 16777215
470
LINEAR
1001
ACAD
1010
0.0
1020
0.0
1030
0.0
1001
AcDbBlockRepETag
1070
     1
1071
        1
1005
2D4
  0
LINE
  5
2D5
102
{ACAD_REACTORS
330
2D4
102
}
330
2CD
100
AcDbEntity
  8
0
100
AcDbLine
 10
-4.0
 20
-24.0
 30
0.0
 11
4.0
 21
-24.0
 31
0.0
1001
AcDbBlockRepETag
1070
     1
1071
        2
1005
2D5
  0
LINE
  5
2D6
102
{ACAD_REACTORS
330
2D4
102
}
330
2CD
100
AcDbEntity
  8
0
100
AcDbLine
 10
4.0
 20
-24.0
 30
0.0
 11
4.0
 21
-32.0
 31
0.0
1001
AcDbBlockRepETag
1070
     1
1071
        3
1005
2D6
  0
LINE
  5
2D7
102
{ACAD_REACTORS
330
2D4
102
}
330
2CD
100
AcDbEntity
  8
0
100
AcDbLine
 10
4.0
 20
-32.0
 30
0.0
 11
4.0
 21
-40.0
 31
0.0
1001
AcDbBlockRepETag
1070
     1
1071
        4
1005
2D7
  0
LINE
  5
2D8
102
{ACAD_REACTORS
330
2D4
102
}
330
2CD
100
AcDbEntity
  8
0
100
AcDbLine
 10
-4.0
 20
-24.0
 30
0.0
 11
-4.0
 21
-40.0
 31
0.0
1001
AcDbBlockRepETag
1070
     1
1071
        5
1005
2D8
  0
LINE
  5
2D9
102
{ACAD_REACTORS
330
2D4
102
}
330
2CD
100
AcDbEntity
  8
0
100
AcDbLine
 10
-4.0
 20
-40.0
 30
0.0
 11
4.0
 21
-40.0
 31
0.0
1001
AcDbBlockRepETag
1070
     1
1071
        6
1005
2D9
  0
LINE
  5
2DA
330
2CD
100
AcDbEntity
  8
0
100
AcDbLine
 10
0.0
 20
-64.0
 30
0.0
 11
0.0
 21
-40.0
 31
0.0
1001
AcDbBlockRepETag
1070
     1
1071
        7
1005
2DA
  0
LINE
  5
2DB
330
2CD
100
AcDbEntity
  8
0
100
AcDbLine
 10
0.0
 20
0.0
 30
0.0
 11
-4.0
 21
-4.0
 31
0.0
1001
AcDbBlockRepETag
1070
     1
1071
        8
1005
2DB
  0
LINE
  5
2DC
330
2CD
100
AcDbEntity
  8
0
100
AcDbLine
 10
0.0
 20
0.0
 30
0.0
 11
4.0
 21
-4.0
 31
0.0
1001
AcDbBlockRepETag
1070
     1
1071
        9
1005
2DC
  0
LINE
  5
2DD
330
2CD
100
AcDbEntity
  8
0
100
AcDbLine
 10
0.0
 20
-4.0
 30
0.0
 11
-4.0
 21
-8.0
 31
0.0
1001
AcDbBlockRepETag
1070
     1
1071
       10
1005
2DD
  0
LINE
  5
2DE
330
2CD
100
AcDbEntity
  8
0
100
AcDbLine
 10
0.0
 20
-4.0
 30
0.0
 11
4.0
 21
-8.0
 31
0.0
1001
AcDbBlockRepETag
1070
     1
1071
       11
1005
2DE
  0
LINE
  5
2DF
330
2CD
100
AcDbEntity
  8
0
100
AcDbLine
 10
0.0
 20
-64.0
 30
0.0
 11
4.0
 21
-60.0
 31
0.0
1001
AcDbBlockRepETag
1070
     1
1071
       12
1005
2DF
  0
LINE
  5
2E0
330
2CD
100
AcDbEntity
  8
0
100
AcDbLine
 10
0.0
 20
-64.0
 30
0.0
 11
-4.0
 21
-60.0
 31
0.0
1001
AcDbBlockRepETag
1070
     1
1071
       13
1005
2E0
  0
LINE
  5
2E1
330
2CD
100
AcDbEntity
  8
0
100
AcDbLine
 10
0.0
 20
-60.0
 30
0.0
 11
4.0
 21
-56.0
 31
0.0
1001
AcDbBlockRepETag
1070
     1
1071
       14
1005
2E1
  0
LINE
  5
2E2
330
2CD
100
AcDbEntity
  8
0
100
AcDbLine
 10
0.0
 20
-60.0
 30
0.0
 11
-4.0
 21
-56.0
 31
0.0
1001
AcDbBlockRepETag
1070
     1
1071
       15
1005
2E2
  0
ENDBLK
  5
2E3
330
2CD
100
AcDbEntity
  8
0
 48
0.1
100
AcDbBlockEnd
  0
BLOCK
  5
2E9
330
2E4
100
AcDbEntity
  8
0
370
   158
100
AcDbBlockBegin
  2
DM-CT
 70
     0
 10
0.0
 20
0.0
 30
0.0
  3
DM-CT
  1

  0
LINE
  5
2EA
330
2E4
100
AcDbEntity
  8
0
100
AcDbLine
 10
0.0
 20
0.0
 30
0.0
 11
0.0
 21
-24.0
 31
0.0
1001
AcDbBlockRepETag
1070
     1
1071
        0
1005
2EA
  0
CIRCLE
  5
2EB
330
2E4
100
AcDbEntity
  8
0
100
AcDbCircle
 10
0.0
 20
-12.0
 30
0.0
 40
4.0
1001
AcDbBlockRepETag
1070
     1
1071
        1
1005
2EB
  0
LINE
  5
2EC
330
2E4
100
AcDbEntity
  8
0
100
AcDbLine
 10
4.0
 20
-12.0
 30
0.0
 11
9.999992328408325
 21
-11.99040525967284
 31
0.0
1001
AcDbBlockRepETag
1070
     1
1071
        2
1005
2EC
  0
LINE
  5
2ED
330
2E4
100
AcDbEntity
  8
0
100
AcDbLine
 10
7.0
 20
-10.0
 30
0.0
 11
5.0
 21
-14.0
 31
0.0
1001
AcDbBlockRepETag
1070
     1
1071
        3
1005
2ED
  0
LINE
  5
2EE
330
2E4
100
AcDbEntity
  8
0
100
AcDbLine
 10
9.0
 20
-10.0
 30
0.0
 11
7.0
 21
-14.0
 31
0.0
1001
AcDbBlockRepETag
1070
     1
1071
        4
1005
2EE
  0
ENDBLK
  5
2EF
330
2E4
100
AcDbEntity
  8
0
370
   158
100
AcDbBlockEnd
  0
BLOCK
  5
2F5
330
2F0
100
AcDbEntity
  8
0
100
AcDbBlockBegin
  2
DM-Handcart
 70
     0
 10
0.0
 20
0.0
 30
0.0
  3
DM-Handcart
  1

  0
LINE
  5
2F6
330
2F0
100
AcDbEntity
  8
0
370
     0
100
AcDbLine
 10
0.0
 20
0.0
 30
0.0
 11
0.0
 21
-10.0
 31
0.0
1001
AcDbBlockRepETag
1070
     1
1071
        0
1005
2F6
  0
LINE
  5
2F7
330
2F0
100
AcDbEntity
  8
0
370
     0
100
AcDbLine
 10
0.0
 20
0.0
 30
0.0
 11
-4.0
 21
-4.0
 31
0.0
1001
AcDbBlockRepETag
1070
     1
1071
        1
1005
2F7
  0
LINE
  5
2F8
330
2F0
100
AcDbEntity
  8
0
370
     0
100
AcDbLine
 10
4.0
 20
-4.0
 30
0.0
 11
0.0
 21
0.0
 31
0.0
1001
AcDbBlockRepETag
1070
     1
1071
        2
1005
2F8
  0
LINE
  5
2F9
330
2F0
100
AcDbEntity
  8
0
370
     0
100
AcDbLine
 10
-4.0
 20
-8.0
 30
0.0
 11
0.0
 21
-4.0
 31
0.0
1001
AcDbBlockRepETag
1070
     1
1071
        3
1005
2F9
  0
LINE
  5
2FA
330
2F0
100
AcDbEntity
  8
0
370
     0
100
AcDbLine
 10
0.0
 20
-4.0
 30
0.0
 11
4.0
 21
-8.0
 31
0.0
1001
AcDbBlockRepETag
1070
     1
1071
        4
1005
2FA
  0
ENDBLK
  5
2FB
330
2F0
100
AcDbEntity
  8
0
100
AcDbBlockEnd
  0
BLOCK
  5
1BA2
330
1B9D
100
AcDbEntity
  8
0
370
   158
100
AcDbBlockBegin
  2
DM-DblClmnTrans
 70
     0
 10
0.0
 20
0.0
 30
0.0
  3
DM-DblClmnTrans
  1

  0
CIRCLE
  5
1BA3
330
1B9D
100
AcDbEntity
  8
0
100
AcDbCircle
 10
0.0
 20
-12.0
 30
0.0
 40
12.0
1001
AcDbBlockRepETag
1070
     1
1071
        0
1005
1BA3
  0
CIRCLE
  5
1BA4
330
1B9D
100
AcDbEntity
  8
0
100
AcDbCircle
 10
0.0
 20
-28.0
 30
0.0
 40
12.0
1001
AcDbBlockRepETag
1070
     1
1071
        1
1005
1BA4
  0
LINE
  5
1BA5
330
1B9D
100
AcDbEntity
  8
0
100
AcDbLine
 10
0.0
 20
-6.0
 30
0.0
 11
-4.0
 21
-12.0
 31
0.0
1001
AcDbBlockRepETag
1070
     1
1071
        2
1005
1BA5
  0
LINE
  5
1BA6
330
1B9D
100
AcDbEntity
  8
0
100
AcDbLine
 10
-4.0
 20
-12.0
 30
0.0
 11
4.0
 21
-12.0
 31
0.0
1001
AcDbBlockRepETag
1070
     1
1071
        3
1005
1BA6
  0
LINE
  5
1BA7
330
1B9D
100
AcDbEntity
  8
0
100
AcDbLine
 10
4.0
 20
-12.0
 30
0.0
 11
0.0
 21
-6.0
 31
0.0
1001
AcDbBlockRepETag
1070
     1
1071
        4
1005
1BA7
  0
LINE
  5
1BA8
330
1B9D
100
AcDbEntity
  8
0
100
AcDbLine
 10
0.0
 20
-32.0
 30
0.0
 11
0.0
 21
-28.0
 31
0.0
1001
AcDbBlockRepETag
1070
     1
1071
        6
1005
1BA8
  0
LINE
  5
1BA9
330
1B9D
100
AcDbEntity
  8
0
 48
0.1
100
AcDbLine
 10
0.0
 20
-28.0
 30
0.0
 11
-4.0
 21
-25.0
 31
0.0
1001
AcDbBlockRepETag
1070
     1
1071
        9
1005
1BA9
  0
LINE
  5
1BAA
330
1B9D
100
AcDbEntity
  8
0
 48
0.1
100
AcDbLine
 10
0.0
 20
-28.0
 30
0.0
 11
4.0
 21
-25.0
 31
0.0
1001
AcDbBlockRepETag
1070
     1
1071
       10
1005
1BAA
  0
ENDBLK
  5
1BAB
330
1B9D
100
AcDbEntity
  8
0
370
   158
100
AcDbBlockEnd
  0
BLOCK
  5
3B28
330
3B26
100
AcDbEntity
  8
0
100
AcDbBlockBegin
  2
DM-Knife Switch
 70
     0
 10
0.0
 20
0.0
 30
0.0
  3
DM-Knife Switch
  1

  0
LINE
  5
7448
330
3B26
100
AcDbEntity
  8
0
100
AcDbLine
 10
0.0
 20
24.0
 30
0.0
 11
0.0
 21
21.0
 31
0.0
1001
AcDbBlockRepETag
1070
     1
1071
        0
1005
7448
  0
CIRCLE
  5
7449
330
3B26
100
AcDbEntity
  8
0
100
AcDbCircle
 10
0.0
 20
19.99999999999988
 30
0.0
 40
1.0
1001
AcDbBlockRepETag
1070
     1
1071
        1
1005
7449
  0
LINE
  5
744A
330
3B26
100
AcDbEntity
  8
0
100
AcDbLine
 10
0.0
 20
0.0
 30
0.0
 11
0.0
 21
2.999999999999886
 31
0.0
1001
AcDbBlockRepETag
1070
     1
1071
        2
1005
744A
  0
CIRCLE
  5
744B
330
3B26
100
AcDbEntity
  8
0
100
AcDbCircle
 10
0.0
 20
3.999999999999886
 30
0.0
 40
1.0
1001
AcDbBlockRepETag
1070
     1
1071
        3
1005
744B
  0
LINE
  5
744C
330
3B26
100
AcDbEntity
  8
0
100
AcDbLine
 10
-1.0
 20
3.999999999999886
 30
0.0
 11
-9.0
 21
19.99999999999988
 31
0.0
1001
AcDbBlockRepETag
1070
     1
1071
        4
1005
744C
  0
ENDBLK
  5
3B2E
330
3B26
100
AcDbEntity
  8
0
100
AcDbBlockEnd
  0
BLOCK
  5
3B34
330
3B2F
100
AcDbEntity
  8
0
100
AcDbBlockBegin
  2
DM-HV FUSE
 70
     0
 10
0.0
 20
0.0
 30
0.0
  3
DM-HV FUSE
  1

  0
LINE
  5
3B35
330
3B2F
100
AcDbEntity
  8
0
100
AcDbLine
 10
0.0
 20
24.0
 30
0.0
 11
0.0
 21
20.0
 31
0.0
1001
AcDbBlockRepETag
1070
     1
1071
        0
1005
3B35
  0
LWPOLYLINE
  5
3B36
330
3B2F
100
AcDbEntity
  8
0
100
AcDbPolyline
 90
        4
 70
     1
 43
0.0
 10
-4.0
 20
20.0
 10
4.0
 20
20.0
 10
4.0
 20
4.0
 10
-4.0
 20
4.0
1001
AcDbBlockRepETag
1070
     1
1071
        1
1005
3B36
  0
LINE
  5
3B37
330
3B2F
100
AcDbEntity
  8
0
100
AcDbLine
 10
0.0
 20
0.0
 30
0.0
 11
0.0
 21
4.0
 31
0.0
1001
AcDbBlockRepETag
1070
     1
1071
        2
1005
3B37
  0
LINE
  5
3B38
330
3B2F
100
AcDbEntity
  8
0
100
AcDbLine
 10
0.0
 20
4.0
 30
0.0
 11
0.0
 21
20.0
 31
0.0
1001
AcDbBlockRepETag
1070
     1
1071
        3
1005
3B38
  0
ENDBLK
  5
3B39
330
3B2F
100
AcDbEntity
  8
0
100
AcDbBlockEnd
  0
BLOCK
  5
6AA3
330
6A44
100
AcDbEntity
  8
0
100
AcDbBlockBegin
  2
A$C3A216533
 70
     0
 10
0.0
 20
0.0
 30
0.0
  3
A$C3A216533
  1

  0
INSERT
  5
6A45
102
{ACAD_XDICTIONARY
360
6A46
102
}
330
6A44
100
AcDbEntity
  8
DM-ZCT
 48
0.1
370
     0
100
AcDbBlockReference
  2
*U49
 10
99.99999114690446
 20
348.9999978903315
 30
0.0
 50
180.0
  0
INSERT
  5
6A4C
102
{ACAD_XDICTIONARY
360
6A4D
102
}
330
6A44
100
AcDbEntity
  8
DM-Outgoing Line-180
370
     0
100
AcDbBlockReference
  2
*U38
 10
99.99999114690446
 20
333.9999978903315
 30
0.0
  0
LINE
  5
6A53
330
6A44
100
AcDbEntity
  8
DM-10kV-Wire
 48
0.1
100
AcDbLine
 10
99.99999114690446
 20
333.9999978903315
 30
0.0
 11
99.99999114690446
 21
203.9999978903316
 31
0.0
  0
LINE
  5
6A54
330
6A44
100
AcDbEntity
  8
DM-10kV-Wire
 48
0.1
100
AcDbLine
 10
99.99999114690446
 20
139.9999978903315
 30
0.0
 11
99.99999114690446
 21
69.99999789033154
 31
0.0
  0
LINE
  5
6A55
330
6A44
100
AcDbEntity
  8
DM-10kV-Wire
 48
0.1
100
AcDbLine
 10
99.99999114690446
 20
372.9999978903316
 30
0.0
 11
99.99999114690446
 21
442.9999978903315
 31
0.0
  0
LWPOLYLINE
  5
6A56
330
6A44
100
AcDbEntity
  8
DM-Wireframe
  6
ACAD_ISO03W100
370
     0
100
AcDbPolyline
 90
        4
 70
     1
 43
0.0
 10
29.99999114690445
 20
402.9999978903315
 10
169.9999911469044
 20
402.9999978903315
 10
169.9999911469044
 20
109.9999978903315
 10
29.99999114689535
 20
109.9999978903315
  0
MTEXT
  5
6A57
330
6A44
100
AcDbEntity
  8
DM-Text
370
     0
100
AcDbMText
 10
169.9999911469044
 20
407.4901175853129
 30
0.0
 40
10.0
 41
51.58707615633011
 46
0.0
 71
     9
 72
     5
  1
G3
 73
     1
 44
1.0
1001
ACAD
1000
ACAD_MTEXT_COLUMN_INFO_BEGIN
1070
    75
1070
     2
1070
    79
1070
     0
1070
    76
1070
     1
1070
    78
1070
     0
1070
    48
1040
51.58707615633011
1070
    49
1040
12.5
1070
    50
1070
     1
1040
0.0
1000
ACAD_MTEXT_COLUMN_INFO_END
  0
LINE
  5
6A58
330
6A44
100
AcDbEntity
  8
DM-10kV-Wire
100
AcDbLine
 10
-0.0000088530955509
 20
442.9999978903315
 30
0.0
 11
-0.0000088530955509
 21
-0.0000021096684577
 31
0.0
  0
INSERT
  5
6A59
102
{ACAD_XDICTIONARY
360
6A5A
102
}
330
6A44
100
AcDbEntity
  8
DM-Earthing Switch-90
370
     0
100
AcDbBlockReference
  2
*U39
 10
119.9999911469044
 20
318.9999978903315
 30
0.0
 50
90.0
  0
INSERT
  5
6A60
102
{ACAD_XDICTIONARY
360
6A61
102
}
330
6A44
100
AcDbEntity
  8
DM-Arrester-270
370
     0
100
AcDbBlockReference
  2
*U40
 10
79.99999114690445
 20
318.9999978903315
 30
0.0
 41
2.0
 42
2.0
 43
2.0
 50
270.0
  0
INSERT
  5
6A67
102
{ACAD_XDICTIONARY
360
6A68
102
}
330
6A44
100
AcDbEntity
  8
DM-GND-270
370
     0
100
AcDbBlockReference
  2
*U41
 10
47.99999114690445
 20
318.9999978903315
 30
0.0
 41
2.0
 42
2.0
 43
2.0
 50
270.0
  0
LINE
  5
6A6E
330
6A44
100
AcDbEntity
  8
DM-10kV-Wire
 48
0.1
100
AcDbLine
 10
99.99999114690446
 20
298.9999978903315
 30
0.0
 11
79.99999114690445
 21
298.9999978903315
 31
0.0
  0
LINE
  5
6A6F
330
6A44
100
AcDbEntity
  8
DM-10kV-Wire
 48
0.1
100
AcDbLine
 10
119.9999911469044
 20
318.9999978903315
 30
0.0
 11
79.99999114690445
 21
318.9999978903315
 31
0.0
  0
INSERT
  5
6A70
102
{ACAD_XDICTIONARY
360
6A71
102
}
330
6A44
100
AcDbEntity
  8
DM-DXN-T-270
370
     0
100
AcDbBlockReference
  2
*U42
 10
79.99999114690445
 20
298.9999978903315
 30
0.0
 41
2.0
 42
2.0
 43
2.0
 50
270.0
  0
INSERT
  5
6A77
102
{ACAD_XDICTIONARY
360
6A78
102
}
330
6A44
100
AcDbEntity
  8
DM-GND-270
370
     0
100
AcDbBlockReference
  2
*U43
 10
47.99999114690445
 20
298.9999978903315
 30
0.0
 41
2.0
 42
2.0
 43
2.0
 50
270.0
  0
INSERT
  5
6A7E
102
{ACAD_XDICTIONARY
360
6A7F
102
}
330
6A44
100
AcDbEntity
  8
DM-CT
370
     0
100
AcDbBlockReference
  2
*U44
 10
84.99999114690444
 20
288.9999978903315
 30
0.0
  0
INSERT
  5
6A85
102
{ACAD_XDICTIONARY
360
6A86
102
}
330
6A44
100
AcDbEntity
  8
DM-CT
370
     0
100
AcDbBlockReference
  2
*U45
 10
84.99999114690444
 20
259.9999978903316
 30
0.0
  0
INSERT
  5
6A8C
102
{ACAD_XDICTIONARY
360
6A8D
102
}
330
6A44
100
AcDbEntity
  8
DM-CT
370
     0
100
AcDbBlockReference
  2
*U46
 10
114.9999911469044
 20
288.9999978903315
 30
0.0
  0
INSERT
  5
6A93
102
{ACAD_XDICTIONARY
360
6A94
102
}
330
6A44
100
AcDbEntity
  8
DM-CT
370
     0
100
AcDbBlockReference
  2
*U47
 10
114.9999911469044
 20
259.9999978903316
 30
0.0
  0
INSERT
  5
6A9A
102
{ACAD_XDICTIONARY
360
6A9B
102
}
330
6A44
100
AcDbEntity
  8
DM-VCB
 48
0.1
370
     0
100
AcDbBlockReference
  2
*U48
 10
99.99999114690446
 20
203.9999978903316
 30
0.0
  0
LINE
  5
6AA1
330
6A44
100
AcDbEntity
  8
DM-10kV-Cable
100
AcDbLine
 10
169.9999911469044
 20
69.99999789033063
 30
0.0
 11
29.99999114690445
 21
69.99999789033336
 31
0.0
  0
ENDBLK
  5
6AA4
330
6A44
100
AcDbEntity
  8
0
100
AcDbBlockEnd
  0
BLOCK
  5
6AA6
330
6AA5
100
AcDbEntity
  8
0
100
AcDbBlockBegin
  2
*U38
 70
     1
 10
0.0
 20
0.0
 30
0.0
  3
*U38
  1

  0
LINE
  5
6AA8
330
6AA5
100
AcDbEntity
  8
0
100
AcDbLine
 10
0.0
 20
0.0
 30
0.0
 11
0.0
 21
15.0
 31
0.0
1001
AcDbBlockRepETag
1070
     1
1071
        0
1005
6AA8
  0
HATCH
  5
6AA9
330
6AA5
100
AcDbEntity
  8
0
100
AcDbHatch
 10
0.0
 20
0.0
 30
0.0
210
0.0
220
0.0
230
1.0
  2
SOLID
 70
     1
 71
     1
 91
        1
 92
        1
 93
        3
 72
     1
 10
0.0
 20
15.0
 11
-2.0
 21
10.99999910797555
 72
     1
 10
-2.0
 20
10.99999910797555
 11
2.0
 21
10.99999910797555
 72
     1
 10
2.0
 20
10.99999910797555
 11
0.0
 21
15.0
 97
        3
330
6AAA
330
6AAB
330
6AAC
 75
     0
 76
     1
 98
        1
 10
-854.0
 20
84.99999910797555
450
        0
451
        0
460
0.0
461
0.0
452
        1
462
1.0
453
        2
463
0.0
 63
     5
421
      255
463
1.0
 63
     7
421
 16777215
470
LINEAR
1001
ACAD
1010
0.0
1020
0.0
1030
0.0
1001
AcDbBlockRepETag
1070
     1
1071
        1
1005
6AA9
  0
LINE
  5
6AAA
102
{ACAD_REACTORS
330
6AA9
102
}
330
6AA5
100
AcDbEntity
  8
0
100
AcDbLine
 10
0.0
 20
15.0
 30
0.0
 11
-2.0
 21
10.99999910797555
 31
0.0
1001
AcDbBlockRepETag
1070
     1
1071
        2
1005
6AAA
  0
LINE
  5
6AAB
102
{ACAD_REACTORS
330
6AA9
102
}
330
6AA5
100
AcDbEntity
  8
0
100
AcDbLine
 10
-2.0
 20
10.99999910797555
 30
0.0
 11
2.0
 21
10.99999910797555
 31
0.0
1001
AcDbBlockRepETag
1070
     1
1071
        3
1005
6AAB
  0
LINE
  5
6AAC
102
{ACAD_REACTORS
330
6AA9
102
}
330
6AA5
100
AcDbEntity
  8
0
100
AcDbLine
 10
2.0
 20
10.99999910797555
 30
0.0
 11
0.0
 21
15.0
 31
0.0
1001
AcDbBlockRepETag
1070
     1
1071
        4
1005
6AAC
  0
ENDBLK
  5
6AA7
330
6AA5
100
AcDbEntity
  8
0
100
AcDbBlockEnd
  0
BLOCK
  5
6AB1
330
6AB0
100
AcDbEntity
  8
0
100
AcDbBlockBegin
  2
*U39
 70
     1
 10
0.0
 20
0.0
 30
0.0
  3
*U39
  1

  0
LINE
  5
6AB3
330
6AB0
100
AcDbEntity
  8
0
100
AcDbLine
 10
-4.0
 20
-6.0
 30
0.0
 11
4.0
 21
-6.0
 31
0.0
1001
AcDbBlockRepETag
1070
     1
1071
        1
1005
6AB3
  0
LINE
  5
6AB4
330
6AB0
100
AcDbEntity
  8
0
100
AcDbLine
 10
0.0
 20
0.0
 30
0.0
 11
0.0
 21
-6.0
 31
0.0
1001
AcDbBlockRepETag
1070
     1
1071
        2
1005
6AB4
  0
LINE
  5
6AB5
330
6AB0
100
AcDbEntity
  8
0
100
AcDbLine
 10
0.0000004987477951
 20
-20.0
 30
0.0
 11
-8.0
 21
-6.0
 31
0.0
1001
AcDbBlockRepETag
1070
     1
1071
        3
1005
6AB5
  0
LINE
  5
6AB6
330
6AB0
100
AcDbEntity
  8
0
 48
0.1
100
AcDbLine
 10
0.0000004987477951
 20
-20.0
 30
0.0
 11
0.0000004987477951
 21
-32.0
 31
0.0
1001
AcDbBlockRepETag
1070
     1
1071
        4
1005
6AB6
  0
LINE
  5
6AB7
330
6AB0
100
AcDbEntity
  8
0
100
AcDbLine
 10
0.0000004987477951
 20
-32.0
 30
0.0
 11
0.0000004987477951
 21
-40.0
 31
0.0
1001
AcDbBlockRepETag
1070
     1
1071
        0
1005
6AB7
  0
LINE
  5
6AB8
330
6AB0
100
AcDbEntity
  8
0
100
AcDbLine
 10
-3.999999501252204
 20
-40.0
 30
0.0
 11
4.000000498747795
 21
-40.0
 31
0.0
1001
AcDbBlockRepETag
1070
     1
1071
        5
1005
6AB8
  0
LINE
  5
6AB9
330
6AB0
100
AcDbEntity
  8
0
100
AcDbLine
 10
-1.999999501252204
 20
-42.0
 30
0.0
 11
2.000000498747795
 21
-42.0
 31
0.0
1001
AcDbBlockRepETag
1070
     1
1071
        6
1005
6AB9
  0
LINE
  5
6ABA
330
6AB0
100
AcDbEntity
  8
0
100
AcDbLine
 10
0.0000004987477951
 20
-44.0
 30
0.0
 11
0.0000004987477951
 21
-44.0
 31
0.0
1001
AcDbBlockRepETag
1070
     1
1071
        7
1005
6ABA
  0
LINE
  5
6ABB
330
6AB0
100
AcDbEntity
  8
0
100
AcDbLine
 10
1.000000498747795
 20
-44.0
 30
0.0
 11
-0.9999995012522049
 21
-44.0
 31
0.0
1001
AcDbBlockRepETag
1070
     1
1071
        8
1005
6ABB
  0
ENDBLK
  5
6AB2
330
6AB0
100
AcDbEntity
  8
0
100
AcDbBlockEnd
  0
BLOCK
  5
6AC0
330
6ABF
100
AcDbEntity
  8
0
100
AcDbBlockBegin
  2
*U40
 70
     1
 10
0.0
 20
0.0
 30
0.0
  3
*U40
  1

  0
LINE
  5
6AC2
330
6ABF
100
AcDbEntity
  8
0
100
AcDbLine
 10
0.0
 20
0.0
 30
0.0
 11
0.0
 21
-4.0
 31
0.0
1001
AcDbBlockRepETag
1070
     1
1071
        0
1005
6AC2
  0
LINE
  5
6AC3
330
6ABF
100
AcDbEntity
  8
0
100
AcDbLine
 10
-2.0
 20
-4.0
 30
0.0
 11
2.0
 21
-4.0
 31
0.0
1001
AcDbBlockRepETag
1070
     1
1071
        1
1005
6AC3
  0
LINE
  5
6AC4
330
6ABF
100
AcDbEntity
  8
0
100
AcDbLine
 10
2.0
 20
-4.0
 30
0.0
 11
2.0
 21
-12.0
 31
0.0
1001
AcDbBlockRepETag
1070
     1
1071
        2
1005
6AC4
  0
LINE
  5
6AC5
330
6ABF
100
AcDbEntity
  8
0
100
AcDbLine
 10
2.0
 20
-12.0
 30
0.0
 11
-2.0
 21
-12.0
 31
0.0
1001
AcDbBlockRepETag
1070
     1
1071
        3
1005
6AC5
  0
LINE
  5
6AC6
330
6ABF
100
AcDbEntity
  8
0
100
AcDbLine
 10
-2.0
 20
-12.0
 30
0.0
 11
-2.0
 21
-4.0
 31
0.0
1001
AcDbBlockRepETag
1070
     1
1071
        4
1005
6AC6
  0
LINE
  5
6AC7
330
6ABF
100
AcDbEntity
  8
0
100
AcDbLine
 10
0.0
 20
-16.0
 30
0.0
 11
0.0
 21
-12.0
 31
0.0
1001
AcDbBlockRepETag
1070
     1
1071
        5
1005
6AC7
  0
LINE
  5
6AC8
330
6ABF
100
AcDbEntity
  8
0
100
AcDbLine
 10
0.0
 20
-4.0
 30
0.0
 11
0.0
 21
-4.5
 31
0.0
1001
AcDbBlockRepETag
1070
     1
1071
        6
1005
6AC8
  0
HATCH
  5
6AC9
330
6ABF
100
AcDbEntity
  8
0
100
AcDbHatch
 10
0.0
 20
0.0
 30
0.0
210
0.0
220
0.0
230
1.0
  2
SOLID
 70
     1
 71
     1
 91
        1
 92
        1
 93
        4
 72
     1
 10
0.0
 20
-4.5
 11
1.5
 21
-4.5
 72
     1
 10
1.5
 20
-4.5
 11
0.0
 21
-8.0
 72
     1
 10
0.0
 20
-8.0
 11
-1.5
 21
-4.5
 72
     1
 10
-1.5
 20
-4.5
 11
0.0
 21
-4.5
 97
        4
330
6ACA
330
6ACC
330
6ACD
330
6ACB
 75
     0
 76
     1
 98
        1
 10
-3024.0
 20
314.0
450
        0
451
        0
460
0.0
461
0.0
452
        1
462
1.0
453
        2
463
0.0
 63
     5
421
      255
463
1.0
 63
     7
421
 16777215
470
LINEAR
1001
ACAD
1010
0.0
1020
0.0
1030
0.0
1001
AcDbBlockRepETag
1070
     1
1071
       11
1005
6AC9
  0
LINE
  5
6ACA
102
{ACAD_REACTORS
330
6AC9
102
}
330
6ABF
100
AcDbEntity
  8
0
100
AcDbLine
 10
0.0
 20
-4.5
 30
0.0
 11
1.5
 21
-4.5
 31
0.0
1001
AcDbBlockRepETag
1070
     1
1071
        7
1005
6ACA
  0
LINE
  5
6ACB
102
{ACAD_REACTORS
330
6AC9
102
}
330
6ABF
100
AcDbEntity
  8
0
100
AcDbLine
 10
0.0
 20
-4.5
 30
0.0
 11
-1.5
 21
-4.5
 31
0.0
1001
AcDbBlockRepETag
1070
     1
1071
        8
1005
6ACB
  0
LINE
  5
6ACC
102
{ACAD_REACTORS
330
6AC9
102
}
330
6ABF
100
AcDbEntity
  8
0
100
AcDbLine
 10
0.0
 20
-8.0
 30
0.0
 11
1.5
 21
-4.5
 31
0.0
1001
AcDbBlockRepETag
1070
     1
1071
        9
1005
6ACC
  0
LINE
  5
6ACD
102
{ACAD_REACTORS
330
6AC9
102
}
330
6ABF
100
AcDbEntity
  8
0
100
AcDbLine
 10
0.0
 20
-8.0
 30
0.0
 11
-1.5
 21
-4.5
 31
0.0
1001
AcDbBlockRepETag
1070
     1
1071
       10
1005
6ACD
  0
ENDBLK
  5
6AC1
330
6ABF
100
AcDbEntity
  8
0
100
AcDbBlockEnd
  0
BLOCK
  5
6AD3
330
6AD2
100
AcDbEntity
  8
0
100
AcDbBlockBegin
  2
*U41
 70
     1
 10
0.0
 20
0.0
 30
0.0
  3
*U41
  1

  0
LINE
  5
6AD5
330
6AD2
100
AcDbEntity
  8
0
100
AcDbLine
 10
0.0
 20
0.0
 30
0.0
 11
0.0
 21
-4.0
 31
0.0
1001
AcDbBlockRepETag
1070
     1
1071
        0
1005
6AD5
  0
LINE
  5
6AD6
330
6AD2
100
AcDbEntity
  8
0
100
AcDbLine
 10
-2.0
 20
-4.0
 30
0.0
 11
2.0
 21
-4.0
 31
0.0
1001
AcDbBlockRepETag
1070
     1
1071
        1
1005
6AD6
  0
LINE
  5
6AD7
330
6AD2
100
AcDbEntity
  8
0
100
AcDbLine
 10
-1.0
 20
-5.0
 30
0.0
 11
1.0
 21
-5.0
 31
0.0
1001
AcDbBlockRepETag
1070
     1
1071
        2
1005
6AD7
  0
LINE
  5
6AD8
330
6AD2
100
AcDbEntity
  8
0
100
AcDbLine
 10
0.0
 20
-6.0
 30
0.0
 11
0.0
 21
-6.0
 31
0.0
1001
AcDbBlockRepETag
1070
     1
1071
        3
1005
6AD8
  0
LINE
  5
6AD9
330
6AD2
100
AcDbEntity
  8
0
100
AcDbLine
 10
0.5
 20
-6.0
 30
0.0
 11
-0.5
 21
-6.0
 31
0.0
1001
AcDbBlockRepETag
1070
     1
1071
        4
1005
6AD9
  0
ENDBLK
  5
6AD4
330
6AD2
100
AcDbEntity
  8
0
100
AcDbBlockEnd
  0
BLOCK
  5
6ADE
330
6ADD
100
AcDbEntity
  8
0
100
AcDbBlockBegin
  2
*U42
 70
     1
 10
0.0
 20
0.0
 30
0.0
  3
*U42
  1

  0
LINE
  5
6AE0
330
6ADD
100
AcDbEntity
  8
0
100
AcDbLine
 10
0.0
 20
0.0
 30
0.0
 11
0.0
 21
-3.0
 31
0.0
1001
AcDbBlockRepETag
1070
     1
1071
        0
1005
6AE0
  0
LINE
  5
6AE1
330
6ADD
100
AcDbEntity
  8
0
100
AcDbLine
 10
2.0
 20
-3.0
 30
0.0
 11
-2.0
 21
-3.0
 31
0.0
1001
AcDbBlockRepETag
1070
     1
1071
        1
1005
6AE1
  0
LINE
  5
6AE2
330
6ADD
100
AcDbEntity
  8
0
100
AcDbLine
 10
-2.0
 20
-5.0
 30
0.0
 11
2.0
 21
-5.0
 31
0.0
1001
AcDbBlockRepETag
1070
     1
1071
        2
1005
6AE2
  0
LINE
  5
6AE3
330
6ADD
100
AcDbEntity
  8
0
100
AcDbLine
 10
0.0
 20
-8.0
 30
0.0
 11
0.0
 21
-5.0
 31
0.0
1001
AcDbBlockRepETag
1070
     1
1071
        3
1005
6AE3
  0
CIRCLE
  5
6AE4
330
6ADD
100
AcDbEntity
  8
0
100
AcDbCircle
 10
0.0
 20
-10.5
 30
0.0
 40
2.5
1001
AcDbBlockRepETag
1070
     1
1071
        4
1005
6AE4
  0
LINE
  5
6AE5
330
6ADD
100
AcDbEntity
  8
0
100
AcDbLine
 10
0.0
 20
-16.0
 30
0.0
 11
0.0
 21
-13.0
 31
0.0
1001
AcDbBlockRepETag
1070
     1
1071
        5
1005
6AE5
  0
LINE
  5
6AE6
330
6ADD
100
AcDbEntity
  8
0
100
AcDbLine
 10
0.0
 20
-10.5
 30
0.0
 11
0.0
 21
-10.5
 31
0.0
1001
AcDbBlockRepETag
1070
     1
1071
        6
1005
6AE6
  0
LINE
  5
6AE7
330
6ADD
100
AcDbEntity
  8
0
100
AcDbLine
 10
0.0
 20
-10.5
 30
0.0
 11
0.0
 21
-10.5
 31
0.0
1001
AcDbBlockRepETag
1070
     1
1071
        7
1005
6AE7
  0
LINE
  5
6AE8
330
6ADD
100
AcDbEntity
  8
0
100
AcDbLine
 10
0.0
 20
-10.5
 30
0.0
 11
0.0
 21
-10.5
 31
0.0
1001
AcDbBlockRepETag
1070
     1
1071
        8
1005
6AE8
  0
LINE
  5
6AE9
330
6ADD
100
AcDbEntity
  8
0
100
AcDbLine
 10
0.0
 20
-10.5
 30
0.0
 11
0.0
 21
-10.5
 31
0.0
1001
AcDbBlockRepETag
1070
     1
1071
        9
1005
6AE9
  0
LINE
  5
6AEA
330
6ADD
100
AcDbEntity
  8
0
100
AcDbLine
 10
0.0
 20
-10.5
 30
0.0
 11
0.0
 21
-10.5
 31
0.0
1001
AcDbBlockRepETag
1070
     1
1071
       10
1005
6AEA
  0
LINE
  5
6AEB
330
6ADD
100
AcDbEntity
  8
0
100
AcDbLine
 10
0.0
 20
-10.5
 30
0.0
 11
0.0
 21
-10.5
 31
0.0
1001
AcDbBlockRepETag
1070
     1
1071
       11
1005
6AEB
  0
LINE
  5
6AEC
330
6ADD
100
AcDbEntity
  8
0
100
AcDbLine
 10
0.0
 20
-10.5
 30
0.0
 11
-1.767766952966212
 21
-8.732233047033616
 31
0.0
1001
AcDbBlockRepETag
1070
     1
1071
       12
1005
6AEC
  0
LINE
  5
6AED
330
6ADD
100
AcDbEntity
  8
0
100
AcDbLine
 10
0.0
 20
-10.5
 30
0.0
 11
1.767766952966212
 21
-8.732233047033616
 31
0.0
1001
AcDbBlockRepETag
1070
     1
1071
       13
1005
6AED
  0
LINE
  5
6AEE
330
6ADD
100
AcDbEntity
  8
0
100
AcDbLine
 10
0.0
 20
-10.5
 30
0.0
 11
1.767766952966212
 21
-12.26776695296638
 31
0.0
1001
AcDbBlockRepETag
1070
     1
1071
       14
1005
6AEE
  0
LINE
  5
6AEF
330
6ADD
100
AcDbEntity
  8
0
100
AcDbLine
 10
0.0
 20
-10.5
 30
0.0
 11
-1.767766952966212
 21
-12.26776695296638
 31
0.0
1001
AcDbBlockRepETag
1070
     1
1071
       15
1005
6AEF
  0
ENDBLK
  5
6ADF
330
6ADD
100
AcDbEntity
  8
0
100
AcDbBlockEnd
  0
BLOCK
  5
6AF4
330
6AF3
100
AcDbEntity
  8
0
100
AcDbBlockBegin
  2
*U43
 70
     1
 10
0.0
 20
0.0
 30
0.0
  3
*U43
  1

  0
LINE
  5
6AF6
330
6AF3
100
AcDbEntity
  8
0
100
AcDbLine
 10
0.0
 20
0.0
 30
0.0
 11
0.0
 21
-4.0
 31
0.0
1001
AcDbBlockRepETag
1070
     1
1071
        0
1005
6AF6
  0
LINE
  5
6AF7
330
6AF3
100
AcDbEntity
  8
0
100
AcDbLine
 10
-2.0
 20
-4.0
 30
0.0
 11
2.0
 21
-4.0
 31
0.0
1001
AcDbBlockRepETag
1070
     1
1071
        1
1005
6AF7
  0
LINE
  5
6AF8
330
6AF3
100
AcDbEntity
  8
0
100
AcDbLine
 10
-1.0
 20
-5.0
 30
0.0
 11
1.0
 21
-5.0
 31
0.0
1001
AcDbBlockRepETag
1070
     1
1071
        2
1005
6AF8
  0
LINE
  5
6AF9
330
6AF3
100
AcDbEntity
  8
0
100
AcDbLine
 10
0.0
 20
-6.0
 30
0.0
 11
0.0
 21
-6.0
 31
0.0
1001
AcDbBlockRepETag
1070
     1
1071
        3
1005
6AF9
  0
LINE
  5
6AFA
330
6AF3
100
AcDbEntity
  8
0
100
AcDbLine
 10
0.5
 20
-6.0
 30
0.0
 11
-0.5
 21
-6.0
 31
0.0
1001
AcDbBlockRepETag
1070
     1
1071
        4
1005
6AFA
  0
ENDBLK
  5
6AF5
330
6AF3
100
AcDbEntity
  8
0
100
AcDbBlockEnd
  0
BLOCK
  5
6AFF
330
6AFE
100
AcDbEntity
  8
0
100
AcDbBlockBegin
  2
*U44
 70
     1
 10
0.0
 20
0.0
 30
0.0
  3
*U44
  1

  0
LINE
  5
6B01
330
6AFE
100
AcDbEntity
  8
0
100
AcDbLine
 10
0.0
 20
0.0
 30
0.0
 11
0.0
 21
-24.0
 31
0.0
1001
AcDbBlockRepETag
1070
     1
1071
        0
1005
6B01
  0
CIRCLE
  5
6B02
330
6AFE
100
AcDbEntity
  8
0
100
AcDbCircle
 10
0.0
 20
-12.0
 30
0.0
 40
4.0
1001
AcDbBlockRepETag
1070
     1
1071
        1
1005
6B02
  0
LINE
  5
6B03
330
6AFE
100
AcDbEntity
  8
0
100
AcDbLine
 10
4.0
 20
-12.0
 30
0.0
 11
9.999992328408325
 21
-11.99040525967284
 31
0.0
1001
AcDbBlockRepETag
1070
     1
1071
        2
1005
6B03
  0
LINE
  5
6B04
330
6AFE
100
AcDbEntity
  8
0
100
AcDbLine
 10
7.0
 20
-10.0
 30
0.0
 11
5.0
 21
-14.0
 31
0.0
1001
AcDbBlockRepETag
1070
     1
1071
        3
1005
6B04
  0
LINE
  5
6B05
330
6AFE
100
AcDbEntity
  8
0
100
AcDbLine
 10
9.0
 20
-10.0
 30
0.0
 11
7.0
 21
-14.0
 31
0.0
1001
AcDbBlockRepETag
1070
     1
1071
        4
1005
6B05
  0
ENDBLK
  5
6B00
330
6AFE
100
AcDbEntity
  8
0
100
AcDbBlockEnd
  0
BLOCK
  5
6B0A
330
6B09
100
AcDbEntity
  8
0
100
AcDbBlockBegin
  2
*U45
 70
     1
 10
0.0
 20
0.0
 30
0.0
  3
*U45
  1

  0
LINE
  5
6B0C
330
6B09
100
AcDbEntity
  8
0
100
AcDbLine
 10
0.0
 20
0.0
 30
0.0
 11
0.0
 21
-24.0
 31
0.0
1001
AcDbBlockRepETag
1070
     1
1071
        0
1005
6B0C
  0
CIRCLE
  5
6B0D
330
6B09
100
AcDbEntity
  8
0
100
AcDbCircle
 10
0.0
 20
-12.0
 30
0.0
 40
4.0
1001
AcDbBlockRepETag
1070
     1
1071
        1
1005
6B0D
  0
LINE
  5
6B0E
330
6B09
100
AcDbEntity
  8
0
100
AcDbLine
 10
4.0
 20
-12.0
 30
0.0
 11
9.999992328408325
 21
-11.99040525967284
 31
0.0
1001
AcDbBlockRepETag
1070
     1
1071
        2
1005
6B0E
  0
LINE
  5
6B0F
330
6B09
100
AcDbEntity
  8
0
100
AcDbLine
 10
7.0
 20
-10.0
 30
0.0
 11
5.0
 21
-14.0
 31
0.0
1001
AcDbBlockRepETag
1070
     1
1071
        3
1005
6B0F
  0
LINE
  5
6B10
330
6B09
100
AcDbEntity
  8
0
100
AcDbLine
 10
9.0
 20
-10.0
 30
0.0
 11
7.0
 21
-14.0
 31
0.0
1001
AcDbBlockRepETag
1070
     1
1071
        4
1005
6B10
  0
ENDBLK
  5
6B0B
330
6B09
100
AcDbEntity
  8
0
100
AcDbBlockEnd
  0
BLOCK
  5
6B15
330
6B14
100
AcDbEntity
  8
0
100
AcDbBlockBegin
  2
*U46
 70
     1
 10
0.0
 20
0.0
 30
0.0
  3
*U46
  1

  0
LINE
  5
6B17
330
6B14
100
AcDbEntity
  8
0
100
AcDbLine
 10
0.0
 20
0.0
 30
0.0
 11
0.0
 21
-24.0
 31
0.0
1001
AcDbBlockRepETag
1070
     1
1071
        0
1005
6B17
  0
CIRCLE
  5
6B18
330
6B14
100
AcDbEntity
  8
0
100
AcDbCircle
 10
0.0
 20
-12.0
 30
0.0
 40
4.0
1001
AcDbBlockRepETag
1070
     1
1071
        1
1005
6B18
  0
LINE
  5
6B19
330
6B14
100
AcDbEntity
  8
0
100
AcDbLine
 10
4.0
 20
-12.0
 30
0.0
 11
9.999992328408325
 21
-11.99040525967284
 31
0.0
1001
AcDbBlockRepETag
1070
     1
1071
        2
1005
6B19
  0
LINE
  5
6B1A
330
6B14
100
AcDbEntity
  8
0
100
AcDbLine
 10
7.0
 20
-10.0
 30
0.0
 11
5.0
 21
-14.0
 31
0.0
1001
AcDbBlockRepETag
1070
     1
1071
        3
1005
6B1A
  0
LINE
  5
6B1B
330
6B14
100
AcDbEntity
  8
0
100
AcDbLine
 10
9.0
 20
-10.0
 30
0.0
 11
7.0
 21
-14.0
 31
0.0
1001
AcDbBlockRepETag
1070
     1
1071
        4
1005
6B1B
  0
ENDBLK
  5
6B16
330
6B14
100
AcDbEntity
  8
0
100
AcDbBlockEnd
  0
BLOCK
  5
6B20
330
6B1F
100
AcDbEntity
  8
0
100
AcDbBlockBegin
  2
*U47
 70
     1
 10
0.0
 20
0.0
 30
0.0
  3
*U47
  1

  0
LINE
  5
6B22
330
6B1F
100
AcDbEntity
  8
0
100
AcDbLine
 10
0.0
 20
0.0
 30
0.0
 11
0.0
 21
-24.0
 31
0.0
1001
AcDbBlockRepETag
1070
     1
1071
        0
1005
6B22
  0
CIRCLE
  5
6B23
330
6B1F
100
AcDbEntity
  8
0
100
AcDbCircle
 10
0.0
 20
-12.0
 30
0.0
 40
4.0
1001
AcDbBlockRepETag
1070
     1
1071
        1
1005
6B23
  0
LINE
  5
6B24
330
6B1F
100
AcDbEntity
  8
0
100
AcDbLine
 10
4.0
 20
-12.0
 30
0.0
 11
9.999992328408325
 21
-11.99040525967284
 31
0.0
1001
AcDbBlockRepETag
1070
     1
1071
        2
1005
6B24
  0
LINE
  5
6B25
330
6B1F
100
AcDbEntity
  8
0
100
AcDbLine
 10
7.0
 20
-10.0
 30
0.0
 11
5.0
 21
-14.0
 31
0.0
1001
AcDbBlockRepETag
1070
     1
1071
        3
1005
6B25
  0
LINE
  5
6B26
330
6B1F
100
AcDbEntity
  8
0
100
AcDbLine
 10
9.0
 20
-10.0
 30
0.0
 11
7.0
 21
-14.0
 31
0.0
1001
AcDbBlockRepETag
1070
     1
1071
        4
1005
6B26
  0
ENDBLK
  5
6B21
330
6B1F
100
AcDbEntity
  8
0
100
AcDbBlockEnd
  0
BLOCK
  5
6B2B
330
6B2A
100
AcDbEntity
  8
0
100
AcDbBlockBegin
  2
*U48
 70
     1
 10
0.0
 20
0.0
 30
0.0
  3
*U48
  1

  0
LINE
  5
6B2D
330
6B2A
100
AcDbEntity
  8
0
100
AcDbLine
 10
0.0
 20
0.0
 30
0.0
 11
0.0
 21
-24.0
 31
0.0
1001
AcDbBlockRepETag
1070
     1
1071
        0
1005
6B2D
  0
HATCH
  5
6B2E
330
6B2A
100
AcDbEntity
  8
0
100
AcDbHatch
 10
0.0
 20
0.0
 30
0.0
210
0.0
220
0.0
230
1.0
  2
SOLID
 70
     1
 71
     1
 91
        1
 92
        1
 93
        5
 72
     1
 10
-4.0
 20
-24.0
 11
-4.0
 21
-40.0
 72
     1
 10
-4.0
 20
-40.0
 11
4.0
 21
-40.0
 72
     1
 10
4.0
 20
-40.0
 11
4.0
 21
-32.0
 72
     1
 10
4.0
 20
-32.0
 11
4.0
 21
-24.0
 72
     1
 10
4.0
 20
-24.0
 11
-4.0
 21
-24.0
 97
        5
330
6B32
330
6B33
330
6B31
330
6B30
330
6B2F
 75
     0
 76
     1
 98
        1
 10
-730.0000011883575
 20
-101.9999995897865
450
        0
451
        0
460
0.0
461
0.0
452
        1
462
1.0
453
        2
463
0.0
 63
     5
421
      255
463
1.0
 63
     7
421
 16777215
470
LINEAR
1001
ACAD
1010
0.0
1020
0.0
1030
0.0
1001
AcDbBlockRepETag
1070
     1
1071
        1
1005
6B2E
  0
LINE
  5
6B2F
102
{ACAD_REACTORS
330
6B2E
102
}
330
6B2A
100
AcDbEntity
  8
0
100
AcDbLine
 10
-4.0
 20
-24.0
 30
0.0
 11
4.0
 21
-24.0
 31
0.0
1001
AcDbBlockRepETag
1070
     1
1071
        2
1005
6B2F
  0
LINE
  5
6B30
102
{ACAD_REACTORS
330
6B2E
102
}
330
6B2A
100
AcDbEntity
  8
0
100
AcDbLine
 10
4.0
 20
-24.0
 30
0.0
 11
4.0
 21
-32.0
 31
0.0
1001
AcDbBlockRepETag
1070
     1
1071
        3
1005
6B30
  0
LINE
  5
6B31
102
{ACAD_REACTORS
330
6B2E
102
}
330
6B2A
100
AcDbEntity
  8
0
100
AcDbLine
 10
4.0
 20
-32.0
 30
0.0
 11
4.0
 21
-40.0
 31
0.0
1001
AcDbBlockRepETag
1070
     1
1071
        4
1005
6B31
  0
LINE
  5
6B32
102
{ACAD_REACTORS
330
6B2E
102
}
330
6B2A
100
AcDbEntity
  8
0
100
AcDbLine
 10
-4.0
 20
-24.0
 30
0.0
 11
-4.0
 21
-40.0
 31
0.0
1001
AcDbBlockRepETag
1070
     1
1071
        5
1005
6B32
  0
LINE
  5
6B33
102
{ACAD_REACTORS
330
6B2E
102
}
330
6B2A
100
AcDbEntity
  8
0
100
AcDbLine
 10
-4.0
 20
-40.0
 30
0.0
 11
4.0
 21
-40.0
 31
0.0
1001
AcDbBlockRepETag
1070
     1
1071
        6
1005
6B33
  0
LINE
  5
6B34
330
6B2A
100
AcDbEntity
  8
0
100
AcDbLine
 10
0.0
 20
-64.0
 30
0.0
 11
0.0
 21
-40.0
 31
0.0
1001
AcDbBlockRepETag
1070
     1
1071
        7
1005
6B34
  0
LINE
  5
6B35
330
6B2A
100
AcDbEntity
  8
0
100
AcDbLine
 10
0.0
 20
0.0
 30
0.0
 11
-4.0
 21
-4.0
 31
0.0
1001
AcDbBlockRepETag
1070
     1
1071
        8
1005
6B35
  0
LINE
  5
6B36
330
6B2A
100
AcDbEntity
  8
0
100
AcDbLine
 10
0.0
 20
0.0
 30
0.0
 11
4.0
 21
-4.0
 31
0.0
1001
AcDbBlockRepETag
1070
     1
1071
        9
1005
6B36
  0
LINE
  5
6B37
330
6B2A
100
AcDbEntity
  8
0
100
AcDbLine
 10
0.0
 20
-4.0
 30
0.0
 11
-4.0
 21
-8.0
 31
0.0
1001
AcDbBlockRepETag
1070
     1
1071
       10
1005
6B37
  0
LINE
  5
6B38
330
6B2A
100
AcDbEntity
  8
0
100
AcDbLine
 10
0.0
 20
-4.0
 30
0.0
 11
4.0
 21
-8.0
 31
0.0
1001
AcDbBlockRepETag
1070
     1
1071
       11
1005
6B38
  0
LINE
  5
6B39
330
6B2A
100
AcDbEntity
  8
0
100
AcDbLine
 10
0.0
 20
-64.0
 30
0.0
 11
4.0
 21
-60.0
 31
0.0
1001
AcDbBlockRepETag
1070
     1
1071
       12
1005
6B39
  0
LINE
  5
6B3A
330
6B2A
100
AcDbEntity
  8
0
100
AcDbLine
 10
0.0
 20
-64.0
 30
0.0
 11
-4.0
 21
-60.0
 31
0.0
1001
AcDbBlockRepETag
1070
     1
1071
       13
1005
6B3A
  0
LINE
  5
6B3B
330
6B2A
100
AcDbEntity
  8
0
100
AcDbLine
 10
0.0
 20
-60.0
 30
0.0
 11
4.0
 21
-56.0
 31
0.0
1001
AcDbBlockRepETag
1070
     1
1071
       14
1005
6B3B
  0
LINE
  5
6B3C
330
6B2A
100
AcDbEntity
  8
0
100
AcDbLine
 10
0.0
 20
-60.0
 30
0.0
 11
-4.0
 21
-56.0
 31
0.0
1001
AcDbBlockRepETag
1070
     1
1071
       15
1005
6B3C
  0
ENDBLK
  5
6B2C
330
6B2A
100
AcDbEntity
  8
0
100
AcDbBlockEnd
  0
BLOCK
  5
6B41
330
6B40
100
AcDbEntity
  8
0
100
AcDbBlockBegin
  2
*U49
 70
     1
 10
0.0
 20
0.0
 30
0.0
  3
*U49
  1

  0
LINE
  5
6B43
330
6B40
100
AcDbEntity
  8
0
  6
DASHED2
100
AcDbLine
 10
0.0
 20
0.0
 30
0.0
 11
0.0
 21
-24.0
 31
0.0
1001
AcDbBlockRepETag
1070
     1
1071
        0
1005
6B43
  0
CIRCLE
  5
6B44
330
6B40
100
AcDbEntity
  8
0
100
AcDbCircle
 10
0.0
 20
-12.0
 30
0.0
 40
5.0
1001
AcDbBlockRepETag
1070
     1
1071
        1
1005
6B44
  0
LINE
  5
6B45
330
6B40
100
AcDbEntity
  8
0
100
AcDbLine
 10
7.999999147599737
 20
-10.0
 30
0.0
 11
5.999999147599737
 21
-14.0
 31
0.0
1001
AcDbBlockRepETag
1070
     1
1071
        3
1005
6B45
  0
LINE
  5
6B46
330
6B40
100
AcDbEntity
  8
0
100
AcDbLine
 10
9.999999147599737
 20
-10.0
 30
0.0
 11
7.999999147599737
 21
-14.0
 31
0.0
1001
AcDbBlockRepETag
1070
     1
1071
        4
1005
6B46
  0
LINE
  5
6B47
330
6B40
100
AcDbEntity
  8
0
  6
DASHED2
100
AcDbLine
 10
-3.0
 20
-4.0
 30
0.0
 11
-3.0
 21
-20.0
 31
0.0
1001
AcDbBlockRepETag
1070
     1
1071
        2
1005
6B47
  0
LINE
  5
6B48
330
6B40
100
AcDbEntity
  8
0
  6
DASHED2
100
AcDbLine
 10
3.0
 20
-4.0
 30
0.0
 11
3.0
 21
-20.0
 31
0.0
1001
AcDbBlockRepETag
1070
     1
1071
        5
1005
6B48
  0
LINE
  5
6B49
330
6B40
100
AcDbEntity
  8
0
100
AcDbLine
 10
5.0
 20
-11.99999999863691
 30
0.0
 11
11.0
 21
-11.99999999863691
 31
0.0
1001
AcDbBlockRepETag
1070
     1
1071
        6
1005
6B49
  0
ENDBLK
  5
6B42
330
6B40
100
AcDbEntity
  8
0
100
AcDbBlockEnd
  0
BLOCK
  5
7284
330
7283
100
AcDbEntity
  8
0
100
AcDbBlockBegin
  2
*U69
 70
     1
 10
0.0
 20
0.0
 30
0.0
  3
*U69
  1

  0
LINE
  5
7286
330
7283
100
AcDbEntity
  8
0
100
AcDbLine
 10
0.0
 20
24.0
 30
0.0
 11
0.0
 21
20.0
 31
0.0
1001
AcDbBlockRepETag
1070
     1
1071
        0
1005
7286
  0
LWPOLYLINE
  5
7287
330
7283
100
AcDbEntity
  8
0
100
AcDbPolyline
 90
        4
 70
     1
 43
0.0
 10
-4.0
 20
20.0
 10
4.0
 20
20.0
 10
4.0
 20
4.0
 10
-4.0
 20
4.0
1001
AcDbBlockRepETag
1070
     1
1071
        1
1005
7287
  0
LINE
  5
7288
330
7283
100
AcDbEntity
  8
0
100
AcDbLine
 10
0.0
 20
0.0
 30
0.0
 11
0.0
 21
4.0
 31
0.0
1001
AcDbBlockRepETag
1070
     1
1071
        2
1005
7288
  0
LINE
  5
7289
330
7283
100
AcDbEntity
  8
0
100
AcDbLine
 10
0.0
 20
4.0
 30
0.0
 11
0.0
 21
20.0
 31
0.0
1001
AcDbBlockRepETag
1070
     1
1071
        3
1005
7289
  0
ENDBLK
  5
7285
330
7283
100
AcDbEntity
  8
0
100
AcDbBlockEnd
  0
BLOCK
  5
728E
330
728D
100
AcDbEntity
  8
0
100
AcDbBlockBegin
  2
*U70
 70
     1
 10
0.0
 20
0.0
 30
0.0
  3
*U70
  1

  0
LINE
  5
7290
330
728D
100
AcDbEntity
  8
0
100
AcDbLine
 10
0.0
 20
0.0
 30
0.0
 11
0.0
 21
-3.0
 31
0.0
1001
AcDbBlockRepETag
1070
     1
1071
        0
1005
7290
  0
LINE
  5
7291
330
728D
100
AcDbEntity
  8
0
100
AcDbLine
 10
2.0
 20
-3.0
 30
0.0
 11
-2.0
 21
-3.0
 31
0.0
1001
AcDbBlockRepETag
1070
     1
1071
        1
1005
7291
  0
LINE
  5
7292
330
728D
100
AcDbEntity
  8
0
100
AcDbLine
 10
-2.0
 20
-5.0
 30
0.0
 11
2.0
 21
-5.0
 31
0.0
1001
AcDbBlockRepETag
1070
     1
1071
        2
1005
7292
  0
LINE
  5
7293
330
728D
100
AcDbEntity
  8
0
100
AcDbLine
 10
0.0
 20
-8.0
 30
0.0
 11
0.0
 21
-5.0
 31
0.0
1001
AcDbBlockRepETag
1070
     1
1071
        3
1005
7293
  0
CIRCLE
  5
7294
330
728D
100
AcDbEntity
  8
0
100
AcDbCircle
 10
0.0
 20
-10.5
 30
0.0
 40
2.5
1001
AcDbBlockRepETag
1070
     1
1071
        4
1005
7294
  0
LINE
  5
7295
330
728D
100
AcDbEntity
  8
0
100
AcDbLine
 10
0.0
 20
-16.0
 30
0.0
 11
0.0
 21
-13.0
 31
0.0
1001
AcDbBlockRepETag
1070
     1
1071
        5
1005
7295
  0
LINE
  5
7296
330
728D
100
AcDbEntity
  8
0
100
AcDbLine
 10
0.0
 20
-10.5
 30
0.0
 11
0.0
 21
-10.5
 31
0.0
1001
AcDbBlockRepETag
1070
     1
1071
        6
1005
7296
  0
LINE
  5
7297
330
728D
100
AcDbEntity
  8
0
100
AcDbLine
 10
0.0
 20
-10.5
 30
0.0
 11
0.0
 21
-10.5
 31
0.0
1001
AcDbBlockRepETag
1070
     1
1071
        7
1005
7297
  0
LINE
  5
7298
330
728D
100
AcDbEntity
  8
0
100
AcDbLine
 10
0.0
 20
-10.5
 30
0.0
 11
0.0
 21
-10.5
 31
0.0
1001
AcDbBlockRepETag
1070
     1
1071
        8
1005
7298
  0
LINE
  5
7299
330
728D
100
AcDbEntity
  8
0
100
AcDbLine
 10
0.0
 20
-10.5
 30
0.0
 11
0.0
 21
-10.5
 31
0.0
1001
AcDbBlockRepETag
1070
     1
1071
        9
1005
7299
  0
LINE
  5
729A
330
728D
100
AcDbEntity
  8
0
100
AcDbLine
 10
0.0
 20
-10.5
 30
0.0
 11
0.0
 21
-10.5
 31
0.0
1001
AcDbBlockRepETag
1070
     1
1071
       10
1005
729A
  0
LINE
  5
729B
330
728D
100
AcDbEntity
  8
0
100
AcDbLine
 10
0.0
 20
-10.5
 30
0.0
 11
0.0
 21
-10.5
 31
0.0
1001
AcDbBlockRepETag
1070
     1
1071
       11
1005
729B
  0
LINE
  5
729C
330
728D
100
AcDbEntity
  8
0
100
AcDbLine
 10
0.0
 20
-10.5
 30
0.0
 11
-1.767766952966212
 21
-8.732233047033616
 31
0.0
1001
AcDbBlockRepETag
1070
     1
1071
       12
1005
729C
  0
LINE
  5
729D
330
728D
100
AcDbEntity
  8
0
100
AcDbLine
 10
0.0
 20
-10.5
 30
0.0
 11
1.767766952966212
 21
-8.732233047033616
 31
0.0
1001
AcDbBlockRepETag
1070
     1
1071
       13
1005
729D
  0
LINE
  5
729E
330
728D
100
AcDbEntity
  8
0
100
AcDbLine
 10
0.0
 20
-10.5
 30
0.0
 11
1.767766952966212
 21
-12.26776695296638
 31
0.0
1001
AcDbBlockRepETag
1070
     1
1071
       14
1005
729E
  0
LINE
  5
729F
330
728D
100
AcDbEntity
  8
0
100
AcDbLine
 10
0.0
 20
-10.5
 30
0.0
 11
-1.767766952966212
 21
-12.26776695296638
 31
0.0
1001
AcDbBlockRepETag
1070
     1
1071
       15
1005
729F
  0
ENDBLK
  5
728F
330
728D
100
AcDbEntity
  8
0
100
AcDbBlockEnd
  0
BLOCK
  5
72A4
330
72A3
100
AcDbEntity
  8
0
100
AcDbBlockBegin
  2
*U71
 70
     1
 10
0.0
 20
0.0
 30
0.0
  3
*U71
  1

  0
LINE
  5
72A6
330
72A3
100
AcDbEntity
  8
0
100
AcDbLine
 10
0.0
 20
0.0
 30
0.0
 11
0.0
 21
-4.0
 31
0.0
1001
AcDbBlockRepETag
1070
     1
1071
        0
1005
72A6
  0
LINE
  5
72A7
330
72A3
100
AcDbEntity
  8
0
100
AcDbLine
 10
-2.0
 20
-4.0
 30
0.0
 11
2.0
 21
-4.0
 31
0.0
1001
AcDbBlockRepETag
1070
     1
1071
        1
1005
72A7
  0
LINE
  5
72A8
330
72A3
100
AcDbEntity
  8
0
100
AcDbLine
 10
-1.0
 20
-5.0
 30
0.0
 11
1.0
 21
-5.0
 31
0.0
1001
AcDbBlockRepETag
1070
     1
1071
        2
1005
72A8
  0
LINE
  5
72A9
330
72A3
100
AcDbEntity
  8
0
100
AcDbLine
 10
0.0
 20
-6.0
 30
0.0
 11
0.0
 21
-6.0
 31
0.0
1001
AcDbBlockRepETag
1070
     1
1071
        3
1005
72A9
  0
LINE
  5
72AA
330
72A3
100
AcDbEntity
  8
0
100
AcDbLine
 10
0.5
 20
-6.0
 30
0.0
 11
-0.5
 21
-6.0
 31
0.0
1001
AcDbBlockRepETag
1070
     1
1071
        4
1005
72AA
  0
ENDBLK
  5
72A5
330
72A3
100
AcDbEntity
  8
0
100
AcDbBlockEnd
  0
BLOCK
  5
72AF
330
72AE
100
AcDbEntity
  8
0
100
AcDbBlockBegin
  2
*U72
 70
     1
 10
0.0
 20
0.0
 30
0.0
  3
*U72
  1

  0
LINE
  5
72B1
330
72AE
100
AcDbEntity
  8
0
100
AcDbLine
 10
0.0
 20
0.0
 30
0.0
 11
0.0
 21
-24.0
 31
0.0
1001
AcDbBlockRepETag
1070
     1
1071
        0
1005
72B1
  0
HATCH
  5
72B2
330
72AE
100
AcDbEntity
  8
0
100
AcDbHatch
 10
0.0
 20
0.0
 30
0.0
210
0.0
220
0.0
230
1.0
  2
SOLID
 70
     1
 71
     1
 91
        1
 92
        1
 93
        5
 72
     1
 10
-4.0
 20
-24.0
 11
-4.0
 21
-40.0
 72
     1
 10
-4.0
 20
-40.0
 11
4.0
 21
-40.0
 72
     1
 10
4.0
 20
-40.0
 11
4.0
 21
-32.0
 72
     1
 10
4.0
 20
-32.0
 11
4.0
 21
-24.0
 72
     1
 10
4.0
 20
-24.0
 11
-4.0
 21
-24.0
 97
        5
330
72B6
330
72B7
330
72B5
330
72B4
330
72B3
 75
     0
 76
     1
 98
        1
 10
-730.0000011883575
 20
-101.9999995897865
450
        0
451
        0
460
0.0
461
0.0
452
        1
462
1.0
453
        2
463
0.0
 63
     5
421
      255
463
1.0
 63
     7
421
 16777215
470
LINEAR
1001
ACAD
1010
0.0
1020
0.0
1030
0.0
1001
AcDbBlockRepETag
1070
     1
1071
        1
1005
72B2
  0
LINE
  5
72B3
102
{ACAD_REACTORS
330
72B2
102
}
330
72AE
100
AcDbEntity
  8
0
100
AcDbLine
 10
-4.0
 20
-24.0
 30
0.0
 11
4.0
 21
-24.0
 31
0.0
1001
AcDbBlockRepETag
1070
     1
1071
        2
1005
72B3
  0
LINE
  5
72B4
102
{ACAD_REACTORS
330
72B2
102
}
330
72AE
100
AcDbEntity
  8
0
100
AcDbLine
 10
4.0
 20
-24.0
 30
0.0
 11
4.0
 21
-32.0
 31
0.0
1001
AcDbBlockRepETag
1070
     1
1071
        3
1005
72B4
  0
LINE
  5
72B5
102
{ACAD_REACTORS
330
72B2
102
}
330
72AE
100
AcDbEntity
  8
0
100
AcDbLine
 10
4.0
 20
-32.0
 30
0.0
 11
4.0
 21
-40.0
 31
0.0
1001
AcDbBlockRepETag
1070
     1
1071
        4
1005
72B5
  0
LINE
  5
72B6
102
{ACAD_REACTORS
330
72B2
102
}
330
72AE
100
AcDbEntity
  8
0
100
AcDbLine
 10
-4.0
 20
-24.0
 30
0.0
 11
-4.0
 21
-40.0
 31
0.0
1001
AcDbBlockRepETag
1070
     1
1071
        5
1005
72B6
  0
LINE
  5
72B7
102
{ACAD_REACTORS
330
72B2
102
}
330
72AE
100
AcDbEntity
  8
0
100
AcDbLine
 10
-4.0
 20
-40.0
 30
0.0
 11
4.0
 21
-40.0
 31
0.0
1001
AcDbBlockRepETag
1070
     1
1071
        6
1005
72B7
  0
LINE
  5
72B8
330
72AE
100
AcDbEntity
  8
0
100
AcDbLine
 10
0.0
 20
-64.0
 30
0.0
 11
0.0
 21
-40.0
 31
0.0
1001
AcDbBlockRepETag
1070
     1
1071
        7
1005
72B8
  0
LINE
  5
72B9
330
72AE
100
AcDbEntity
  8
0
100
AcDbLine
 10
0.0
 20
0.0
 30
0.0
 11
-4.0
 21
-4.0
 31
0.0
1001
AcDbBlockRepETag
1070
     1
1071
        8
1005
72B9
  0
LINE
  5
72BA
330
72AE
100
AcDbEntity
  8
0
100
AcDbLine
 10
0.0
 20
0.0
 30
0.0
 11
4.0
 21
-4.0
 31
0.0
1001
AcDbBlockRepETag
1070
     1
1071
        9
1005
72BA
  0
LINE
  5
72BB
330
72AE
100
AcDbEntity
  8
0
100
AcDbLine
 10
0.0
 20
-4.0
 30
0.0
 11
-4.0
 21
-8.0
 31
0.0
1001
AcDbBlockRepETag
1070
     1
1071
       10
1005
72BB
  0
LINE
  5
72BC
330
72AE
100
AcDbEntity
  8
0
100
AcDbLine
 10
0.0
 20
-4.0
 30
0.0
 11
4.0
 21
-8.0
 31
0.0
1001
AcDbBlockRepETag
1070
     1
1071
       11
1005
72BC
  0
LINE
  5
72BD
330
72AE
100
AcDbEntity
  8
0
100
AcDbLine
 10
0.0
 20
-64.0
 30
0.0
 11
4.0
 21
-60.0
 31
0.0
1001
AcDbBlockRepETag
1070
     1
1071
       12
1005
72BD
  0
LINE
  5
72BE
330
72AE
100
AcDbEntity
  8
0
100
AcDbLine
 10
0.0
 20
-64.0
 30
0.0
 11
-4.0
 21
-60.0
 31
0.0
1001
AcDbBlockRepETag
1070
     1
1071
       13
1005
72BE
  0
LINE
  5
72BF
330
72AE
100
AcDbEntity
  8
0
100
AcDbLine
 10
0.0
 20
-60.0
 30
0.0
 11
4.0
 21
-56.0
 31
0.0
1001
AcDbBlockRepETag
1070
     1
1071
       14
1005
72BF
  0
LINE
  5
72C0
330
72AE
100
AcDbEntity
  8
0
100
AcDbLine
 10
0.0
 20
-60.0
 30
0.0
 11
-4.0
 21
-56.0
 31
0.0
1001
AcDbBlockRepETag
1070
     1
1071
       15
1005
72C0
  0
ENDBLK
  5
72B0
330
72AE
100
AcDbEntity
  8
0
100
AcDbBlockEnd
  0
BLOCK
  5
72C5
330
72C4
100
AcDbEntity
  8
0
100
AcDbBlockBegin
  2
*U73
 70
     1
 10
0.0
 20
0.0
 30
0.0
  3
*U73
  1

  0
LINE
  5
72C7
330
72C4
100
AcDbEntity
  8
0
100
AcDbLine
 10
0.0
 20
0.0
 30
0.0
 11
0.0
 21
-24.0
 31
0.0
1001
AcDbBlockRepETag
1070
     1
1071
        0
1005
72C7
  0
CIRCLE
  5
72C8
330
72C4
100
AcDbEntity
  8
0
100
AcDbCircle
 10
0.0
 20
-12.0
 30
0.0
 40
4.0
1001
AcDbBlockRepETag
1070
     1
1071
        1
1005
72C8
  0
LINE
  5
72C9
330
72C4
100
AcDbEntity
  8
0
100
AcDbLine
 10
4.0
 20
-12.0
 30
0.0
 11
9.999992328408325
 21
-11.99040525967284
 31
0.0
1001
AcDbBlockRepETag
1070
     1
1071
        2
1005
72C9
  0
LINE
  5
72CA
330
72C4
100
AcDbEntity
  8
0
100
AcDbLine
 10
7.0
 20
-10.0
 30
0.0
 11
5.0
 21
-14.0
 31
0.0
1001
AcDbBlockRepETag
1070
     1
1071
        3
1005
72CA
  0
LINE
  5
72CB
330
72C4
100
AcDbEntity
  8
0
100
AcDbLine
 10
9.0
 20
-10.0
 30
0.0
 11
7.0
 21
-14.0
 31
0.0
1001
AcDbBlockRepETag
1070
     1
1071
        4
1005
72CB
  0
ENDBLK
  5
72C6
330
72C4
100
AcDbEntity
  8
0
100
AcDbBlockEnd
  0
BLOCK
  5
72D0
330
72CF
100
AcDbEntity
  8
0
100
AcDbBlockBegin
  2
*U74
 70
     1
 10
0.0
 20
0.0
 30
0.0
  3
*U74
  1

  0
LINE
  5
72D2
330
72CF
100
AcDbEntity
  8
0
100
AcDbLine
 10
0.0
 20
0.0
 30
0.0
 11
0.0
 21
-24.0
 31
0.0
1001
AcDbBlockRepETag
1070
     1
1071
        0
1005
72D2
  0
CIRCLE
  5
72D3
330
72CF
100
AcDbEntity
  8
0
100
AcDbCircle
 10
0.0
 20
-12.0
 30
0.0
 40
4.0
1001
AcDbBlockRepETag
1070
     1
1071
        1
1005
72D3
  0
LINE
  5
72D4
330
72CF
100
AcDbEntity
  8
0
100
AcDbLine
 10
4.0
 20
-12.0
 30
0.0
 11
9.999992328408325
 21
-11.99040525967284
 31
0.0
1001
AcDbBlockRepETag
1070
     1
1071
        2
1005
72D4
  0
LINE
  5
72D5
330
72CF
100
AcDbEntity
  8
0
100
AcDbLine
 10
7.0
 20
-10.0
 30
0.0
 11
5.0
 21
-14.0
 31
0.0
1001
AcDbBlockRepETag
1070
     1
1071
        3
1005
72D5
  0
LINE
  5
72D6
330
72CF
100
AcDbEntity
  8
0
100
AcDbLine
 10
9.0
 20
-10.0
 30
0.0
 11
7.0
 21
-14.0
 31
0.0
1001
AcDbBlockRepETag
1070
     1
1071
        4
1005
72D6
  0
ENDBLK
  5
72D1
330
72CF
100
AcDbEntity
  8
0
100
AcDbBlockEnd
  0
BLOCK
  5
72DB
330
72DA
100
AcDbEntity
  8
0
100
AcDbBlockBegin
  2
*U75
 70
     1
 10
0.0
 20
0.0
 30
0.0
  3
*U75
  1

  0
LINE
  5
72DD
330
72DA
100
AcDbEntity
  8
0
100
AcDbLine
 10
0.0
 20
0.0
 30
0.0
 11
0.0
 21
-24.0
 31
0.0
1001
AcDbBlockRepETag
1070
     1
1071
        0
1005
72DD
  0
CIRCLE
  5
72DE
330
72DA
100
AcDbEntity
  8
0
100
AcDbCircle
 10
0.0
 20
-12.0
 30
0.0
 40
4.0
1001
AcDbBlockRepETag
1070
     1
1071
        1
1005
72DE
  0
LINE
  5
72DF
330
72DA
100
AcDbEntity
  8
0
100
AcDbLine
 10
4.0
 20
-12.0
 30
0.0
 11
9.999992328408325
 21
-11.99040525967284
 31
0.0
1001
AcDbBlockRepETag
1070
     1
1071
        2
1005
72DF
  0
LINE
  5
72E0
330
72DA
100
AcDbEntity
  8
0
100
AcDbLine
 10
7.0
 20
-10.0
 30
0.0
 11
5.0
 21
-14.0
 31
0.0
1001
AcDbBlockRepETag
1070
     1
1071
        3
1005
72E0
  0
LINE
  5
72E1
330
72DA
100
AcDbEntity
  8
0
100
AcDbLine
 10
9.0
 20
-10.0
 30
0.0
 11
7.0
 21
-14.0
 31
0.0
1001
AcDbBlockRepETag
1070
     1
1071
        4
1005
72E1
  0
ENDBLK
  5
72DC
330
72DA
100
AcDbEntity
  8
0
100
AcDbBlockEnd
  0
BLOCK
  5
72E6
330
72E5
100
AcDbEntity
  8
0
100
AcDbBlockBegin
  2
*U76
 70
     1
 10
0.0
 20
0.0
 30
0.0
  3
*U76
  1

  0
LINE
  5
72E8
330
72E5
100
AcDbEntity
  8
0
100
AcDbLine
 10
0.0
 20
0.0
 30
0.0
 11
0.0
 21
-24.0
 31
0.0
1001
AcDbBlockRepETag
1070
     1
1071
        0
1005
72E8
  0
CIRCLE
  5
72E9
330
72E5
100
AcDbEntity
  8
0
100
AcDbCircle
 10
0.0
 20
-12.0
 30
0.0
 40
4.0
1001
AcDbBlockRepETag
1070
     1
1071
        1
1005
72E9
  0
LINE
  5
72EA
330
72E5
100
AcDbEntity
  8
0
100
AcDbLine
 10
4.0
 20
-12.0
 30
0.0
 11
9.999992328408325
 21
-11.99040525967284
 31
0.0
1001
AcDbBlockRepETag
1070
     1
1071
        2
1005
72EA
  0
LINE
  5
72EB
330
72E5
100
AcDbEntity
  8
0
100
AcDbLine
 10
7.0
 20
-10.0
 30
0.0
 11
5.0
 21
-14.0
 31
0.0
1001
AcDbBlockRepETag
1070
     1
1071
        3
1005
72EB
  0
LINE
  5
72EC
330
72E5
100
AcDbEntity
  8
0
100
AcDbLine
 10
9.0
 20
-10.0
 30
0.0
 11
7.0
 21
-14.0
 31
0.0
1001
AcDbBlockRepETag
1070
     1
1071
        4
1005
72EC
  0
ENDBLK
  5
72E7
330
72E5
100
AcDbEntity
  8
0
100
AcDbBlockEnd
  0
BLOCK
  5
72F1
330
72F0
100
AcDbEntity
  8
0
100
AcDbBlockBegin
  2
*U77
 70
     1
 10
0.0
 20
0.0
 30
0.0
  3
*U77
  1

  0
LINE
  5
72F3
330
72F0
100
AcDbEntity
  8
0
100
AcDbLine
 10
0.0
 20
0.0
 30
0.0
 11
0.0
 21
-4.0
 31
0.0
1001
AcDbBlockRepETag
1070
     1
1071
        0
1005
72F3
  0
LINE
  5
72F4
330
72F0
100
AcDbEntity
  8
0
100
AcDbLine
 10
-2.0
 20
-4.0
 30
0.0
 11
2.0
 21
-4.0
 31
0.0
1001
AcDbBlockRepETag
1070
     1
1071
        1
1005
72F4
  0
LINE
  5
72F5
330
72F0
100
AcDbEntity
  8
0
100
AcDbLine
 10
2.0
 20
-4.0
 30
0.0
 11
2.0
 21
-12.0
 31
0.0
1001
AcDbBlockRepETag
1070
     1
1071
        2
1005
72F5
  0
LINE
  5
72F6
330
72F0
100
AcDbEntity
  8
0
100
AcDbLine
 10
2.0
 20
-12.0
 30
0.0
 11
-2.0
 21
-12.0
 31
0.0
1001
AcDbBlockRepETag
1070
     1
1071
        3
1005
72F6
  0
LINE
  5
72F7
330
72F0
100
AcDbEntity
  8
0
100
AcDbLine
 10
-2.0
 20
-12.0
 30
0.0
 11
-2.0
 21
-4.0
 31
0.0
1001
AcDbBlockRepETag
1070
     1
1071
        4
1005
72F7
  0
LINE
  5
72F8
330
72F0
100
AcDbEntity
  8
0
100
AcDbLine
 10
0.0
 20
-16.0
 30
0.0
 11
0.0
 21
-12.0
 31
0.0
1001
AcDbBlockRepETag
1070
     1
1071
        5
1005
72F8
  0
LINE
  5
72F9
330
72F0
100
AcDbEntity
  8
0
100
AcDbLine
 10
0.0
 20
-4.0
 30
0.0
 11
0.0
 21
-4.5
 31
0.0
1001
AcDbBlockRepETag
1070
     1
1071
        6
1005
72F9
  0
HATCH
  5
72FA
330
72F0
100
AcDbEntity
  8
0
100
AcDbHatch
 10
0.0
 20
0.0
 30
0.0
210
0.0
220
0.0
230
1.0
  2
SOLID
 70
     1
 71
     1
 91
        1
 92
        1
 93
        4
 72
     1
 10
0.0
 20
-4.5
 11
1.5
 21
-4.5
 72
     1
 10
1.5
 20
-4.5
 11
0.0
 21
-8.0
 72
     1
 10
0.0
 20
-8.0
 11
-1.5
 21
-4.5
 72
     1
 10
-1.5
 20
-4.5
 11
0.0
 21
-4.5
 97
        4
330
72FB
330
72FD
330
72FE
330
72FC
 75
     0
 76
     1
 98
        1
 10
-3024.0
 20
314.0
450
        0
451
        0
460
0.0
461
0.0
452
        1
462
1.0
453
        2
463
0.0
 63
     5
421
      255
463
1.0
 63
     7
421
 16777215
470
LINEAR
1001
ACAD
1010
0.0
1020
0.0
1030
0.0
1001
AcDbBlockRepETag
1070
     1
1071
       11
1005
72FA
  0
LINE
  5
72FB
102
{ACAD_REACTORS
330
72FA
102
}
330
72F0
100
AcDbEntity
  8
0
100
AcDbLine
 10
0.0
 20
-4.5
 30
0.0
 11
1.5
 21
-4.5
 31
0.0
1001
AcDbBlockRepETag
1070
     1
1071
        7
1005
72FB
  0
LINE
  5
72FC
102
{ACAD_REACTORS
330
72FA
102
}
330
72F0
100
AcDbEntity
  8
0
100
AcDbLine
 10
0.0
 20
-4.5
 30
0.0
 11
-1.5
 21
-4.5
 31
0.0
1001
AcDbBlockRepETag
1070
     1
1071
        8
1005
72FC
  0
LINE
  5
72FD
102
{ACAD_REACTORS
330
72FA
102
}
330
72F0
100
AcDbEntity
  8
0
100
AcDbLine
 10
0.0
 20
-8.0
 30
0.0
 11
1.5
 21
-4.5
 31
0.0
1001
AcDbBlockRepETag
1070
     1
1071
        9
1005
72FD
  0
LINE
  5
72FE
102
{ACAD_REACTORS
330
72FA
102
}
330
72F0
100
AcDbEntity
  8
0
100
AcDbLine
 10
0.0
 20
-8.0
 30
0.0
 11
-1.5
 21
-4.5
 31
0.0
1001
AcDbBlockRepETag
1070
     1
1071
       10
1005
72FE
  0
ENDBLK
  5
72F2
330
72F0
100
AcDbEntity
  8
0
100
AcDbBlockEnd
  0
BLOCK
  5
7304
330
7303
100
AcDbEntity
  8
0
100
AcDbBlockBegin
  2
*U78
 70
     1
 10
0.0
 20
0.0
 30
0.0
  3
*U78
  1

  0
LINE
  5
7306
330
7303
100
AcDbEntity
  8
0
100
AcDbLine
 10
0.0
 20
0.0
 30
0.0
 11
0.0
 21
-4.0
 31
0.0
1001
AcDbBlockRepETag
1070
     1
1071
        0
1005
7306
  0
LINE
  5
7307
330
7303
100
AcDbEntity
  8
0
100
AcDbLine
 10
-2.0
 20
-4.0
 30
0.0
 11
2.0
 21
-4.0
 31
0.0
1001
AcDbBlockRepETag
1070
     1
1071
        1
1005
7307
  0
LINE
  5
7308
330
7303
100
AcDbEntity
  8
0
100
AcDbLine
 10
-1.0
 20
-5.0
 30
0.0
 11
1.0
 21
-5.0
 31
0.0
1001
AcDbBlockRepETag
1070
     1
1071
        2
1005
7308
  0
LINE
  5
7309
330
7303
100
AcDbEntity
  8
0
100
AcDbLine
 10
0.0
 20
-6.0
 30
0.0
 11
0.0
 21
-6.0
 31
0.0
1001
AcDbBlockRepETag
1070
     1
1071
        3
1005
7309
  0
LINE
  5
730A
330
7303
100
AcDbEntity
  8
0
100
AcDbLine
 10
0.5
 20
-6.0
 30
0.0
 11
-0.5
 21
-6.0
 31
0.0
1001
AcDbBlockRepETag
1070
     1
1071
        4
1005
730A
  0
ENDBLK
  5
7305
330
7303
100
AcDbEntity
  8
0
100
AcDbBlockEnd
  0
BLOCK
  5
730F
330
730E
100
AcDbEntity
  8
0
100
AcDbBlockBegin
  2
*U79
 70
     1
 10
0.0
 20
0.0
 30
0.0
  3
*U79
  1

  0
LINE
  5
7311
330
730E
100
AcDbEntity
  8
0
100
AcDbLine
 10
0.0
 20
0.0
 30
0.0
 11
0.0
 21
15.0
 31
0.0
1001
AcDbBlockRepETag
1070
     1
1071
        0
1005
7311
  0
HATCH
  5
7312
330
730E
100
AcDbEntity
  8
0
100
AcDbHatch
 10
0.0
 20
0.0
 30
0.0
210
0.0
220
0.0
230
1.0
  2
SOLID
 70
     1
 71
     1
 91
        1
 92
        1
 93
        3
 72
     1
 10
0.0
 20
15.0
 11
-2.0
 21
10.99999910797555
 72
     1
 10
-2.0
 20
10.99999910797555
 11
2.0
 21
10.99999910797555
 72
     1
 10
2.0
 20
10.99999910797555
 11
0.0
 21
15.0
 97
        3
330
7313
330
7314
330
7315
 75
     0
 76
     1
 98
        1
 10
-854.0
 20
84.99999910797555
450
        0
451
        0
460
0.0
461
0.0
452
        1
462
1.0
453
        2
463
0.0
 63
     5
421
      255
463
1.0
 63
     7
421
 16777215
470
LINEAR
1001
ACAD
1010
0.0
1020
0.0
1030
0.0
1001
AcDbBlockRepETag
1070
     1
1071
        1
1005
7312
  0
LINE
  5
7313
102
{ACAD_REACTORS
330
7312
102
}
330
730E
100
AcDbEntity
  8
0
100
AcDbLine
 10
0.0
 20
15.0
 30
0.0
 11
-2.0
 21
10.99999910797555
 31
0.0
1001
AcDbBlockRepETag
1070
     1
1071
        2
1005
7313
  0
LINE
  5
7314
102
{ACAD_REACTORS
330
7312
102
}
330
730E
100
AcDbEntity
  8
0
100
AcDbLine
 10
-2.0
 20
10.99999910797555
 30
0.0
 11
2.0
 21
10.99999910797555
 31
0.0
1001
AcDbBlockRepETag
1070
     1
1071
        3
1005
7314
  0
LINE
  5
7315
102
{ACAD_REACTORS
330
7312
102
}
330
730E
100
AcDbEntity
  8
0
100
AcDbLine
 10
2.0
 20
10.99999910797555
 30
0.0
 11
0.0
 21
15.0
 31
0.0
1001
AcDbBlockRepETag
1070
     1
1071
        4
1005
7315
  0
ENDBLK
  5
7310
330
730E
100
AcDbEntity
  8
0
100
AcDbBlockEnd
  0
BLOCK
  5
731A
330
7319
100
AcDbEntity
  8
0
100
AcDbBlockBegin
  2
*U80
 70
     1
 10
0.0
 20
0.0
 30
0.0
  3
*U80
  1

  0
LINE
  5
731C
330
7319
100
AcDbEntity
  8
0
100
AcDbLine
 10
0.0
 20
0.0
 30
0.0
 11
0.0
 21
15.0
 31
0.0
1001
AcDbBlockRepETag
1070
     1
1071
        0
1005
731C
  0
HATCH
  5
731D
330
7319
100
AcDbEntity
  8
0
100
AcDbHatch
 10
0.0
 20
0.0
 30
0.0
210
0.0
220
0.0
230
1.0
  2
SOLID
 70
     1
 71
     1
 91
        1
 92
        1
 93
        3
 72
     1
 10
0.0
 20
15.0
 11
-2.0
 21
10.99999910797555
 72
     1
 10
-2.0
 20
10.99999910797555
 11
2.0
 21
10.99999910797555
 72
     1
 10
2.0
 20
10.99999910797555
 11
0.0
 21
15.0
 97
        3
330
731E
330
731F
330
7320
 75
     0
 76
     1
 98
        1
 10
-854.0
 20
84.99999910797555
450
        0
451
        0
460
0.0
461
0.0
452
        1
462
1.0
453
        2
463
0.0
 63
     5
421
      255
463
1.0
 63
     7
421
 16777215
470
LINEAR
1001
ACAD
1010
0.0
1020
0.0
1030
0.0
1001
AcDbBlockRepETag
1070
     1
1071
        1
1005
731D
  0
LINE
  5
731E
102
{ACAD_REACTORS
330
731D
102
}
330
7319
100
AcDbEntity
  8
0
100
AcDbLine
 10
0.0
 20
15.0
 30
0.0
 11
-2.0
 21
10.99999910797555
 31
0.0
1001
AcDbBlockRepETag
1070
     1
1071
        2
1005
731E
  0
LINE
  5
731F
102
{ACAD_REACTORS
330
731D
102
}
330
7319
100
AcDbEntity
  8
0
100
AcDbLine
 10
-2.0
 20
10.99999910797555
 30
0.0
 11
2.0
 21
10.99999910797555
 31
0.0
1001
AcDbBlockRepETag
1070
     1
1071
        3
1005
731F
  0
LINE
  5
7320
102
{ACAD_REACTORS
330
731D
102
}
330
7319
100
AcDbEntity
  8
0
100
AcDbLine
 10
2.0
 20
10.99999910797555
 30
0.0
 11
0.0
 21
15.0
 31
0.0
1001
AcDbBlockRepETag
1070
     1
1071
        4
1005
7320
  0
ENDBLK
  5
731B
330
7319
100
AcDbEntity
  8
0
100
AcDbBlockEnd
  0
BLOCK
  5
7325
330
7324
100
AcDbEntity
  8
0
100
AcDbBlockBegin
  2
*U81
 70
     1
 10
0.0
 20
0.0
 30
0.0
  3
*U81
  1

  0
LINE
  5
7327
330
7324
100
AcDbEntity
  8
0
100
AcDbLine
 10
0.0
 20
0.0
 30
0.0
 11
0.0
 21
-4.0
 31
0.0
1001
AcDbBlockRepETag
1070
     1
1071
        0
1005
7327
  0
LINE
  5
7328
330
7324
100
AcDbEntity
  8
0
100
AcDbLine
 10
-2.0
 20
-4.0
 30
0.0
 11
2.0
 21
-4.0
 31
0.0
1001
AcDbBlockRepETag
1070
     1
1071
        1
1005
7328
  0
LINE
  5
7329
330
7324
100
AcDbEntity
  8
0
100
AcDbLine
 10
-1.0
 20
-5.0
 30
0.0
 11
1.0
 21
-5.0
 31
0.0
1001
AcDbBlockRepETag
1070
     1
1071
        2
1005
7329
  0
LINE
  5
732A
330
7324
100
AcDbEntity
  8
0
100
AcDbLine
 10
0.0
 20
-6.0
 30
0.0
 11
0.0
 21
-6.0
 31
0.0
1001
AcDbBlockRepETag
1070
     1
1071
        3
1005
732A
  0
LINE
  5
732B
330
7324
100
AcDbEntity
  8
0
100
AcDbLine
 10
0.5
 20
-6.0
 30
0.0
 11
-0.5
 21
-6.0
 31
0.0
1001
AcDbBlockRepETag
1070
     1
1071
        4
1005
732B
  0
ENDBLK
  5
7326
330
7324
100
AcDbEntity
  8
0
100
AcDbBlockEnd
  0
BLOCK
  5
7330
330
732F
100
AcDbEntity
  8
0
100
AcDbBlockBegin
  2
*U82
 70
     1
 10
0.0
 20
0.0
 30
0.0
  3
*U82
  1

  0
LINE
  5
7332
330
732F
100
AcDbEntity
  8
0
100
AcDbLine
 10
0.0
 20
0.0
 30
0.0
 11
0.0
 21
-3.0
 31
0.0
1001
AcDbBlockRepETag
1070
     1
1071
        0
1005
7332
  0
LINE
  5
7333
330
732F
100
AcDbEntity
  8
0
100
AcDbLine
 10
2.0
 20
-3.0
 30
0.0
 11
-2.0
 21
-3.0
 31
0.0
1001
AcDbBlockRepETag
1070
     1
1071
        1
1005
7333
  0
LINE
  5
7334
330
732F
100
AcDbEntity
  8
0
100
AcDbLine
 10
-2.0
 20
-5.0
 30
0.0
 11
2.0
 21
-5.0
 31
0.0
1001
AcDbBlockRepETag
1070
     1
1071
        2
1005
7334
  0
LINE
  5
7335
330
732F
100
AcDbEntity
  8
0
100
AcDbLine
 10
0.0
 20
-8.0
 30
0.0
 11
0.0
 21
-5.0
 31
0.0
1001
AcDbBlockRepETag
1070
     1
1071
        3
1005
7335
  0
CIRCLE
  5
7336
330
732F
100
AcDbEntity
  8
0
100
AcDbCircle
 10
0.0
 20
-10.5
 30
0.0
 40
2.5
1001
AcDbBlockRepETag
1070
     1
1071
        4
1005
7336
  0
LINE
  5
7337
330
732F
100
AcDbEntity
  8
0
100
AcDbLine
 10
0.0
 20
-16.0
 30
0.0
 11
0.0
 21
-13.0
 31
0.0
1001
AcDbBlockRepETag
1070
     1
1071
        5
1005
7337
  0
LINE
  5
7338
330
732F
100
AcDbEntity
  8
0
100
AcDbLine
 10
0.0
 20
-10.5
 30
0.0
 11
0.0
 21
-10.5
 31
0.0
1001
AcDbBlockRepETag
1070
     1
1071
        6
1005
7338
  0
LINE
  5
7339
330
732F
100
AcDbEntity
  8
0
100
AcDbLine
 10
0.0
 20
-10.5
 30
0.0
 11
0.0
 21
-10.5
 31
0.0
1001
AcDbBlockRepETag
1070
     1
1071
        7
1005
7339
  0
LINE
  5
733A
330
732F
100
AcDbEntity
  8
0
100
AcDbLine
 10
0.0
 20
-10.5
 30
0.0
 11
0.0
 21
-10.5
 31
0.0
1001
AcDbBlockRepETag
1070
     1
1071
        8
1005
733A
  0
LINE
  5
733B
330
732F
100
AcDbEntity
  8
0
100
AcDbLine
 10
0.0
 20
-10.5
 30
0.0
 11
0.0
 21
-10.5
 31
0.0
1001
AcDbBlockRepETag
1070
     1
1071
        9
1005
733B
  0
LINE
  5
733C
330
732F
100
AcDbEntity
  8
0
100
AcDbLine
 10
0.0
 20
-10.5
 30
0.0
 11
0.0
 21
-10.5
 31
0.0
1001
AcDbBlockRepETag
1070
     1
1071
       10
1005
733C
  0
LINE
  5
733D
330
732F
100
AcDbEntity
  8
0
100
AcDbLine
 10
0.0
 20
-10.5
 30
0.0
 11
0.0
 21
-10.5
 31
0.0
1001
AcDbBlockRepETag
1070
     1
1071
       11
1005
733D
  0
LINE
  5
733E
330
732F
100
AcDbEntity
  8
0
100
AcDbLine
 10
0.0
 20
-10.5
 30
0.0
 11
-1.767766952966212
 21
-8.732233047033616
 31
0.0
1001
AcDbBlockRepETag
1070
     1
1071
       12
1005
733E
  0
LINE
  5
733F
330
732F
100
AcDbEntity
  8
0
100
AcDbLine
 10
0.0
 20
-10.5
 30
0.0
 11
1.767766952966212
 21
-8.732233047033616
 31
0.0
1001
AcDbBlockRepETag
1070
     1
1071
       13
1005
733F
  0
LINE
  5
7340
330
732F
100
AcDbEntity
  8
0
100
AcDbLine
 10
0.0
 20
-10.5
 30
0.0
 11
1.767766952966212
 21
-12.26776695296638
 31
0.0
1001
AcDbBlockRepETag
1070
     1
1071
       14
1005
7340
  0
LINE
  5
7341
330
732F
100
AcDbEntity
  8
0
100
AcDbLine
 10
0.0
 20
-10.5
 30
0.0
 11
-1.767766952966212
 21
-12.26776695296638
 31
0.0
1001
AcDbBlockRepETag
1070
     1
1071
       15
1005
7341
  0
ENDBLK
  5
7331
330
732F
100
AcDbEntity
  8
0
100
AcDbBlockEnd
  0
BLOCK
  5
7346
330
7345
100
AcDbEntity
  8
0
100
AcDbBlockBegin
  2
*U83
 70
     1
 10
0.0
 20
0.0
 30
0.0
  3
*U83
  1

  0
LINE
  5
7348
330
7345
100
AcDbEntity
  8
0
100
AcDbLine
 10
0.0
 20
0.0
 30
0.0
 11
0.0
 21
-4.0
 31
0.0
1001
AcDbBlockRepETag
1070
     1
1071
        0
1005
7348
  0
LINE
  5
7349
330
7345
100
AcDbEntity
  8
0
100
AcDbLine
 10
-2.0
 20
-4.0
 30
0.0
 11
2.0
 21
-4.0
 31
0.0
1001
AcDbBlockRepETag
1070
     1
1071
        1
1005
7349
  0
LINE
  5
734A
330
7345
100
AcDbEntity
  8
0
100
AcDbLine
 10
-1.0
 20
-5.0
 30
0.0
 11
1.0
 21
-5.0
 31
0.0
1001
AcDbBlockRepETag
1070
     1
1071
        2
1005
734A
  0
LINE
  5
734B
330
7345
100
AcDbEntity
  8
0
100
AcDbLine
 10
0.0
 20
-6.0
 30
0.0
 11
0.0
 21
-6.0
 31
0.0
1001
AcDbBlockRepETag
1070
     1
1071
        3
1005
734B
  0
LINE
  5
734C
330
7345
100
AcDbEntity
  8
0
100
AcDbLine
 10
0.5
 20
-6.0
 30
0.0
 11
-0.5
 21
-6.0
 31
0.0
1001
AcDbBlockRepETag
1070
     1
1071
        4
1005
734C
  0
ENDBLK
  5
7347
330
7345
100
AcDbEntity
  8
0
100
AcDbBlockEnd
  0
BLOCK
  5
7351
330
7350
100
AcDbEntity
  8
0
100
AcDbBlockBegin
  2
*U84
 70
     1
 10
0.0
 20
0.0
 30
0.0
  3
*U84
  1

  0
LINE
  5
7353
330
7350
100
AcDbEntity
  8
0
100
AcDbLine
 10
-4.0
 20
-6.0
 30
0.0
 11
4.0
 21
-6.0
 31
0.0
1001
AcDbBlockRepETag
1070
     1
1071
        1
1005
7353
  0
LINE
  5
7354
330
7350
100
AcDbEntity
  8
0
100
AcDbLine
 10
0.0
 20
0.0
 30
0.0
 11
0.0
 21
-6.0
 31
0.0
1001
AcDbBlockRepETag
1070
     1
1071
        2
1005
7354
  0
LINE
  5
7355
330
7350
100
AcDbEntity
  8
0
100
AcDbLine
 10
0.0000004987477951
 20
-20.0
 30
0.0
 11
-8.0
 21
-6.0
 31
0.0
1001
AcDbBlockRepETag
1070
     1
1071
        3
1005
7355
  0
LINE
  5
7356
330
7350
100
AcDbEntity
  8
0
 48
0.1
100
AcDbLine
 10
0.0000004987477951
 20
-20.0
 30
0.0
 11
0.0000004987477951
 21
-32.0
 31
0.0
1001
AcDbBlockRepETag
1070
     1
1071
        4
1005
7356
  0
LINE
  5
7357
330
7350
100
AcDbEntity
  8
0
100
AcDbLine
 10
0.0000004987477951
 20
-32.0
 30
0.0
 11
0.0000004987477951
 21
-40.0
 31
0.0
1001
AcDbBlockRepETag
1070
     1
1071
        0
1005
7357
  0
LINE
  5
7358
330
7350
100
AcDbEntity
  8
0
100
AcDbLine
 10
-3.999999501252204
 20
-40.0
 30
0.0
 11
4.000000498747795
 21
-40.0
 31
0.0
1001
AcDbBlockRepETag
1070
     1
1071
        5
1005
7358
  0
LINE
  5
7359
330
7350
100
AcDbEntity
  8
0
100
AcDbLine
 10
-1.999999501252204
 20
-42.0
 30
0.0
 11
2.000000498747795
 21
-42.0
 31
0.0
1001
AcDbBlockRepETag
1070
     1
1071
        6
1005
7359
  0
LINE
  5
735A
330
7350
100
AcDbEntity
  8
0
100
AcDbLine
 10
0.0000004987477951
 20
-44.0
 30
0.0
 11
0.0000004987477951
 21
-44.0
 31
0.0
1001
AcDbBlockRepETag
1070
     1
1071
        7
1005
735A
  0
LINE
  5
735B
330
7350
100
AcDbEntity
  8
0
100
AcDbLine
 10
1.000000498747795
 20
-44.0
 30
0.0
 11
-0.9999995012522049
 21
-44.0
 31
0.0
1001
AcDbBlockRepETag
1070
     1
1071
        8
1005
735B
  0
ENDBLK
  5
7352
330
7350
100
AcDbEntity
  8
0
100
AcDbBlockEnd
  0
BLOCK
  5
7360
330
735F
100
AcDbEntity
  8
0
100
AcDbBlockBegin
  2
*U85
 70
     1
 10
0.0
 20
0.0
 30
0.0
  3
*U85
  1

  0
LINE
  5
7362
330
735F
100
AcDbEntity
  8
0
100
AcDbLine
 10
0.0
 20
0.0
 30
0.0
 11
0.0
 21
-4.0
 31
0.0
1001
AcDbBlockRepETag
1070
     1
1071
        0
1005
7362
  0
LINE
  5
7363
330
735F
100
AcDbEntity
  8
0
100
AcDbLine
 10
-2.0
 20
-4.0
 30
0.0
 11
2.0
 21
-4.0
 31
0.0
1001
AcDbBlockRepETag
1070
     1
1071
        1
1005
7363
  0
LINE
  5
7364
330
735F
100
AcDbEntity
  8
0
100
AcDbLine
 10
-1.0
 20
-5.0
 30
0.0
 11
1.0
 21
-5.0
 31
0.0
1001
AcDbBlockRepETag
1070
     1
1071
        2
1005
7364
  0
LINE
  5
7365
330
735F
100
AcDbEntity
  8
0
100
AcDbLine
 10
0.0
 20
-6.0
 30
0.0
 11
0.0
 21
-6.0
 31
0.0
1001
AcDbBlockRepETag
1070
     1
1071
        3
1005
7365
  0
LINE
  5
7366
330
735F
100
AcDbEntity
  8
0
100
AcDbLine
 10
0.5
 20
-6.0
 30
0.0
 11
-0.5
 21
-6.0
 31
0.0
1001
AcDbBlockRepETag
1070
     1
1071
        4
1005
7366
  0
ENDBLK
  5
7361
330
735F
100
AcDbEntity
  8
0
100
AcDbBlockEnd
  0
BLOCK
  5
736B
330
736A
100
AcDbEntity
  8
0
100
AcDbBlockBegin
  2
*U86
 70
     1
 10
0.0
 20
0.0
 30
0.0
  3
*U86
  1

  0
LINE
  5
736D
330
736A
100
AcDbEntity
  8
0
100
AcDbLine
 10
0.0
 20
0.0
 30
0.0
 11
0.0
 21
15.0
 31
0.0
1001
AcDbBlockRepETag
1070
     1
1071
        0
1005
736D
  0
HATCH
  5
736E
330
736A
100
AcDbEntity
  8
0
100
AcDbHatch
 10
0.0
 20
0.0
 30
0.0
210
0.0
220
0.0
230
1.0
  2
SOLID
 70
     1
 71
     1
 91
        1
 92
        1
 93
        3
 72
     1
 10
0.0
 20
15.0
 11
-2.0
 21
10.99999910797555
 72
     1
 10
-2.0
 20
10.99999910797555
 11
2.0
 21
10.99999910797555
 72
     1
 10
2.0
 20
10.99999910797555
 11
0.0
 21
15.0
 97
        3
330
736F
330
7370
330
7371
 75
     0
 76
     1
 98
        1
 10
-854.0
 20
84.99999910797555
450
        0
451
        0
460
0.0
461
0.0
452
        1
462
1.0
453
        2
463
0.0
 63
     5
421
      255
463
1.0
 63
     7
421
 16777215
470
LINEAR
1001
ACAD
1010
0.0
1020
0.0
1030
0.0
1001
AcDbBlockRepETag
1070
     1
1071
        1
1005
736E
  0
LINE
  5
736F
102
{ACAD_REACTORS
330
736E
102
}
330
736A
100
AcDbEntity
  8
0
100
AcDbLine
 10
0.0
 20
15.0
 30
0.0
 11
-2.0
 21
10.99999910797555
 31
0.0
1001
AcDbBlockRepETag
1070
     1
1071
        2
1005
736F
  0
LINE
  5
7370
102
{ACAD_REACTORS
330
736E
102
}
330
736A
100
AcDbEntity
  8
0
100
AcDbLine
 10
-2.0
 20
10.99999910797555
 30
0.0
 11
2.0
 21
10.99999910797555
 31
0.0
1001
AcDbBlockRepETag
1070
     1
1071
        3
1005
7370
  0
LINE
  5
7371
102
{ACAD_REACTORS
330
736E
102
}
330
736A
100
AcDbEntity
  8
0
100
AcDbLine
 10
2.0
 20
10.99999910797555
 30
0.0
 11
0.0
 21
15.0
 31
0.0
1001
AcDbBlockRepETag
1070
     1
1071
        4
1005
7371
  0
ENDBLK
  5
736C
330
736A
100
AcDbEntity
  8
0
100
AcDbBlockEnd
  0
BLOCK
  5
7376
330
7375
100
AcDbEntity
  8
0
100
AcDbBlockBegin
  2
*U87
 70
     1
 10
0.0
 20
0.0
 30
0.0
  3
*U87
  1

  0
LINE
  5
7378
330
7375
100
AcDbEntity
  8
0
100
AcDbLine
 10
0.0
 20
0.0
 30
0.0
 11
0.0
 21
-4.0
 31
0.0
1001
AcDbBlockRepETag
1070
     1
1071
        0
1005
7378
  0
LINE
  5
7379
330
7375
100
AcDbEntity
  8
0
100
AcDbLine
 10
-2.0
 20
-4.0
 30
0.0
 11
2.0
 21
-4.0
 31
0.0
1001
AcDbBlockRepETag
1070
     1
1071
        1
1005
7379
  0
LINE
  5
737A
330
7375
100
AcDbEntity
  8
0
100
AcDbLine
 10
-1.0
 20
-5.0
 30
0.0
 11
1.0
 21
-5.0
 31
0.0
1001
AcDbBlockRepETag
1070
     1
1071
        2
1005
737A
  0
LINE
  5
737B
330
7375
100
AcDbEntity
  8
0
100
AcDbLine
 10
0.0
 20
-6.0
 30
0.0
 11
0.0
 21
-6.0
 31
0.0
1001
AcDbBlockRepETag
1070
     1
1071
        3
1005
737B
  0
LINE
  5
737C
330
7375
100
AcDbEntity
  8
0
100
AcDbLine
 10
0.5
 20
-6.0
 30
0.0
 11
-0.5
 21
-6.0
 31
0.0
1001
AcDbBlockRepETag
1070
     1
1071
        4
1005
737C
  0
ENDBLK
  5
7377
330
7375
100
AcDbEntity
  8
0
100
AcDbBlockEnd
  0
BLOCK
  5
7481
330
7480
100
AcDbEntity
  8
0
100
AcDbBlockBegin
  2
*U89
 70
     1
 10
0.0
 20
0.0
 30
0.0
  3
*U89
  1

  0
LINE
  5
7483
330
7480
100
AcDbEntity
  8
0
100
AcDbLine
 10
0.0
 20
24.0
 30
0.0
 11
0.0
 21
21.0
 31
0.0
1001
AcDbBlockRepETag
1070
     1
1071
        0
1005
7483
  0
CIRCLE
  5
7484
330
7480
100
AcDbEntity
  8
0
100
AcDbCircle
 10
0.0
 20
19.99999999999988
 30
0.0
 40
1.0
1001
AcDbBlockRepETag
1070
     1
1071
        1
1005
7484
  0
LINE
  5
7485
330
7480
100
AcDbEntity
  8
0
100
AcDbLine
 10
0.0
 20
0.0
 30
0.0
 11
0.0
 21
2.999999999999886
 31
0.0
1001
AcDbBlockRepETag
1070
     1
1071
        2
1005
7485
  0
CIRCLE
  5
7486
330
7480
100
AcDbEntity
  8
0
100
AcDbCircle
 10
0.0
 20
3.999999999999886
 30
0.0
 40
1.0
1001
AcDbBlockRepETag
1070
     1
1071
        3
1005
7486
  0
LINE
  5
7487
330
7480
100
AcDbEntity
  8
0
100
AcDbLine
 10
-1.0
 20
3.999999999999886
 30
0.0
 11
-9.0
 21
19.99999999999988
 31
0.0
1001
AcDbBlockRepETag
1070
     1
1071
        4
1005
7487
  0
ENDBLK
  5
7482
330
7480
100
AcDbEntity
  8
0
100
AcDbBlockEnd
  0
ENDSEC
  0
SECTION
  2
ENTITIES
  0
LWPOLYLINE
  5
4E75
330
1F
100
AcDbEntity
  8
Defpoints
 62
     1
100
AcDbPolyline
 90
        4
 70
     1
 43
0.0
 10
0.0
 20
0.0
 10
2394.0
 20
2.0
 10
2394.0
 20
1142.0
 10
0.0
 20
1144.0
  0
LWPOLYLINE
  5
4E76
330
1F
100
AcDbEntity
  8
0
 48
100.0
100
AcDbPolyline
 90
        5
 70
     0
 43
4.0
 10
2394.0
 20
1142.0
 10
74.0
 20
1142.0
 10
74.0
 20
2.0
 10
2394.0
 20
2.0
 10
2394.0
 20
1142.0
  0
LWPOLYLINE
  5
4E77
330
1F
100
AcDbEntity
  8
0
 48
100.0
100
AcDbPolyline
 90
        3
 70
     0
 43
4.0
 10
1674.0
 20
0.0
 10
1674.0
 20
82.0
 10
2394.0
 20
82.0
  0
LINE
  5
4E78
330
1F
100
AcDbEntity
  8
0
100
AcDbLine
 10
2184.0
 20
81.99999999997634
 30
0.0
 11
2184.0
 21
2.0
 31
0.0
  0
LINE
  5
4E79
330
1F
100
AcDbEntity
  8
0
100
AcDbLine
 10
2184.0
 20
41.99999999997635
 30
0.0
 11
2394.0
 21
42.0
 31
0.0
  0
LINE
  5
4E7A
330
1F
100
AcDbEntity
  8
0
100
AcDbLine
 10
2256.0
 20
82.0
 30
0.0
 11
2256.0
 21
2.0
 31
0.0
  0
TEXT
  5
4E7B
330
1F
100
AcDbEntity
  8
0
100
AcDbText
 10
2202.287730829953
 20
53.68061137908615
 30
0.0
 40
14.0
  1
图  号
 41
0.7
 72
     4
 11
2219.782000952737
 21
60.67106158372462
 31
0.0
100
AcDbText
  0
TEXT
  5
4E7C
330
1F
100
AcDbEntity
  8
0
100
AcDbText
 10
2202.287730829953
 20
14.84598845774722
 30
0.0
 40
14.0
  1
页  码
 41
0.7
 72
     4
 11
2219.782000952737
 21
21.87463784383181
 31
0.0
100
AcDbText
  0
MTEXT
  5
4E7D
330
1F
100
AcDbEntity
  8
0
370
   158
100
AcDbMText
 10
1938.309975727574
 20
38.10405904786512
 30
0.0
 40
20.0
 41
469.7539227692778
 46
0.0
 71
     5
 72
     5
  1
{\fSimSun|b0|i0|c134|p2;广东省佛山市顺德荣裕金属有限公司专配房}
 73
     1
 44
1.0
1001
ACAD
1000
ACAD_MTEXT_COLUMN_INFO_BEGIN
1070
    75
1070
     2
1070
    79
1070
     0
1070
    76
1070
     1
1070
    78
1070
     0
1070
    48
1040
469.7539227692778
1070
    49
1040
12.5
1070
    50
1070
     1
1040
0.0
1000
ACAD_MTEXT_COLUMN_INFO_END
  0
MTEXT
  5
4E7E
330
1F
100
AcDbEntity
  8
0
370
   158
100
AcDbMText
 10
2266.530515980207
 20
65.0661837774469
 30
0.0
 40
10.0
 41
165.8123706162532
 46
0.0
 71
     1
 72
     5
  1
FS2017012901
 73
     1
 44
1.0
1001
ACAD
1000
ACAD_MTEXT_COLUMN_INFO_BEGIN
1070
    75
1070
     2
1070
    79
1070
     0
1070
    76
1070
     1
1070
    78
1070
     0
1070
    48
1040
165.8123706162532
1070
    49
1040
12.5
1070
    50
1070
     1
1040
0.0
1000
ACAD_MTEXT_COLUMN_INFO_END
  0
LWPOLYLINE
  5
4E7F
330
1F
100
AcDbEntity
  8
DM-10kV-Cable
370
    -2
100
AcDbPolyline
 90
        4
 70
     1
 43
0.0
 10
74.0
 20
1142.0
 10
1674.0
 20
1142.0
 10
1674.0
 20
62.0
 10
74.0
 20
62.0
  0
MTEXT
  5
703D
330
1F
100
AcDbEntity
  8
DM-Text
370
     0
100
AcDbMText
 10
773.689913075204
 20
572.9214059308512
 30
0.0
 40
10.0
 41
111.1946212775974
 46
0.0
 71
     5
 72
     5
  1
#1 {\fSimSun|b0|i0|c134|p2;油浸式变压器}
 73
     1
 44
1.0
1001
ACAD
1000
ACAD_MTEXT_COLUMN_INFO_BEGIN
1070
    75
1070
     2
1070
    79
1070
     0
1070
    76
1070
     1
1070
    78
1070
     0
1070
    48
1040
111.1946212775974
1070
    49
1040
12.5
1070
    50
1070
     1
1040
14.89546655418658
1000
ACAD_MTEXT_COLUMN_INFO_END
  0
MTEXT
  5
70AA
102
{ACAD_XDICTIONARY
360
70F2
102
}
330
1F
100
AcDbEntity
  8
DM-Text
 62
     1
370
     0
100
AcDbMText
 10
911.1743761097228
 20
612.0423350006347
 30
0.0
 40
15.0
 41
228.5714348625124
 46
0.0
 71
     5
 72
     5
  1
{\fSimSun|b0|i0|c134|p2;至龙盛公司}#1{\fSimSun|b0|i0|c134|p2;杆}70mm²/60m
 73
     1
 44
1.0
1001
ACAD
1000
ACAD_MTEXT_COLUMN_INFO_BEGIN
1070
    75
1070
     2
1070
    79
1070
     0
1070
    76
1070
     1
1070
    78
1070
     0
1070
    48
1040
228.5714348625124
1070
    49
1040
1609.085452710287
1070
    50
1070
     1
1040
82.96590405917697
1000
ACAD_MTEXT_COLUMN_INFO_END
  0
LINE
  5
70D2
330
1F
100
AcDbEntity
  8
0
370
     0
100
AcDbLine
 10
1763.721311235888
 20
474.9735333367407
 30
0.0
 11
2323.721299324388
 21
474.9735333367407
 31
0.0
  0
LINE
  5
70D3
330
1F
100
AcDbEntity
  8
0
370
     0
100
AcDbLine
 10
1763.721311235888
 20
414.9735333367407
 30
0.0
 11
2323.721299324388
 21
414.9735333367407
 31
0.0
  0
LINE
  5
70D4
330
1F
100
AcDbEntity
  8
0
370
     0
100
AcDbLine
 10
1763.721311235888
 20
354.9735333367407
 30
0.0
 11
2323.721299324388
 21
354.9735333367407
 31
0.0
  0
LINE
  5
70D5
330
1F
100
AcDbEntity
  8
0
370
     0
100
AcDbLine
 10
1763.721311235888
 20
294.9735333367407
 30
0.0
 11
2323.721299324388
 21
294.9735333367407
 31
0.0
  0
LINE
  5
70D6
330
1F
100
AcDbEntity
  8
0
370
     0
100
AcDbLine
 10
1763.721311235888
 20
234.9735333367407
 30
0.0
 11
2323.721299324388
 21
234.9735333367407
 31
0.0
  0
LINE
  5
70D7
330
1F
100
AcDbEntity
  8
0
370
     0
100
AcDbLine
 10
1763.721311235888
 20
534.9735333367407
 30
0.0
 11
1843.721311235887
 21
534.9735333367407
 31
0.0
  0
LINE
  5
70D8
330
1F
100
AcDbEntity
  8
0
370
     0
100
AcDbLine
 10
1843.721311235887
 20
534.9735333367407
 30
0.0
 11
1843.721311235887
 21
234.9735333367407
 31
0.0
  0
LINE
  5
70D9
330
1F
100
AcDbEntity
  8
0
370
     0
100
AcDbLine
 10
1843.721311235887
 20
534.9735333367407
 30
0.0
 11
2043.721311235888
 21
534.9735333367407
 31
0.0
  0
LINE
  5
70DA
330
1F
100
AcDbEntity
  8
0
370
     0
100
AcDbLine
 10
2043.721311235888
 20
594.9735361150215
 30
0.0
 11
2043.721311235888
 21
234.9735333367407
 31
0.0
  0
LINE
  5
70DB
330
1F
100
AcDbEntity
  8
0
370
     0
100
AcDbLine
 10
2043.721311235888
 20
534.9735333367407
 30
0.0
 11
2123.721311235888
 21
534.9735333367407
 31
0.0
  0
MTEXT
  5
70DC
330
1F
100
AcDbEntity
  8
0
370
     0
100
AcDbMText
 10
2066.382688811776
 20
504.9735361150214
 30
0.0
 40
20.0
 41
18.25118149904483
 46
0.0
 71
     5
 72
     5
  1
P01
 73
     1
 44
1.0
1001
ACAD
1000
ACAD_MTEXT_COLUMN_INFO_BEGIN
1070
    75
1070
     2
1070
    79
1070
     0
1070
    76
1070
     1
1070
    78
1070
     0
1070
    48
1040
18.25118149904483
1070
    49
1040
12.5
1070
    50
1070
     1
1040
0.0
1000
ACAD_MTEXT_COLUMN_INFO_END
  0
LINE
  5
70DD
330
1F
100
AcDbEntity
  8
0
370
     0
100
AcDbLine
 10
2123.721311235888
 20
534.9735333367407
 30
0.0
 11
2123.721311235888
 21
234.9735333367407
 31
0.0
  0
LINE
  5
70DE
330
1F
100
AcDbEntity
  8
0
370
     0
100
AcDbLine
 10
2123.721299324389
 20
534.9735333367407
 30
0.0
 11
2323.721299324388
 21
534.9735333367407
 31
0.0
  0
LINE
  5
70DF
330
1F
100
AcDbEntity
  8
0
370
     0
100
AcDbLine
 10
2323.721299324388
 20
594.9735361150215
 30
0.0
 11
2323.721299324388
 21
234.9735333367407
 31
0.0
  0
LINE
  5
70E0
330
1F
100
AcDbEntity
  8
0
370
     0
100
AcDbLine
 10
1763.721311235888
 20
594.9735361150215
 30
0.0
 11
2043.721311235888
 21
594.9735361150215
 31
0.0
  0
LINE
  5
70E1
330
1F
100
AcDbEntity
  8
0
370
     0
100
AcDbLine
 10
2043.721311235888
 20
594.9735361150215
 30
0.0
 11
2323.721299324388
 21
594.9735361150215
 31
0.0
  0
MTEXT
  5
70E2
330
1F
100
AcDbEntity
  8
0
370
     0
100
AcDbMText
 10
1907.967877961258
 20
568.19814797885
 30
0.0
 40
20.0
 41
1410.907704287599
 46
0.0
 71
     5
 72
     5
  1
高压开关柜
 73
     1
 44
1.0
1001
ACAD
1000
ACAD_MTEXT_COLUMN_INFO_BEGIN
1070
    75
1070
     2
1070
    79
1070
     0
1070
    76
1070
     1
1070
    78
1070
     0
1070
    48
1040
1410.907704287599
1070
    49
1040
12.5
1070
    50
1070
     1
1040
0.0
1000
ACAD_MTEXT_COLUMN_INFO_END
  0
MTEXT
  5
70E3
330
1F
100
AcDbEntity
  8
0
370
     0
100
AcDbMText
 10
2189.679694630118
 20
564.9735361150215
 30
0.0
 40
20.0
 41
1795.377111285792
 46
0.0
 71
     5
 72
     5
  1
低压开关柜
 73
     1
 44
1.0
1001
ACAD
1000
ACAD_MTEXT_COLUMN_INFO_BEGIN
1070
    75
1070
     2
1070
    79
1070
     0
1070
    76
1070
     1
1070
    78
1070
     0
1070
    48
1040
1795.377111285792
1070
    49
1040
12.5
1070
    50
1070
     1
1040
0.0
1000
ACAD_MTEXT_COLUMN_INFO_END
  0
LINE
  5
70E4
330
1F
100
AcDbEntity
  8
0
370
     0
100
AcDbLine
 10
1763.721311235888
 20
594.9735361150215
 30
0.0
 11
1763.721311235888
 21
234.9735333367407
 31
0.0
  0
MTEXT
  5
70E5
330
1F
100
AcDbEntity
  8
0
370
     0
100
AcDbMText
 10
2066.382688811776
 20
444.9735361150215
 30
0.0
 40
20.0
 41
18.25118149904483
 46
0.0
 71
     5
 72
     5
  1
P02
 73
     1
 44
1.0
1001
ACAD
1000
ACAD_MTEXT_COLUMN_INFO_BEGIN
1070
    75
1070
     2
1070
    79
1070
     0
1070
    76
1070
     1
1070
    78
1070
     0
1070
    48
1040
18.25118149904483
1070
    49
1040
12.5
1070
    50
1070
     1
1040
0.0
1000
ACAD_MTEXT_COLUMN_INFO_END
  0
MTEXT
  5
70E6
330
1F
100
AcDbEntity
  8
0
370
     0
100
AcDbMText
 10
2066.382688811776
 20
384.9735361150215
 30
0.0
 40
20.0
 41
18.25118149904483
 46
0.0
 71
     5
 72
     5
  1
P03
 73
     1
 44
1.0
1001
ACAD
1000
ACAD_MTEXT_COLUMN_INFO_BEGIN
1070
    75
1070
     2
1070
    79
1070
     0
1070
    76
1070
     1
1070
    78
1070
     0
1070
    48
1040
18.25118149904483
1070
    49
1040
12.5
1070
    50
1070
     1
1040
0.0
1000
ACAD_MTEXT_COLUMN_INFO_END
  0
MTEXT
  5
70E7
330
1F
100
AcDbEntity
  8
0
370
     0
100
AcDbMText
 10
2066.382688811776
 20
324.9735361150215
 30
0.0
 40
20.0
 41
18.25118149904483
 46
0.0
 71
     5
 72
     5
  1
P04
 73
     1
 44
1.0
1001
ACAD
1000
ACAD_MTEXT_COLUMN_INFO_BEGIN
1070
    75
1070
     2
1070
    79
1070
     0
1070
    76
1070
     1
1070
    78
1070
     0
1070
    48
1040
18.25118149904483
1070
    49
1040
12.5
1070
    50
1070
     1
1040
0.0
1000
ACAD_MTEXT_COLUMN_INFO_END
  0
MTEXT
  5
70E8
330
1F
100
AcDbEntity
  8
0
370
     0
100
AcDbMText
 10
2066.382688811776
 20
264.9735361150215
 30
0.0
 40
20.0
 41
18.25118149904483
 46
0.0
 71
     5
 72
     5
  1
P05
 73
     1
 44
1.0
1001
ACAD
1000
ACAD_MTEXT_COLUMN_INFO_BEGIN
1070
    75
1070
     2
1070
    79
1070
     0
1070
    76
1070
     1
1070
    78
1070
     0
1070
    48
1040
18.25118149904483
1070
    49
1040
12.5
1070
    50
1070
     1
1040
0.0
1000
ACAD_MTEXT_COLUMN_INFO_END
  0
MTEXT
  5
70E9
330
1F
100
AcDbEntity
  8
0
370
     0
100
AcDbMText
 10
2206.070023276232
 20
504.9735361150214
 30
0.0
 40
20.0
 41
852.8670613979338
 46
0.0
 71
     5
 72
     5
  1
电容柜
 73
     1
 44
1.0
1001
ACAD
1000
ACAD_MTEXT_COLUMN_INFO_BEGIN
1070
    75
1070
     2
1070
    79
1070
     0
1070
    76
1070
     1
1070
    78
1070
     0
1070
    48
1040
852.8670613979338
1070
    49
1040
12.5
1070
    50
1070
     1
1040
0.0
1000
ACAD_MTEXT_COLUMN_INFO_END
  0
MTEXT
  5
70EA
330
1F
100
AcDbEntity
  8
0
370
     0
100
AcDbMText
 10
2203.764192943781
 20
328.1778708697002
 30
0.0
 40
20.0
 41
895.664477384984
 46
0.0
 71
     5
 72
     5
  1
进线柜
 73
     1
 44
1.0
1001
ACAD
1000
ACAD_MTEXT_COLUMN_INFO_BEGIN
1070
    75
1070
     2
1070
    79
1070
     0
1070
    76
1070
     1
1070
    78
1070
     0
1070
    48
1040
895.664477384984
1070
    49
1040
12.5
1070
    50
1070
     1
1040
0.0
1000
ACAD_MTEXT_COLUMN_INFO_END
  0
MTEXT
  5
70EB
330
1F
100
AcDbEntity
  8
0
370
     0
100
AcDbMText
 10
2212.379592514742
 20
264.9735361150215
 30
0.0
 40
20.0
 41
1118.328717668642
 46
0.0
 71
     5
 72
     5
  1
计量柜
 73
     1
 44
1.0
1001
ACAD
1000
ACAD_MTEXT_COLUMN_INFO_BEGIN
1070
    75
1070
     2
1070
    79
1070
     0
1070
    76
1070
     1
1070
    78
1070
     0
1070
    48
1040
1118.328717668642
1070
    49
1040
12.5
1070
    50
1070
     1
1040
0.0
1000
ACAD_MTEXT_COLUMN_INFO_END
  0
MTEXT
  5
70EC
330
1F
100
AcDbEntity
  8
0
370
     0
100
AcDbMText
 10
1786.382688811776
 20
504.9735361150214
 30
0.0
 40
20.0
 41
18.25118149904483
 46
0.0
 71
     5
 72
     5
  1
G01
 73
     1
 44
1.0
1001
ACAD
1000
ACAD_MTEXT_COLUMN_INFO_BEGIN
1070
    75
1070
     2
1070
    79
1070
     0
1070
    76
1070
     1
1070
    78
1070
     0
1070
    48
1040
18.25118149904483
1070
    49
1040
12.5
1070
    50
1070
     1
1040
0.0
1000
ACAD_MTEXT_COLUMN_INFO_END
  0
MTEXT
  5
70ED
330
1F
100
AcDbEntity
  8
0
370
     0
100
AcDbMText
 10
1931.151826477464
 20
498.1673475758707
 30
0.0
 40
20.0
 41
878.6328342389897
 46
0.0
 71
     5
 72
     5
  1
{\fSimSun|b0|i0|c134|p2;进线柜}
 73
     1
 44
1.0
1001
ACAD
1000
ACAD_MTEXT_COLUMN_INFO_BEGIN
1070
    75
1070
     2
1070
    79
1070
     0
1070
    76
1070
     1
1070
    78
1070
     0
1070
    48
1040
878.6328342389897
1070
    49
1040
12.5
1070
    50
1070
     1
1040
0.0
1000
ACAD_MTEXT_COLUMN_INFO_END
  0
MTEXT
  5
70EE
330
1F
100
AcDbEntity
  8
0
370
     0
100
AcDbMText
 10
1786.382688811776
 20
444.9735361150215
 30
0.0
 40
20.0
 41
18.25118149904483
 46
0.0
 71
     5
 72
     5
  1
G02
 73
     1
 44
1.0
1001
ACAD
1000
ACAD_MTEXT_COLUMN_INFO_BEGIN
1070
    75
1070
     2
1070
    79
1070
     0
1070
    76
1070
     1
1070
    78
1070
     0
1070
    48
1040
18.25118149904483
1070
    49
1040
12.5
1070
    50
1070
     1
1040
0.0
1000
ACAD_MTEXT_COLUMN_INFO_END
  0
MTEXT
  5
70EF
330
1F
100
AcDbEntity
  8
0
370
     0
100
AcDbMText
 10
1945.683804724394
 20
441.7663231202441
 30
0.0
 40
20.0
 41
1775.613002567945
 46
0.0
 71
     5
 72
     5
  1
{\fSimSun|b0|i0|c134|p2;1#变压器保护柜}
 73
     1
 44
1.0
1001
ACAD
1000
ACAD_MTEXT_COLUMN_INFO_BEGIN
1070
    75
1070
     2
1070
    79
1070
     0
1070
    76
1070
     1
1070
    78
1070
     0
1070
    48
1040
1775.613002567945
1070
    49
1040
12.5
1070
    50
1070
     1
1040
0.0
1000
ACAD_MTEXT_COLUMN_INFO_END
  0
MTEXT
  5
70F0
330
1F
100
AcDbEntity
  8
0
370
     0
100
AcDbMText
 10
2208.959556460934
 20
386.6208808351276
 30
0.0
 40
20.0
 41
1141.514697079488
 46
0.0
 71
     5
 72
     5
  1
馈电柜
 73
     1
 44
1.0
1001
ACAD
1000
ACAD_MTEXT_COLUMN_INFO_BEGIN
1070
    75
1070
     2
1070
    79
1070
     0
1070
    76
1070
     1
1070
    78
1070
     0
1070
    48
1040
1141.514697079488
1070
    49
1040
12.5
1070
    50
1070
     1
1040
0.0
1000
ACAD_MTEXT_COLUMN_INFO_END
  0
MTEXT
  5
70F1
330
1F
100
AcDbEntity
  8
0
370
     0
100
AcDbMText
 10
2213.068016465957
 20
444.1496862652693
 30
0.0
 40
20.0
 41
765.2366735137184
 46
0.0
 71
     5
 72
     5
  1
馈电柜
 73
     1
 44
1.0
1001
ACAD
1000
ACAD_MTEXT_COLUMN_INFO_BEGIN
1070
    75
1070
     2
1070
    79
1070
     0
1070
    76
1070
     1
1070
    78
1070
     0
1070
    48
1040
765.2366735137184
1070
    49
1040
12.5
1070
    50
1070
     1
1040
0.0
1000
ACAD_MTEXT_COLUMN_INFO_END
  0
MTEXT
  5
7381
330
1F
100
AcDbEntity
  8
DM-Text
370
     0
100
AcDbMText
 10
703.2319762351489
 20
333.0219657628739
 30
0.0
 40
10.0
 41
51.58707615633011
 46
0.0
 71
     9
 72
     5
  1
P04
 73
     1
 44
1.0
1001
ACAD
1000
ACAD_MTEXT_COLUMN_INFO_BEGIN
1070
    75
1070
     2
1070
    79
1070
     0
1070
    76
1070
     1
1070
    78
1070
     0
1070
    48
1040
51.58707615633011
1070
    49
1040
12.5
1070
    50
1070
     1
1040
0.0
1000
ACAD_MTEXT_COLUMN_INFO_END
  0
MTEXT
  5
7382
330
1F
100
AcDbEntity
  8
DM-Text
370
     0
100
AcDbMText
 10
966.6664782731887
 20
868.81027108733
 30
0.0
 40
10.0
 41
51.58707615633011
 46
0.0
 71
     9
 72
     5
  1
G01
 73
     1
 44
1.0
1001
ACAD
1000
ACAD_MTEXT_COLUMN_INFO_BEGIN
1070
    75
1070
     2
1070
    79
1070
     0
1070
    76
1070
     1
1070
    78
1070
     0
1070
    48
1040
51.58707615633011
1070
    49
1040
12.5
1070
    50
1070
     1
1040
0.0
1000
ACAD_MTEXT_COLUMN_INFO_END
  0
INSERT
  5
7384
102
{ACAD_XDICTIONARY
360
7385
102
}
330
1F
100
AcDbEntity
  8
DM-HV FUSE
100
AcDbBlockReference
  2
*U69
 10
692.6816865473693
 20
765.2567416134145
 30
0.0
 41
1.2
 42
1.2
 43
1.2
 50
359.8978171029272
  0
LINE
  5
738B
330
1F
100
AcDbEntity
  8
DM-10kV-Wire
100
AcDbLine
 10
692.8165136321795
 20
858.6158632297204
 30
0.0
 11
692.8165136321795
 21
840.8566213861842
 31
0.0
  0
INSERT
  5
738C
102
{ACAD_XDICTIONARY
360
738D
102
}
330
1F
100
AcDbEntity
  8
DM-Outgoing Line-180
370
     0
100
AcDbBlockReference
  2
*U80
 10
692.5810968050637
 20
708.8568327742025
 30
0.0
 41
1.2
 42
1.2
 43
1.2
 50
179.8978171029272
  0
LINE
  5
7393
330
1F
100
AcDbEntity
  8
DM-10kV-Wire
100
AcDbLine
 10
692.7651509332053
 20
812.0566671870321
 30
0.0
 11
692.7330492463434
 21
794.0566958125629
 31
0.0
  0
LINE
  5
7394
330
1F
100
AcDbEntity
  8
DM-10kV-Wire
100
AcDbLine
 10
692.5810968050637
 20
708.8568327742025
 30
0.0
 11
692.6816865473693
 21
765.2567416134145
 31
0.0
  0
LINE
  5
7395
330
1F
100
AcDbEntity
  8
DM-Ctrl-Wire
  6
DASHED
100
AcDbLine
 10
697.5073602633847
 20
779.6481582631598
 30
0.0
 11
709.5073411796938
 21
779.6267571385863
 31
0.0
  0
LINE
  5
7396
330
1F
100
AcDbEntity
  8
DM-Ctrl-Wire
  6
DASHED
100
AcDbLine
 10
709.5073411796938
 20
779.6267571385863
 30
0.0
 11
709.5758247783297
 21
818.0266960707879
 31
0.0
  0
LINE
  5
7397
330
1F
100
AcDbEntity
  8
DM-Ctrl-Wire
  6
DASHED
100
AcDbLine
 10
709.5758247783297
 20
818.0266960707879
 30
0.0
 11
666.3758890201852
 21
818.1037401272035
 31
0.0
  0
LINE
  5
7398
330
1F
100
AcDbEntity
  8
DM-Ctrl-Wire
  6
DASHED
100
AcDbLine
 10
666.3758890201852
 20
818.1037401272035
 30
0.0
 11
666.2551255336721
 21
750.3895633024433
 31
0.0
  0
INSERT
  5
7399
102
{ACAD_XDICTIONARY
360
739A
102
}
330
1F
100
AcDbEntity
  8
DM-Knife Switch
100
AcDbBlockReference
  2
*U89
 10
692.8165136321795
 20
840.8566213861842
 30
0.0
 41
1.2
 42
1.2
 43
1.2
 50
179.8978171029272
  0
INSERT
  5
739B
102
{ACAD_XDICTIONARY
360
739C
102
}
330
1F
100
AcDbEntity
  8
DM-GND-90
370
     0
100
AcDbBlockReference
  2
*U81
 10
708.3843871365234
 20
822.8288285497685
 30
0.0
 41
2.4
 42
2.4
 43
2.4
 50
89.89781710292723
  0
LINE
  5
73A2
330
1F
100
AcDbEntity
  8
DM-10kV-Wire
 48
0.1
100
AcDbLine
 10
692.5489935570431
 20
690.8568582912878
 30
0.0
 11
692.3856197285522
 21
599.2503253039115
 31
0.0
  0
INSERT
  5
73A3
102
{ACAD_XDICTIONARY
360
73A4
102
}
330
1F
100
AcDbEntity
  8
DM-DXN-T-270
370
     0
100
AcDbBlockReference
  2
*U82
 10
676.6184884214953
 20
729.8224512216795
 30
0.0
 41
2.0
 42
2.0
 43
2.0
 50
270.0
  0
INSERT
  5
73AA
102
{ACAD_XDICTIONARY
360
73AB
102
}
330
1F
100
AcDbEntity
  8
DM-GND-270
370
     0
100
AcDbBlockReference
  2
*U83
 10
644.6184884214954
 20
729.8224512216795
 30
0.0
 41
2.0
 42
2.0
 43
2.0
 50
270.0
  0
LINE
  5
73B1
330
1F
100
AcDbEntity
  8
DM-10kV-Wire
100
AcDbLine
 10
676.6184884214953
 20
729.8224512216795
 30
0.0
 11
692.6184884214953
 21
729.8224512216795
 31
0.0
  0
INSERT
  5
73B2
102
{ACAD_XDICTIONARY
360
73B3
102
}
330
1F
100
AcDbEntity
  8
DM-Earthing Switch-270
370
     0
100
AcDbBlockReference
  2
*U84
 10
676.6453001787803
 20
744.8567755231408
 30
0.0
 50
270.0
  0
LINE
  5
73B9
330
1F
100
AcDbEntity
  8
DM-10kV-Wire
100
AcDbLine
 10
676.6453001787803
 20
744.8567755231408
 30
0.0
 11
692.6453001787804
 21
744.8567755231408
 31
0.0
  0
INSERT
  5
73BA
102
{ACAD_XDICTIONARY
360
73BB
102
}
330
1F
100
AcDbEntity
  8
DM-GND-270
370
     0
100
AcDbBlockReference
  2
*U85
 10
644.5434432574465
 20
744.9254487659411
 30
0.0
 41
2.0
 42
2.0
 43
2.0
 50
270.0
  0
LWPOLYLINE
  5
73C1
330
1F
100
AcDbEntity
  8
DM-Wireframe
  6
DASHED2
 62
     8
100
AcDbPolyline
 90
        4
 70
     1
 43
0.0
 10
627.868533559088
 20
848.6233163740683
 10
729.557434884452
 20
848.6233163740683
 10
729.557434884452
 20
657.0878336671515
 10
627.868533559088
 20
657.6352031799572
  0
LINE
  5
73C2
330
1F
100
AcDbEntity
  8
DM-10kV-Wire
 48
0.1
100
AcDbLine
 10
973.5926962418226
 20
801.0374144944901
 30
0.0
 11
973.592697409752
 21
757.3847303722316
 31
0.0
  0
LINE
  5
73C3
330
1F
100
AcDbEntity
  8
DM-10kV-Wire
100
AcDbLine
 10
973.5926962418226
 20
858.6158632297204
 30
0.0
 11
973.6694540662965
 21
825.0372917491015
 31
0.0
  0
INSERT
  5
73C4
102
{ACAD_XDICTIONARY
360
73C5
102
}
330
1F
100
AcDbEntity
  8
DM-Outgoing Line-180
370
     0
100
AcDbBlockReference
  2
*U86
 10
973.592697409752
 20
757.3847303722316
 30
0.0
 41
-1.35
 42
1.35
 43
1.35
 50
180.0
  0
INSERT
  5
73CB
102
{ACAD_XDICTIONARY
360
73CC
102
}
330
1F
100
AcDbEntity
  8
DM-GND-270
370
     0
100
AcDbBlockReference
  2
*U87
 10
960.9107869218451
 20
813.1874144944934
 30
0.0
 41
-2.7
 42
2.7
 43
2.7
 50
270.0
  0
LINE
  5
73D2
330
1F
100
AcDbEntity
  8
DM-10kV-Wire
100
AcDbLine
 10
973.5927067568182
 20
737.1347227434882
 30
0.0
 11
973.5927067568182
 21
660.6194107013591
 31
0.0
  0
INSERT
  5
73D3
102
{ACAD_XDICTIONARY
360
73D4
102
}
330
1F
100
AcDbEntity
  8
DM-Knife Switch
100
AcDbBlockReference
  2
*U89
 10
973.5926962418226
 20
801.0374144944901
 30
0.0
 50
359.816753879814
  0
INSERT
  5
73D5
102
{ACAD_XDICTIONARY
360
73D6
102
}
330
1F
100
AcDbEntity
  8
DM-DXN-T-270
370
     0
100
AcDbBlockReference
  2
*U70
 10
957.5926968198755
 20
779.4320672233509
 30
0.0
 41
2.0
 42
2.0
 43
2.0
 50
270.0
  0
INSERT
  5
73DC
102
{ACAD_XDICTIONARY
360
73DD
102
}
330
1F
100
AcDbEntity
  8
DM-GND-270
370
     0
100
AcDbBlockReference
  2
*U71
 10
925.5926968198755
 20
779.4320672233509
 30
0.0
 41
2.0
 42
2.0
 43
2.0
 50
270.0
  0
LINE
  5
73E3
330
1F
100
AcDbEntity
  8
DM-10kV-Wire
100
AcDbLine
 10
957.5926968198755
 20
779.4320672233509
 30
0.0
 11
973.5926968198755
 21
779.4320672233509
 31
0.0
  0
LWPOLYLINE
  5
73E4
330
1F
100
AcDbEntity
  8
DM-Wireframe
  6
DASHED2
 62
     8
100
AcDbPolyline
 90
        4
 70
     1
 43
0.0
 10
907.3999118097372
 20
848.4031321097239
 10
986.5522861692397
 20
848.4031321097239
 10
986.5522861692397
 20
695.9002211581548
 10
907.3999118097372
 20
695.9002211581548
  0
LINE
  5
73E5
330
1F
100
AcDbEntity
  8
DM-10kV-Cable
370
    50
100
AcDbLine
 10
629.9281373697513
 20
858.6158632297204
 30
0.0
 11
973.5926962418226
 21
858.6158632297204
 31
0.0
  0
INSERT
  5
73E6
330
1F
100
AcDbEntity
  8
DM-DblClmnTrans
100
AcDbBlockReference
  2
DM-DblClmnTrans
 10
692.3856197285522
 20
584.2503253039114
 30
0.0
  0
INSERT
  5
73E7
330
1F
100
AcDbEntity
  8
DM-Outgoing Line
100
AcDbBlockReference
  2
DM-Outgoing Line
 10
692.3856197285522
 20
584.2503253039114
 30
0.0
  0
INSERT
  5
73E8
330
1F
100
AcDbEntity
  8
DM-Outgoing Line-180
100
AcDbBlockReference
  2
DM-Outgoing Line
 10
692.3856197285522
 20
544.2503253039115
 30
0.0
 41
-1.0
 50
180.0
  0
LINE
  5
73E9
330
1F
100
AcDbEntity
  8
DM-0.4kV-Wire
100
AcDbLine
 10
692.3856197285522
 20
529.2503253039114
 30
0.0
 11
692.3856197285522
 21
501.4746812219811
 31
0.0
  0
INSERT
  5
73EA
102
{ACAD_XDICTIONARY
360
73EB
102
}
330
1F
100
AcDbEntity
  8
DM-VCB
 48
0.1
370
     0
100
AcDbBlockReference
  2
*U72
 10
692.3058222978243
 20
501.5544786527091
 30
0.0
  0
LINE
  5
73F1
330
1F
100
AcDbEntity
  8
DM-0.4kV-Wire
 48
0.1
100
AcDbLine
 10
692.3058222978243
 20
437.5544786527091
 30
0.0
 11
692.3058222978243
 21
413.4082448376932
 31
0.0
  0
INSERT
  5
73F2
102
{ACAD_XDICTIONARY
360
73F3
102
}
330
1F
100
AcDbEntity
  8
DM-CT
370
     0
100
AcDbBlockReference
  2
*U73
 10
677.3058222978242
 20
442.4082454465817
 30
0.0
  0
INSERT
  5
73F9
102
{ACAD_XDICTIONARY
360
73FA
102
}
330
1F
100
AcDbEntity
  8
DM-CT
370
     0
100
AcDbBlockReference
  2
*U74
 10
692.3058222978243
 20
413.4082448376932
 30
0.0
  0
INSERT
  5
7400
102
{ACAD_XDICTIONARY
360
7401
102
}
330
1F
100
AcDbEntity
  8
DM-CT
370
     0
100
AcDbBlockReference
  2
*U75
 10
677.3058222978242
 20
413.4082448376932
 30
0.0
  0
INSERT
  5
7407
102
{ACAD_XDICTIONARY
360
7408
102
}
330
1F
100
AcDbEntity
  8
DM-CT
370
     0
100
AcDbBlockReference
  2
*U76
 10
707.3058222978243
 20
412.941708829868
 30
0.0
  0
LINE
  5
740E
330
1F
100
AcDbEntity
  8
DM-0.4kV-Wire
100
AcDbLine
 10
712.5457432132634
 20
511.3869069538806
 30
0.0
 11
712.5457432132634
 21
503.1672202222718
 31
0.0
  0
INSERT
  5
740F
102
{ACAD_XDICTIONARY
360
7410
102
}
330
1F
100
AcDbEntity
  8
DM-Arrester
370
     0
100
AcDbBlockReference
  2
*U77
 10
712.5457432132634
 20
503.1672202222718
 30
0.0
 41
2.0
 42
2.0
 43
2.0
  0
INSERT
  5
7416
102
{ACAD_XDICTIONARY
360
7417
102
}
330
1F
100
AcDbEntity
  8
DM-GND
370
     0
100
AcDbBlockReference
  2
*U78
 10
712.5457432132634
 20
471.1672202222719
 30
0.0
 41
2.0
 42
2.0
 43
2.0
  0
LINE
  5
741D
330
1F
100
AcDbEntity
  8
DM-0.4kV-Wire
100
AcDbLine
 10
673.4542557515042
 20
511.3869069538806
 30
0.0
 11
673.4542557515042
 21
473.1973772058147
 31
0.0
  0
INSERT
  5
741E
102
{ACAD_XDICTIONARY
360
741F
102
}
330
1F
100
AcDbEntity
  8
DM-Outgoing Line-180
370
     0
100
AcDbBlockReference
  2
*U79
 10
673.4542557515042
 20
473.1973772058147
 30
0.0
 50
180.0
  0
LINE
  5
7425
330
1F
100
AcDbEntity
  8
DM-0.4kV-Wire
100
AcDbLine
 10
692.3058222978243
 20
389.4082448376932
 30
0.0
 11
692.3058222978206
 21
354.5522194709986
 31
0.0
  0
LINE
  5
7426
330
1F
100
AcDbEntity
  8
DM-0.4kV-Wire
100
AcDbLine
 10
712.5457432132634
 20
511.3869069538806
 30
0.0
 11
673.4542557515042
 21
511.3869069538806
 31
0.0
  0
LINE
  5
7427
330
1F
100
AcDbEntity
  8
DM-0.4kV-Cable
370
    50
100
AcDbLine
 10
785.3318929353763
 20
354.5522194709986
 30
0.0
 11
621.8832383726212
 21
354.5522194709986
 31
0.0
  0
LWPOLYLINE
  5
7428
330
1F
100
AcDbEntity
  8
DM-Wireframe
  6
DASHED2
 62
     8
100
AcDbPolyline
 90
        4
 70
     1
 43
0.0
 10
662.5552198843352
 20
521.3711524734747
 10
726.6356498189552
 20
521.3711524734747
 10
726.6356498189552
 20
362.9679672939376
 10
662.5552198843352
 20
362.9679672939376
  0
MTEXT
  5
7429
330
1F
100
AcDbEntity
  8
DM-Text
370
     0
100
AcDbMText
 10
703.7703351698719
 20
868.81027108733
 30
0.0
 40
10.0
 41
51.58707615633011
 46
0.0
 71
     9
 72
     5
  1
G02
 73
     1
 44
1.0
1001
ACAD
1000
ACAD_MTEXT_COLUMN_INFO_BEGIN
1070
    75
1070
     2
1070
    79
1070
     0
1070
    76
1070
     1
1070
    78
1070
     0
1070
    48
1040
51.58707615633011
1070
    49
1040
12.5
1070
    50
1070
     1
1040
0.0
1000
ACAD_MTEXT_COLUMN_INFO_END
  0
MTEXT
  5
74A8
330
1F
100
AcDbEntity
  8
DM-Text
370
     0
100
AcDbMText
 10
745.635593368992
 20
558.4989329411018
 30
0.0
 40
10.0
 41
53.16944558408704
 46
0.0
 71
     5
 72
     5
  1
500kVA
 73
     1
 44
1.0
1001
ACAD
1000
ACAD_MTEXT_COLUMN_INFO_BEGIN
1070
    75
1070
     2
1070
    79
1070
     0
1070
    76
1070
     1
1070
    78
1070
     0
1070
    48
1040
53.16944558408704
1070
    49
1040
12.5
1070
    50
1070
     1
1040
6.300886965519255
1000
ACAD_MTEXT_COLUMN_INFO_END
  0
ENDSEC
  0
SECTION
  2
OBJECTS
  0
DICTIONARY
  5
C
330
0
100
AcDbDictionary
281
     1
  3
ACAD_ASSOCPERSSUBENTMANAGER
350
70F8
  3
ACAD_CIP_PREVIOUS_PRODUCT_INFO
350
216
  3
ACAD_COLOR
350
6B
  3
ACAD_DETAILVIEWSTYLE
350
21B
  3
ACAD_GROUP
350
D
  3
ACAD_LAYOUT
350
1A
  3
ACAD_MATERIAL
350
6A
  3
ACAD_MLEADERSTYLE
350
12D
  3
ACAD_MLINESTYLE
350
17
  3
ACAD_PERSUBENTMGR
350
1B7A
  3
ACAD_PLOTSETTINGS
350
19
  3
ACAD_PLOTSTYLENAME
350
E
  3
ACAD_SCALELIST
350
10C
  3
ACAD_SECTIONVIEWSTYLE
350
219
  3
ACAD_TABLESTYLE
350
7E
  3
ACAD_VISUALSTYLE
350
EF
  3
ACDB_RECOMPOSE_DATA
350
74B8
  3
AcDbVariableDictionary
350
5E
  0
DICTIONARY
  5
4F8F
330
8
100
AcDbDictionary
280
     1
281
     1
  0
DICTIONARY
  5
1FF
330
2
100
AcDbDictionary
280
     1
281
     1
  3
ACAD_LAYERSTATES
360
200
  0
DICTIONARY
  5
13C
330
10
100
AcDbDictionary
280
     1
281
     1
  0
DICTIONARY
  5
70A2
330
70A1
100
AcDbDictionary
280
     1
281
     1
  0
DICTIONARY
  5
1CE
330
1F
100
AcDbDictionary
280
     1
281
     1
  0
DICTIONARY
  5
260
330
25F
100
AcDbDictionary
280
     1
281
     1
  3
ACAD_ENHANCEDBLOCK
360
261
  3
AcDbDynamicBlockRoundTripPurgePreventer
360
263
  0
DICTIONARY
  5
4AB4
330
26D
100
AcDbDictionary
280
     1
281
     1
  3
ACAD_ENHANCEDBLOCK
360
4AB5
  3
AcDbDynamicBlockRoundTripPurgePreventer
360
4ABB
  0
DICTIONARY
  5
4C05
330
279
100
AcDbDictionary
280
     1
281
     1
  3
ACAD_ENHANCEDBLOCK
360
4C06
  3
AcDbDynamicBlockRoundTripPurgePreventer
360
4C22
  0
DICTIONARY
  5
285
330
284
100
AcDbDictionary
280
     1
281
     1
  3
ACAD_ENHANCEDBLOCK
360
286
  3
AcDbDynamicBlockRoundTripPurgePreventer
360
288
  0
DICTIONARY
  5
291
330
290
100
AcDbDictionary
280
     1
281
     1
  3
ACAD_ENHANCEDBLOCK
360
292
  3
ACAD_SORTENTS
360
294
  3
AcDbDynamicBlockRoundTripPurgePreventer
360
295
  0
DICTIONARY
  5
2A5
330
2A4
100
AcDbDictionary
280
     1
281
     1
  3
ACAD_ENHANCEDBLOCK
360
2A6
  3
AcDbDynamicBlockRoundTripPurgePreventer
360
2A8
  0
DICTIONARY
  5
2BC
330
2BB
100
AcDbDictionary
280
     1
281
     1
  3
ACAD_ENHANCEDBLOCK
360
2BD
  3
AcDbDynamicBlockRoundTripPurgePreventer
360
2BF
  0
DICTIONARY
  5
2CE
330
2CD
100
AcDbDictionary
280
     1
281
     1
  3
ACAD_ENHANCEDBLOCK
360
2CF
  3
AcDbDynamicBlockRoundTripPurgePreventer
360
2D1
  0
DICTIONARY
  5
2E5
330
2E4
100
AcDbDictionary
280
     1
281
     1
  3
ACAD_ENHANCEDBLOCK
360
2E6
  3
AcDbDynamicBlockRoundTripPurgePreventer
360
2E8
  0
DICTIONARY
  5
2F1
330
2F0
100
AcDbDictionary
280
     1
281
     1
  3
ACAD_ENHANCEDBLOCK
360
2F2
  3
AcDbDynamicBlockRoundTripPurgePreventer
360
2F4
  0
DICTIONARY
  5
1B9E
330
1B9D
100
AcDbDictionary
280
     1
281
     1
  3
ACAD_ENHANCEDBLOCK
360
1B9F
  3
AcDbDynamicBlockRoundTripPurgePreventer
360
1BA1
  0
DICTIONARY
  5
744D
330
3B26
100
AcDbDictionary
280
     1
281
     1
  3
ACAD_ENHANCEDBLOCK
360
744E
  3
AcDbDynamicBlockRoundTripPurgePreventer
360
7473
  0
DICTIONARY
  5
3B30
330
3B2F
100
AcDbDictionary
280
     1
281
     1
  3
ACAD_ENHANCEDBLOCK
360
3B31
  3
AcDbDynamicBlockRoundTripPurgePreventer
360
3B33
  0
DICTIONARY
  5
6AA2
330
6A44
100
AcDbDictionary
280
     1
281
     1
  0
DICTIONARY
  5
6AAD
330
6AA5
100
AcDbDictionary
280
     1
281
     1
  0
DICTIONARY
  5
6ABC
330
6AB0
100
AcDbDictionary
280
     1
281
     1
  0
DICTIONARY
  5
6ACE
330
6ABF
100
AcDbDictionary
280
     1
281
     1
  3
ACAD_SORTENTS
360
6ACF
  0
DICTIONARY
  5
6ADA
330
6AD2
100
AcDbDictionary
280
     1
281
     1
  0
DICTIONARY
  5
6AF0
330
6ADD
100
AcDbDictionary
280
     1
281
     1
  0
DICTIONARY
  5
6AFB
330
6AF3
100
AcDbDictionary
280
     1
281
     1
  0
DICTIONARY
  5
6B06
330
6AFE
100
AcDbDictionary
280
     1
281
     1
  0
DICTIONARY
  5
6B11
330
6B09
100
AcDbDictionary
280
     1
281
     1
  0
DICTIONARY
  5
6B1C
330
6B14
100
AcDbDictionary
280
     1
281
     1
  0
DICTIONARY
  5
6B27
330
6B1F
100
AcDbDictionary
280
     1
281
     1
  0
DICTIONARY
  5
6B3D
330
6B2A
100
AcDbDictionary
280
     1
281
     1
  0
DICTIONARY
  5
6B4A
330
6B40
100
AcDbDictionary
280
     1
281
     1
  0
DICTIONARY
  5
728A
330
7283
100
AcDbDictionary
280
     1
281
     1
  0
DICTIONARY
  5
72A0
330
728D
100
AcDbDictionary
280
     1
281
     1
  0
DICTIONARY
  5
72AB
330
72A3
100
AcDbDictionary
280
     1
281
     1
  0
DICTIONARY
  5
72C1
330
72AE
100
AcDbDictionary
280
     1
281
     1
  0
DICTIONARY
  5
72CC
330
72C4
100
AcDbDictionary
280
     1
281
     1
  0
DICTIONARY
  5
72D7
330
72CF
100
AcDbDictionary
280
     1
281
     1
  0
DICTIONARY
  5
72E2
330
72DA
100
AcDbDictionary
280
     1
281
     1
  0
DICTIONARY
  5
72ED
330
72E5
100
AcDbDictionary
280
     1
281
     1
  0
DICTIONARY
  5
72FF
330
72F0
100
AcDbDictionary
280
     1
281
     1
  3
ACAD_SORTENTS
360
7300
  0
DICTIONARY
  5
730B
330
7303
100
AcDbDictionary
280
     1
281
     1
  0
DICTIONARY
  5
7316
330
730E
100
AcDbDictionary
280
     1
281
     1
  0
DICTIONARY
  5
7321
330
7319
100
AcDbDictionary
280
     1
281
     1
  0
DICTIONARY
  5
732C
330
7324
100
AcDbDictionary
280
     1
281
     1
  0
DICTIONARY
  5
7342
330
732F
100
AcDbDictionary
280
     1
281
     1
  0
DICTIONARY
  5
734D
330
7345
100
AcDbDictionary
280
     1
281
     1
  0
DICTIONARY
  5
735C
330
7350
100
AcDbDictionary
280
     1
281
     1
  0
DICTIONARY
  5
7367
330
735F
100
AcDbDictionary
280
     1
281
     1
  0
DICTIONARY
  5
7372
330
736A
100
AcDbDictionary
280
     1
281
     1
  0
DICTIONARY
  5
737D
330
7375
100
AcDbDictionary
280
     1
281
     1
  0
DICTIONARY
  5
7488
330
7480
100
AcDbDictionary
280
     1
281
     1
  0
DICTIONARY
  5
6A46
330
6A45
100
AcDbDictionary
280
     1
281
     1
  3
AcDbBlockRepresentation
360
6A47
  0
DICTIONARY
  5
6A4D
330
6A4C
100
AcDbDictionary
280
     1
281
     1
  3
AcDbBlockRepresentation
360
6A4E
  0
DICTIONARY
  5
6A5A
330
6A59
100
AcDbDictionary
280
     1
281
     1
  3
AcDbBlockRepresentation
360
6A5B
  0
DICTIONARY
  5
6A61
330
6A60
100
AcDbDictionary
280
     1
281
     1
  3
AcDbBlockRepresentation
360
6A62
  0
DICTIONARY
  5
6A68
330
6A67
100
AcDbDictionary
280
     1
281
     1
  3
AcDbBlockRepresentation
360
6A69
  0
DICTIONARY
  5
6A71
330
6A70
100
AcDbDictionary
280
     1
281
     1
  3
AcDbBlockRepresentation
360
6A72
  0
DICTIONARY
  5
6A78
330
6A77
100
AcDbDictionary
280
     1
281
     1
  3
AcDbBlockRepresentation
360
6A79
  0
DICTIONARY
  5
6A7F
330
6A7E
100
AcDbDictionary
280
     1
281
     1
  3
AcDbBlockRepresentation
360
6A80
  0
DICTIONARY
  5
6A86
330
6A85
100
AcDbDictionary
280
     1
281
     1
  3
AcDbBlockRepresentation
360
6A87
  0
DICTIONARY
  5
6A8D
330
6A8C
100
AcDbDictionary
280
     1
281
     1
  3
AcDbBlockRepresentation
360
6A8E
  0
DICTIONARY
  5
6A94
330
6A93
100
AcDbDictionary
280
     1
281
     1
  3
AcDbBlockRepresentation
360
6A95
  0
DICTIONARY
  5
6A9B
330
6A9A
100
AcDbDictionary
280
     1
281
     1
  3
AcDbBlockRepresentation
360
6A9C
  0
DICTIONARY
  5
70F2
330
70AA
100
AcDbDictionary
280
     1
281
     1
  3
ACAD_MTEXT_2008_RT
360
74B5
  0
DICTIONARY
  5
7385
330
7384
100
AcDbDictionary
280
     1
281
     1
  3
AcDbBlockRepresentation
360
7386
  0
DICTIONARY
  5
738D
330
738C
100
AcDbDictionary
280
     1
281
     1
  3
AcDbBlockRepresentation
360
738E
  0
DICTIONARY
  5
739A
330
7399
100
AcDbDictionary
280
     1
281
     1
  3
AcDbBlockRepresentation
360
745D
  0
DICTIONARY
  5
739C
330
739B
100
AcDbDictionary
280
     1
281
     1
  3
AcDbBlockRepresentation
360
739D
  0
DICTIONARY
  5
73A4
330
73A3
100
AcDbDictionary
280
     1
281
     1
  3
AcDbBlockRepresentation
360
73A5
  0
DICTIONARY
  5
73AB
330
73AA
100
AcDbDictionary
280
     1
281
     1
  3
AcDbBlockRepresentation
360
73AC
  0
DICTIONARY
  5
73B3
330
73B2
100
AcDbDictionary
280
     1
281
     1
  3
AcDbBlockRepresentation
360
73B4
  0
DICTIONARY
  5
73BB
330
73BA
100
AcDbDictionary
280
     1
281
     1
  3
AcDbBlockRepresentation
360
73BC
  0
DICTIONARY
  5
73C5
330
73C4
100
AcDbDictionary
280
     1
281
     1
  3
AcDbBlockRepresentation
360
73C6
  0
DICTIONARY
  5
73CC
330
73CB
100
AcDbDictionary
280
     1
281
     1
  3
AcDbBlockRepresentation
360
73CD
  0
DICTIONARY
  5
73D4
330
73D3
100
AcDbDictionary
280
     1
281
     1
  3
AcDbBlockRepresentation
360
7462
  0
DICTIONARY
  5
73D6
330
73D5
100
AcDbDictionary
280
     1
281
     1
  3
AcDbBlockRepresentation
360
73D7
  0
DICTIONARY
  5
73DD
330
73DC
100
AcDbDictionary
280
     1
281
     1
  3
AcDbBlockRepresentation
360
73DE
  0
DICTIONARY
  5
73EB
330
73EA
100
AcDbDictionary
280
     1
281
     1
  3
AcDbBlockRepresentation
360
73EC
  0
DICTIONARY
  5
73F3
330
73F2
100
AcDbDictionary
280
     1
281
     1
  3
AcDbBlockRepresentation
360
73F4
  0
DICTIONARY
  5
73FA
330
73F9
100
AcDbDictionary
280
     1
281
     1
  3
AcDbBlockRepresentation
360
73FB
  0
DICTIONARY
  5
7401
330
7400
100
AcDbDictionary
280
     1
281
     1
  3
AcDbBlockRepresentation
360
7402
  0
DICTIONARY
  5
7408
330
7407
100
AcDbDictionary
280
     1
281
     1
  3
AcDbBlockRepresentation
360
7409
  0
DICTIONARY
  5
7410
330
740F
100
AcDbDictionary
280
     1
281
     1
  3
AcDbBlockRepresentation
360
7411
  0
DICTIONARY
  5
7417
330
7416
100
AcDbDictionary
280
     1
281
     1
  3
AcDbBlockRepresentation
360
7418
  0
DICTIONARY
  5
741F
330
741E
100
AcDbDictionary
280
     1
281
     1
  3
AcDbBlockRepresentation
360
7420
  0
ACDBASSOCPERSSUBENTMANAGER
  5
70F8
102
{ACAD_REACTORS
330
C
102
}
330
C
100
AcDbAssocPersSubentManager
 90
        2
 90
        3
 90
        0
 90
        2
 90
        0
 90
        0
 90
        0
 90
        0
 90
        0
290
     0
  0
XRECORD
  5
216
102
{ACAD_REACTORS
330
C
102
}
330
C
100
AcDbXrecord
280
     1
300
ACD
300
2016
300
ACD_F_S
  0
DICTIONARY
  5
6B
102
{ACAD_REACTORS
330
C
102
}
330
C
100
AcDbDictionary
281
     1
  0
DICTIONARY
  5
21B
102
{ACAD_REACTORS
330
C
102
}
330
C
100
AcDbDictionary
281
     1
  3
Metric50
350
71D5
  0
DICTIONARY
  5
D
102
{ACAD_REACTORS
330
C
102
}
330
C
100
AcDbDictionary
281
     1
  0
DICTIONARY
  5
1A
102
{ACAD_REACTORS
330
C
102
}
330
C
100
AcDbDictionary
281
     1
  3
Model
350
22
  3
布局1
350
D3
  3
布局2
350
D7
  0
DICTIONARY
  5
6A
102
{ACAD_REACTORS
330
C
102
}
330
C
100
AcDbDictionary
281
     1
  3
ByBlock
350
ED
  3
ByLayer
350
EC
  3
Global
350
EE
  0
DICTIONARY
  5
12D
102
{ACAD_REACTORS
330
C
102
}
330
C
100
AcDbDictionary
281
     1
  3
Annotative
350
13B
  3
Standard
350
12E
  0
DICTIONARY
  5
17
102
{ACAD_REACTORS
330
C
102
}
330
C
100
AcDbDictionary
281
     1
  3
Standard
350
18
  0
ACDBPERSSUBENTMANAGER
  5
1B7A
102
{ACAD_REACTORS
330
C
102
}
330
C
100
AcDbPersSubentManager
 90
        2
 90
        0
 90
        2
 90
       11
 90
        0
 90
        0
  0
DICTIONARY
  5
19
102
{ACAD_REACTORS
330
C
102
}
330
C
100
AcDbDictionary
281
     1
  0
ACDBDICTIONARYWDFLT
  5
E
102
{ACAD_REACTORS
330
C
102
}
330
C
100
AcDbDictionary
281
     1
  3
Normal
350
F
100
AcDbDictionaryWithDefault
340
F
  0
DICTIONARY
  5
10C
102
{ACAD_REACTORS
330
C
102
}
330
C
100
AcDbDictionary
281
     1
  3
A0
350
10D
  3
A1
350
1BE
  3
A2
350
1BF
  3
A3
350
1C0
  3
A4
350
1C1
  3
A5
350
1C2
  3
A6
350
1C3
  3
A7
350
1C4
  3
A8
350
1C5
  3
A9
350
1C6
  3
B0
350
1C7
  3
B1
350
1C8
  3
B2
350
1C9
  3
B3
350
1CA
  3
B4
350
1CB
  3
B5
350
1CC
  3
B6
350
1CD
  0
DICTIONARY
  5
219
102
{ACAD_REACTORS
330
C
102
}
330
C
100
AcDbDictionary
281
     1
  3
Metric50
350
71D4
  0
DICTIONARY
  5
7E
102
{ACAD_REACTORS
330
C
102
}
330
C
100
AcDbDictionary
281
     1
  3
Standard
350
7F
  0
DICTIONARY
  5
EF
102
{ACAD_REACTORS
330
C
102
}
330
C
100
AcDbDictionary
281
     1
  3
2dWireframe
350
F5
  3
3D Hidden
350
4E1B
  3
3dWireframe
350
549
  3
Basic
350
F4
  3
Brighten
350
FB
  3
ColorChange
350
FF
  3
Conceptual
350
F8
  3
Dim
350
FA
  3
EdgeColorOff
350
1E6
  3
Facepattern
350
FE
  3
Flat
350
F0
  3
FlatWithEdges
350
F1
  3
Gouraud
350
F2
  3
GouraudWithEdges
350
F3
  3
Hidden
350
F7
  3
JitterOff
350
1E4
  3
Linepattern
350
FD
  3
OverhangOff
350
1E5
  3
Realistic
350
F9
  3
Shaded
350
1F3
  3
Shaded with edges
350
1F2
  3
Shades of Gray
350
1EF
  3
Sketchy
350
1F0
  3
Thicken
350
FC
  3
Wireframe
350
F6
  3
X-Ray
350
1F1
  0
XRECORD
  5
74B8
102
{ACAD_REACTORS
330
C
102
}
330
C
100
AcDbXrecord
280
     1
 90
        1
330
7F
330
4E7D
330
4E7E
330
6A57
330
703D
330
70AA
330
70DC
330
70E2
330
70E3
330
70E5
330
70E6
330
70E7
330
70E8
330
70E9
330
70EA
330
70EB
330
70EC
330
70ED
330
70EE
330
70EF
330
70F0
330
70F1
330
71D4
330
71D5
330
7381
330
7382
330
7429
330
74A8
  0
DICTIONARY
  5
5E
102
{ACAD_REACTORS
330
C
102
}
330
C
100
AcDbDictionary
281
     1
  3
CANNOSCALE
350
146
  3
CMLEADERSTYLE
350
145
  3
CTABLESTYLE
350
84
  3
CVIEWDETAILSTYLE
350
227
  3
CVIEWSECTIONSTYLE
350
228
  3
DIMASSOC
350
5F
  3
HIDETEXT
350
63
  3
LAYEREVAL
350
1AE
  3
LAYERNOTIFY
350
1AF
  3
LIGHTINGUNITS
350
4FD2
  3
MSLTSCALE
350
4FD1
  3
SOLIDHIST
350
4FD3
  0
DICTIONARY
  5
200
102
{ACAD_REACTORS
330
1FF
102
}
330
1FF
100
AcDbDictionary
281
     1
  0
ACAD_EVALUATION_GRAPH
  5
261
102
{ACAD_REACTORS
330
260
102
}
330
260
100
AcDbEvalGraph
 96
        1
 97
        1
 91
        0
 93
       32
 95
        1
360
262
 92
       -1
 92
       -1
 92
       -1
 92
       -1
  0
ACDB_DYNAMICBLOCKPURGEPREVENTER_VERSION
  5
263
102
{ACAD_REACTORS
330
260
102
}
330
260
100
AcDbDynamicBlockPurgePreventer
 70
     1
  0
ACAD_EVALUATION_GRAPH
  5
4AB5
102
{ACAD_REACTORS
330
4AB4
102
}
330
4AB4
100
AcDbEvalGraph
 96
        3
 97
        3
 91
        0
 93
       32
 95
        3
360
4AB6
 92
       -1
 92
       -1
 92
       -1
 92
       -1
  0
ACDB_DYNAMICBLOCKPURGEPREVENTER_VERSION
  5
4ABB
102
{ACAD_REACTORS
330
4AB4
102
}
330
4AB4
100
AcDbDynamicBlockPurgePreventer
 70
     1
  0
ACAD_EVALUATION_GRAPH
  5
4C06
102
{ACAD_REACTORS
330
4C05
102
}
330
4C05
100
AcDbEvalGraph
 96
        1
 97
        1
 91
        0
 93
       32
 95
        1
360
4C07
 92
       -1
 92
       -1
 92
       -1
 92
       -1
  0
ACDB_DYNAMICBLOCKPURGEPREVENTER_VERSION
  5
4C22
102
{ACAD_REACTORS
330
4C05
102
}
330
4C05
100
AcDbDynamicBlockPurgePreventer
 70
     1
  0
ACAD_EVALUATION_GRAPH
  5
286
102
{ACAD_REACTORS
330
285
102
}
330
285
100
AcDbEvalGraph
 96
        1
 97
        1
 91
        0
 93
       32
 95
        1
360
287
 92
       -1
 92
       -1
 92
       -1
 92
       -1
  0
ACDB_DYNAMICBLOCKPURGEPREVENTER_VERSION
  5
288
102
{ACAD_REACTORS
330
285
102
}
330
285
100
AcDbDynamicBlockPurgePreventer
 70
     1
  0
ACAD_EVALUATION_GRAPH
  5
292
102
{ACAD_REACTORS
330
291
102
}
330
291
100
AcDbEvalGraph
 96
        2
 97
        2
 91
        0
 93
       32
 95
        2
360
293
 92
       -1
 92
       -1
 92
       -1
 92
       -1
  0
SORTENTSTABLE
  5
294
102
{ACAD_REACTORS
330
291
102
}
330
291
100
AcDbSortentsTable
330
290
  0
ACDB_DYNAMICBLOCKPURGEPREVENTER_VERSION
  5
295
102
{ACAD_REACTORS
330
291
102
}
330
291
100
AcDbDynamicBlockPurgePreventer
 70
     1
  0
ACAD_EVALUATION_GRAPH
  5
2A6
102
{ACAD_REACTORS
330
2A5
102
}
330
2A5
100
AcDbEvalGraph
 96
        2
 97
        2
 91
        0
 93
       32
 95
        2
360
2A7
 92
       -1
 92
       -1
 92
       -1
 92
       -1
  0
ACDB_DYNAMICBLOCKPURGEPREVENTER_VERSION
  5
2A8
102
{ACAD_REACTORS
330
2A5
102
}
330
2A5
100
AcDbDynamicBlockPurgePreventer
 70
     1
  0
ACAD_EVALUATION_GRAPH
  5
2BD
102
{ACAD_REACTORS
330
2BC
102
}
330
2BC
100
AcDbEvalGraph
 96
        1
 97
        1
 91
        0
 93
       32
 95
        1
360
2BE
 92
       -1
 92
       -1
 92
       -1
 92
       -1
  0
ACDB_DYNAMICBLOCKPURGEPREVENTER_VERSION
  5
2BF
102
{ACAD_REACTORS
330
2BC
102
}
330
2BC
100
AcDbDynamicBlockPurgePreventer
 70
     1
  0
ACAD_EVALUATION_GRAPH
  5
2CF
102
{ACAD_REACTORS
330
2CE
102
}
330
2CE
100
AcDbEvalGraph
 96
        1
 97
        1
 91
        0
 93
       32
 95
        1
360
2D0
 92
       -1
 92
       -1
 92
       -1
 92
       -1
  0
ACDB_DYNAMICBLOCKPURGEPREVENTER_VERSION
  5
2D1
102
{ACAD_REACTORS
330
2CE
102
}
330
2CE
100
AcDbDynamicBlockPurgePreventer
 70
     1
  0
ACAD_EVALUATION_GRAPH
  5
2E6
102
{ACAD_REACTORS
330
2E5
102
}
330
2E5
100
AcDbEvalGraph
 96
        1
 97
        1
 91
        0
 93
       32
 95
        1
360
2E7
 92
       -1
 92
       -1
 92
       -1
 92
       -1
  0
ACDB_DYNAMICBLOCKPURGEPREVENTER_VERSION
  5
2E8
102
{ACAD_REACTORS
330
2E5
102
}
330
2E5
100
AcDbDynamicBlockPurgePreventer
 70
     1
  0
ACAD_EVALUATION_GRAPH
  5
2F2
102
{ACAD_REACTORS
330
2F1
102
}
330
2F1
100
AcDbEvalGraph
 96
        1
 97
        1
 91
        0
 93
       32
 95
        1
360
2F3
 92
       -1
 92
       -1
 92
       -1
 92
       -1
  0
ACDB_DYNAMICBLOCKPURGEPREVENTER_VERSION
  5
2F4
102
{ACAD_REACTORS
330
2F1
102
}
330
2F1
100
AcDbDynamicBlockPurgePreventer
 70
     1
  0
ACAD_EVALUATION_GRAPH
  5
1B9F
102
{ACAD_REACTORS
330
1B9E
102
}
330
1B9E
100
AcDbEvalGraph
 96
        1
 97
        1
 91
        0
 93
       32
 95
        1
360
1BA0
 92
       -1
 92
       -1
 92
       -1
 92
       -1
  0
ACDB_DYNAMICBLOCKPURGEPREVENTER_VERSION
  5
1BA1
102
{ACAD_REACTORS
330
1B9E
102
}
330
1B9E
100
AcDbDynamicBlockPurgePreventer
 70
     1
  0
ACAD_EVALUATION_GRAPH
  5
744E
102
{ACAD_REACTORS
330
744D
102
}
330
744D
100
AcDbEvalGraph
 96
        2
 97
        2
 91
        0
 93
       32
 95
        2
360
7452
 92
       -1
 92
       -1
 92
       -1
 92
       -1
  0
ACDB_DYNAMICBLOCKPURGEPREVENTER_VERSION
  5
7473
102
{ACAD_REACTORS
330
744D
102
}
330
744D
100
AcDbDynamicBlockPurgePreventer
 70
     1
  0
ACAD_EVALUATION_GRAPH
  5
3B31
102
{ACAD_REACTORS
330
3B30
102
}
330
3B30
100
AcDbEvalGraph
 96
        1
 97
        1
 91
        0
 93
       32
 95
        1
360
3B32
 92
       -1
 92
       -1
 92
       -1
 92
       -1
  0
ACDB_DYNAMICBLOCKPURGEPREVENTER_VERSION
  5
3B33
102
{ACAD_REACTORS
330
3B30
102
}
330
3B30
100
AcDbDynamicBlockPurgePreventer
 70
     1
  0
SORTENTSTABLE
  5
6ACF
102
{ACAD_REACTORS
330
6ACE
102
}
330
6ACE
100
AcDbSortentsTable
330
6ABF
  0
SORTENTSTABLE
  5
7300
102
{ACAD_REACTORS
330
72FF
102
}
330
72FF
100
AcDbSortentsTable
330
72F0
  0
DICTIONARY
  5
6A47
102
{ACAD_REACTORS
330
6A46
102
}
330
6A46
100
AcDbDictionary
280
     1
281
     1
  3
AcDbRepData
360
6A48
  3
AppDataCache
360
6A49
  0
DICTIONARY
  5
6A4E
102
{ACAD_REACTORS
330
6A4D
102
}
330
6A4D
100
AcDbDictionary
280
     1
281
     1
  3
AcDbRepData
360
6A4F
  3
AppDataCache
360
6A50
  0
DICTIONARY
  5
6A5B
102
{ACAD_REACTORS
330
6A5A
102
}
330
6A5A
100
AcDbDictionary
280
     1
281
     1
  3
AcDbRepData
360
6A5C
  3
AppDataCache
360
6A5D
  0
DICTIONARY
  5
6A62
102
{ACAD_REACTORS
330
6A61
102
}
330
6A61
100
AcDbDictionary
280
     1
281
     1
  3
AcDbRepData
360
6A63
  3
AppDataCache
360
6A64
  0
DICTIONARY
  5
6A69
102
{ACAD_REACTORS
330
6A68
102
}
330
6A68
100
AcDbDictionary
280
     1
281
     1
  3
AcDbRepData
360
6A6A
  3
AppDataCache
360
6A6B
  0
DICTIONARY
  5
6A72
102
{ACAD_REACTORS
330
6A71
102
}
330
6A71
100
AcDbDictionary
280
     1
281
     1
  3
AcDbRepData
360
6A73
  3
AppDataCache
360
6A74
  0
DICTIONARY
  5
6A79
102
{ACAD_REACTORS
330
6A78
102
}
330
6A78
100
AcDbDictionary
280
     1
281
     1
  3
AcDbRepData
360
6A7A
  3
AppDataCache
360
6A7B
  0
DICTIONARY
  5
6A80
102
{ACAD_REACTORS
330
6A7F
102
}
330
6A7F
100
AcDbDictionary
280
     1
281
     1
  3
AcDbRepData
360
6A81
  3
AppDataCache
360
6A82
  0
DICTIONARY
  5
6A87
102
{ACAD_REACTORS
330
6A86
102
}
330
6A86
100
AcDbDictionary
280
     1
281
     1
  3
AcDbRepData
360
6A88
  3
AppDataCache
360
6A89
  0
DICTIONARY
  5
6A8E
102
{ACAD_REACTORS
330
6A8D
102
}
330
6A8D
100
AcDbDictionary
280
     1
281
     1
  3
AcDbRepData
360
6A8F
  3
AppDataCache
360
6A90
  0
DICTIONARY
  5
6A95
102
{ACAD_REACTORS
330
6A94
102
}
330
6A94
100
AcDbDictionary
280
     1
281
     1
  3
AcDbRepData
360
6A96
  3
AppDataCache
360
6A97
  0
DICTIONARY
  5
6A9C
102
{ACAD_REACTORS
330
6A9B
102
}
330
6A9B
100
AcDbDictionary
280
     1
281
     1
  3
AcDbRepData
360
6A9D
  3
AppDataCache
360
6A9E
  0
XRECORD
  5
74B5
102
{ACAD_REACTORS
330
70F2
102
}
330
70F2
100
AcDbXrecord
280
     1
 40
5612006.0
  1
\pxqr;{\fSimSun|b0|i0|c134|p2;至龙盛公司}#1{\fSimSun|b0|i0|c134|p2;杆}70mm²/60m
  0
DICTIONARY
  5
7386
102
{ACAD_REACTORS
330
7385
102
}
330
7385
100
AcDbDictionary
280
     1
281
     1
  3
AcDbRepData
360
7387
  3
AppDataCache
360
7388
  0
DICTIONARY
  5
738E
102
{ACAD_REACTORS
330
738D
102
}
330
738D
100
AcDbDictionary
280
     1
281
     1
  3
AcDbRepData
360
738F
  3
AppDataCache
360
7390
  0
DICTIONARY
  5
745D
102
{ACAD_REACTORS
330
739A
102
}
330
739A
100
AcDbDictionary
280
     1
281
     1
  3
AcDbRepData
360
745E
  3
AppDataCache
360
745F
  0
DICTIONARY
  5
739D
102
{ACAD_REACTORS
330
739C
102
}
330
739C
100
AcDbDictionary
280
     1
281
     1
  3
AcDbRepData
360
739E
  3
AppDataCache
360
739F
  0
DICTIONARY
  5
73A5
102
{ACAD_REACTORS
330
73A4
102
}
330
73A4
100
AcDbDictionary
280
     1
281
     1
  3
AcDbRepData
360
73A6
  3
AppDataCache
360
73A7
  0
DICTIONARY
  5
73AC
102
{ACAD_REACTORS
330
73AB
102
}
330
73AB
100
AcDbDictionary
280
     1
281
     1
  3
AcDbRepData
360
73AD
  3
AppDataCache
360
73AE
  0
DICTIONARY
  5
73B4
102
{ACAD_REACTORS
330
73B3
102
}
330
73B3
100
AcDbDictionary
280
     1
281
     1
  3
AcDbRepData
360
73B5
  3
AppDataCache
360
73B6
  0
DICTIONARY
  5
73BC
102
{ACAD_REACTORS
330
73BB
102
}
330
73BB
100
AcDbDictionary
280
     1
281
     1
  3
AcDbRepData
360
73BD
  3
AppDataCache
360
73BE
  0
DICTIONARY
  5
73C6
102
{ACAD_REACTORS
330
73C5
102
}
330
73C5
100
AcDbDictionary
280
     1
281
     1
  3
AcDbRepData
360
73C7
  3
AppDataCache
360
73C8
  0
DICTIONARY
  5
73CD
102
{ACAD_REACTORS
330
73CC
102
}
330
73CC
100
AcDbDictionary
280
     1
281
     1
  3
AcDbRepData
360
73CE
  3
AppDataCache
360
73CF
  0
DICTIONARY
  5
7462
102
{ACAD_REACTORS
330
73D4
102
}
330
73D4
100
AcDbDictionary
280
     1
281
     1
  3
AcDbRepData
360
7463
  3
AppDataCache
360
748B
  0
DICTIONARY
  5
73D7
102
{ACAD_REACTORS
330
73D6
102
}
330
73D6
100
AcDbDictionary
280
     1
281
     1
  3
AcDbRepData
360
73D8
  3
AppDataCache
360
73D9
  0
DICTIONARY
  5
73DE
102
{ACAD_REACTORS
330
73DD
102
}
330
73DD
100
AcDbDictionary
280
     1
281
     1
  3
AcDbRepData
360
73DF
  3
AppDataCache
360
73E0
  0
DICTIONARY
  5
73EC
102
{ACAD_REACTORS
330
73EB
102
}
330
73EB
100
AcDbDictionary
280
     1
281
     1
  3
AcDbRepData
360
73ED
  3
AppDataCache
360
73EE
  0
DICTIONARY
  5
73F4
102
{ACAD_REACTORS
330
73F3
102
}
330
73F3
100
AcDbDictionary
280
     1
281
     1
  3
AcDbRepData
360
73F5
  3
AppDataCache
360
73F6
  0
DICTIONARY
  5
73FB
102
{ACAD_REACTORS
330
73FA
102
}
330
73FA
100
AcDbDictionary
280
     1
281
     1
  3
AcDbRepData
360
73FC
  3
AppDataCache
360
73FD
  0
DICTIONARY
  5
7402
102
{ACAD_REACTORS
330
7401
102
}
330
7401
100
AcDbDictionary
280
     1
281
     1
  3
AcDbRepData
360
7403
  3
AppDataCache
360
7404
  0
DICTIONARY
  5
7409
102
{ACAD_REACTORS
330
7408
102
}
330
7408
100
AcDbDictionary
280
     1
281
     1
  3
AcDbRepData
360
740A
  3
AppDataCache
360
740B
  0
DICTIONARY
  5
7411
102
{ACAD_REACTORS
330
7410
102
}
330
7410
100
AcDbDictionary
280
     1
281
     1
  3
AcDbRepData
360
7412
  3
AppDataCache
360
7413
  0
DICTIONARY
  5
7418
102
{ACAD_REACTORS
330
7417
102
}
330
7417
100
AcDbDictionary
280
     1
281
     1
  3
AcDbRepData
360
7419
  3
AppDataCache
360
741A
  0
DICTIONARY
  5
7420
102
{ACAD_REACTORS
330
741F
102
}
330
741F
100
AcDbDictionary
280
     1
281
     1
  3
AcDbRepData
360
7421
  3
AppDataCache
360
7422
  0
ACDBDETAILVIEWSTYLE
  5
71D5
102
{ACAD_XDICTIONARY
360
7498
102
}
102
{ACAD_REACTORS
330
21B
102
}
330
21B
100
AcDbModelDocViewStyle
 70
     0
  3
Metric50
290
     0
100
AcDbDetailViewStyle
 70
     0
 71
     0
 90
        3
 71
     1
340
11
 62
   256
 40
5.0
340
0
 62
   256
 40
5.0
300

 40
0.0
280
     1
 71
     2
340
16
 90
       25
 62
   256
 71
     3
340
11
 62
   256
 40
5.0
 90
        0
 40
15.0
 90
        1
300
%<\AcVar ViewDetailId>% (%<\AcVar ViewScale \f "%sn">%)
 71
     4
340
16
 90
       25
 62
   256
340
16
 90
       25
 62
   256
280
     0
  0
LAYOUT
  5
22
102
{ACAD_XDICTIONARY
360
205
102
}
102
{ACAD_REACTORS
330
1A
102
}
330
1A
100
AcDbPlotSettings
  1

  2
none_device
  4
ISO_A4_(210.00_x_297.00_MM)
  6

 40
7.5
 41
20.0
 42
7.5
 43
20.0
 44
210.0
 45
297.0
 46
11.54999923706054
 47
-13.65000009536743
 48
0.0
 49
0.0
140
0.0
141
0.0
142
1.0
143
8.704084754739808
 70
 11952
 72
     1
 73
     0
 74
     0
  7

 75
     0
147
0.1148885871608098
 76
     0
 77
     2
 78
   300
148
0.0
149
0.0
100
AcDbLayout
  1
Model
 70
     1
 71
     0
 10
0.0
 20
0.0
 11
12.0
 21
9.0
 12
0.0
 22
0.0
 32
0.0
 14
0.0
 24
0.0
 34
0.0
 15
0.0
 25
0.0
 35
0.0
146
0.0
 13
0.0
 23
0.0
 33
0.0
 16
1.0
 26
0.0
 36
0.0
 17
0.0
 27
1.0
 37
0.0
 76
     0
330
1F
331
EA
1001
ACAD_PSEXT
1000
None
1000
None
1000
Not applicable
1000
The layout will not be plotted unless a new plotter configuration name is selected.
1070
     0
  0
LAYOUT
  5
D3
102
{ACAD_REACTORS
330
1A
102
}
330
1A
100
AcDbPlotSettings
  1

  2
C:\Documents and Settings\basas\Application Data\Autodesk\AutoCAD 2005\R16.1\enu\plotters\Default Windows System Printer.pc3
  4

  6

 40
0.0
 41
0.0
 42
0.0
 43
0.0
 44
0.0
 45
0.0
 46
0.0
 47
0.0
 48
0.0
 49
0.0
140
0.0
141
0.0
142
1.0
143
1.0
 70
   688
 72
     0
 73
     0
 74
     5
  7

 75
    16
147
1.0
 76
     0
 77
     2
 78
   300
148
0.0
149
0.0
100
AcDbLayout
  1
布局1
 70
     1
 71
     1
 10
0.0
 20
0.0
 11
12.0
 21
9.0
 12
0.0
 22
0.0
 32
0.0
 14
0.0
 24
0.0
 34
0.0
 15
0.0
 25
0.0
 35
0.0
146
0.0
 13
0.0
 23
0.0
 33
0.0
 16
1.0
 26
0.0
 36
0.0
 17
0.0
 27
1.0
 37
0.0
 76
     0
330
D2
  0
LAYOUT
  5
D7
102
{ACAD_REACTORS
330
1A
102
}
330
1A
100
AcDbPlotSettings
  1

  2
C:\Documents and Settings\basas\Application Data\Autodesk\AutoCAD 2005\R16.1\enu\plotters\Default Windows System Printer.pc3
  4

  6

 40
0.0
 41
0.0
 42
0.0
 43
0.0
 44
0.0
 45
0.0
 46
0.0
 47
0.0
 48
0.0
 49
0.0
140
0.0
141
0.0
142
1.0
143
1.0
 70
   688
 72
     0
 73
     0
 74
     5
  7

 75
    16
147
1.0
 76
     0
 77
     2
 78
   300
148
0.0
149
0.0
100
AcDbLayout
  1
布局2
 70
     1
 71
     2
 10
0.0
 20
0.0
 11
12.0
 21
9.0
 12
0.0
 22
0.0
 32
0.0
 14
0.0
 24
0.0
 34
0.0
 15
0.0
 25
0.0
 35
0.0
146
0.0
 13
0.0
 23
0.0
 33
0.0
 16
1.0
 26
0.0
 36
0.0
 17
0.0
 27
1.0
 37
0.0
 76
     0
330
D6
  0
MATERIAL
  5
ED
102
{ACAD_XDICTIONARY
360
1F9
102
}
102
{ACAD_REACTORS
330
6A
102
}
330
6A
100
AcDbMaterial
  1
ByBlock
 94
       63
  0
MATERIAL
  5
EC
102
{ACAD_XDICTIONARY
360
1F7
102
}
102
{ACAD_REACTORS
330
6A
102
}
330
6A
100
AcDbMaterial
  1
ByLayer
 94
       63
  0
MATERIAL
  5
EE
102
{ACAD_XDICTIONARY
360
173
102
}
102
{ACAD_REACTORS
330
6A
102
}
330
6A
100
AcDbMaterial
  1
Global
 43
0.0007999999797903
 43
0.0
 43
0.0
 43
0.0
 43
0.0
 43
0.0007999999797903
 43
0.0
 43
0.0
 43
0.0
 43
0.0
 43
1.0
 43
0.0
 43
0.0
 43
0.0
 43
0.0
 43
1.0
 49
0.0007999999797903
 49
0.0
 49
0.0
 49
0.0
 49
0.0
 49
0.0007999999797903
 49
0.0
 49
0.0
 49
0.0
 49
0.0
 49
1.0
 49
0.0
 49
0.0
 49
0.0
 49
0.0
 49
1.0
142
0.0007999999797903
142
0.0
142
0.0
142
0.0
142
0.0
142
0.0007999999797903
142
0.0
142
0.0
142
0.0
142
0.0
142
1.0
142
0.0
142
0.0
142
0.0
142
0.0
142
1.0
144
0.0007999999797903
144
0.0
144
0.0
144
0.0
144
0.0
144
0.0007999999797903
144
0.0
144
0.0
144
0.0
144
0.0
144
1.0
144
0.0
144
0.0
144
0.0
144
0.0
144
1.0
 94
       63
1001
ACAD
1070
    -1
1070
     3
1070
     0
1000

1071
        0
1070
     0
  0
MLEADERSTYLE
  5
13B
102
{ACAD_REACTORS
330
12D
102
}
330
12D
100
AcDbMLeaderStyle
179
     2
170
     2
171
     1
172
     0
 90
        2
 40
0.0
 41
0.0
173
     1
 91
-1056964608
340
14
 92
       -2
290
     1
 42
2.0
291
     1
 43
8.0
  3
Standard
 44
4.0
300

342
11
174
     1
178
     1
175
     1
176
     0
 93
-1056964608
 45
4.0
292
     0
297
     0
 46
4.0
 94
-1056964608
 47
1.0
 49
1.0
140
1.0
293
     1
141
0.0
294
     1
177
     0
142
1.0
295
     0
296
     1
143
3.75
271
     0
272
     9
273
     9
298
     0
  0
MLEADERSTYLE
  5
12E
102
{ACAD_REACTORS
330
12D
102
}
330
12D
100
AcDbMLeaderStyle
179
     2
170
     2
171
     1
172
     0
 90
        2
 40
0.0
 41
0.0
173
     1
 91
-1056964608
340
14
 92
       -2
290
     1
 42
2.0
291
     1
 43
8.0
  3
Standard
 44
4.0
300

342
11
174
     1
178
     1
175
     1
176
     0
 93
-1056964608
 45
4.0
292
     0
297
     0
 46
4.0
 94
-1056964608
 47
1.0
 49
1.0
140
1.0
293
     1
141
0.0
294
     1
177
     0
142
1.0
295
     0
296
     0
143
3.75
271
     0
272
     9
273
     9
298
     0
  0
MLINESTYLE
  5
18
102
{ACAD_REACTORS
330
17
102
}
330
17
100
AcDbMlineStyle
  2
STANDARD
 70
     0
  3

 62
   256
 51
90.0
 52
90.0
 71
     2
 49
0.5
 62
   256
  6
BYLAYER
 49
-0.5
 62
   256
  6
BYLAYER
  0
ACDBPLACEHOLDER
  5
F
102
{ACAD_REACTORS
330
E
102
}
330
E
  0
SCALE
  5
10D
102
{ACAD_REACTORS
330
10C
102
}
330
10C
100
AcDbScale
 70
     0
300
1:1
140
1.0
141
1.0
290
     1
  0
SCALE
  5
1BE
102
{ACAD_REACTORS
330
10C
102
}
330
10C
100
AcDbScale
 70
     0
300
1:2
140
1.0
141
2.0
290
     0
  0
SCALE
  5
1BF
102
{ACAD_REACTORS
330
10C
102
}
330
10C
100
AcDbScale
 70
     0
300
1:4
140
1.0
141
4.0
290
     0
  0
SCALE
  5
1C0
102
{ACAD_REACTORS
330
10C
102
}
330
10C
100
AcDbScale
 70
     0
300
1:5
140
1.0
141
5.0
290
     0
  0
SCALE
  5
1C1
102
{ACAD_REACTORS
330
10C
102
}
330
10C
100
AcDbScale
 70
     0
300
1:8
140
1.0
141
8.0
290
     0
  0
SCALE
  5
1C2
102
{ACAD_REACTORS
330
10C
102
}
330
10C
100
AcDbScale
 70
     0
300
1:10
140
1.0
141
10.0
290
     0
  0
SCALE
  5
1C3
102
{ACAD_REACTORS
330
10C
102
}
330
10C
100
AcDbScale
 70
     0
300
1:16
140
1.0
141
16.0
290
     0
  0
SCALE
  5
1C4
102
{ACAD_REACTORS
330
10C
102
}
330
10C
100
AcDbScale
 70
     0
300
1:20
140
1.0
141
20.0
290
     0
  0
SCALE
  5
1C5
102
{ACAD_REACTORS
330
10C
102
}
330
10C
100
AcDbScale
 70
     0
300
1:30
140
1.0
141
30.0
290
     0
  0
SCALE
  5
1C6
102
{ACAD_REACTORS
330
10C
102
}
330
10C
100
AcDbScale
 70
     0
300
1:40
140
1.0
141
40.0
290
     0
  0
SCALE
  5
1C7
102
{ACAD_REACTORS
330
10C
102
}
330
10C
100
AcDbScale
 70
     0
300
1:50
140
1.0
141
50.0
290
     0
  0
SCALE
  5
1C8
102
{ACAD_REACTORS
330
10C
102
}
330
10C
100
AcDbScale
 70
     0
300
1:100
140
1.0
141
100.0
290
     0
  0
SCALE
  5
1C9
102
{ACAD_REACTORS
330
10C
102
}
330
10C
100
AcDbScale
 70
     0
300
2:1
140
2.0
141
1.0
290
     0
  0
SCALE
  5
1CA
102
{ACAD_REACTORS
330
10C
102
}
330
10C
100
AcDbScale
 70
     0
300
4:1
140
4.0
141
1.0
290
     0
  0
SCALE
  5
1CB
102
{ACAD_REACTORS
330
10C
102
}
330
10C
100
AcDbScale
 70
     0
300
8:1
140
8.0
141
1.0
290
     0
  0
SCALE
  5
1CC
102
{ACAD_REACTORS
330
10C
102
}
330
10C
100
AcDbScale
 70
     0
300
10:1
140
10.0
141
1.0
290
     0
  0
SCALE
  5
1CD
102
{ACAD_REACTORS
330
10C
102
}
330
10C
100
AcDbScale
 70
     0
300
100:1
140
100.0
141
1.0
290
     0
  0
ACDBSECTIONVIEWSTYLE
  5
71D4
102
{ACAD_XDICTIONARY
360
7496
102
}
102
{ACAD_REACTORS
330
219
102
}
330
219
100
AcDbModelDocViewStyle
 70
     0
  3
Metric50
290
     0
100
AcDbSectionViewStyle
 70
     0
 71
     0
 90
      102
 71
     1
340
11
 62
   256
 40
5.0
340
0
340
0
 62
   256
 40
5.0
300
I, O, Q, S, X, Z
 40
10.0
 90
        0
 40
2.5
 90
        0
 71
     2
340
16
 90
       25
 62
   256
340
16
 90
       50
 62
   256
 40
5.0
 40
2.5
 40
5.0
 71
     3
340
11
 62
   256
 40
5.0
 90
        0
 40
15.0
 90
        1
300
%<\AcVar ViewSectionStartId>%-%<\AcVar ViewSectionEndId>% (%<\AcVar ViewScale \f "%sn">%)
 71
     4
 62
   256
 62
   257
300
ANSI31
 40
1.0
 90
        0
290
     0
290
     0
 90
        6
 40
0.0
 40
1.570796326794896
 40
0.2617993877991494
 40
1.308996938995747
 40
-0.2617993877991494
 40
1.832595714594046
  0
TABLESTYLE
  5
7F
102
{ACAD_XDICTIONARY
360
162
102
}
102
{ACAD_REACTORS
330
7E
102
}
330
7E
100
AcDbTableStyle
280
     0
  3
Standard
 70
     0
 71
     0
 40
1.5
 41
1.5
280
     0
281
     0
  7
Standard
140
4.5
170
     2
 62
     0
 63
     7
283
     0
 90
      512
 91
        0
  1

274
    -2
284
     1
 64
     0
275
    -2
285
     1
 65
     0
276
    -2
286
     1
 66
     0
277
    -2
287
     1
 67
     0
278
    -2
288
     1
 68
     0
279
    -2
289
     1
 69
     0
  7
Standard
140
6.0
170
     5
 62
     0
 63
     7
283
     0
 90
      512
 91
        0
  1

274
    -2
284
     1
 64
     0
275
    -2
285
     1
 65
     0
276
    -2
286
     1
 66
     0
277
    -2
287
     1
 67
     0
278
    -2
288
     1
 68
     0
279
    -2
289
     1
 69
     0
  7
Standard
140
4.5
170
     5
 62
     0
 63
     7
283
     0
 90
      512
 91
        0
  1

274
    -2
284
     1
 64
     0
275
    -2
285
     1
 65
     0
276
    -2
286
     1
 66
     0
277
    -2
287
     1
 67
     0
278
    -2
288
     1
 68
     0
279
    -2
289
     1
 69
     0
  0
VISUALSTYLE
  5
F5
102
{ACAD_XDICTIONARY
360
6F6B
102
}
102
{ACAD_REACTORS
330
EF
102
}
330
EF
100
AcDbVisualStyle
  2
2dWireframe
 70
     4
177
     3
291
     0
 70
    58
 90
        0
176
     1
 90
        2
176
     1
 90
        1
176
     1
 90
        0
176
     1
 40
0.6
176
     1
 40
30.0
176
     1
 62
     7
420
 16777215
176
     1
 90
        1
176
     1
 90
        4
176
     1
 62
     7
176
     1
 62
   257
176
     1
 90
        1
176
     1
 90
        1
176
     1
 40
1.0
176
     1
 90
        0
176
     1
 62
   257
176
     1
 40
1.0
176
     1
 90
        1
176
     1
 90
        6
176
     1
 90
        2
176
     1
 62
     7
176
     1
 90
        5
176
     1
 90
        0
176
     1
 90
        0
176
     1
290
     0
176
     1
 90
        1
176
     1
 40
0.0
176
     1
 90
        0
176
     1
290
     1
176
     1
290
     1
176
     1
290
     0
176
     1
290
     0
176
     1
290
     0
176
     1
290
     0
176
     1
290
     0
176
     1
290
     0
176
     1
290
     0
176
     1
 90
       50
176
     1
 40
0.0
176
     1
 40
1.0
176
     1
 90
        0
176
     1
 62
    18
420
        0
176
     1
 90
       50
176
     1
 90
        3
176
     1
 62
     5
420
      255
176
     1
290
     0
176
     1
 90
       50
176
     1
 90
       50
176
     1
 90
       50
176
     1
290
     0
176
     1
 90
       50
176
     1
 62
   256
176
     0
 40
1.0
176
     0
 90
        2
176
     1
  1
strokes_ogs.tif
176
     1
290
     0
176
     1
 40
1.0
176
     1
 40
1.0
176
     1
  0
VISUALSTYLE
  5
4E1B
102
{ACAD_XDICTIONARY
360
6F95
102
}
102
{ACAD_REACTORS
330
EF
102
}
330
EF
100
AcDbVisualStyle
  2
3D Hidden
 70
     6
177
     3
291
     0
 70
    58
 90
        1
176
     1
 90
        2
176
     1
 90
        2
176
     1
 90
        0
176
     1
 40
0.6
176
     1
 40
30.0
176
     1
 62
     7
420
 16777215
176
     1
 90
        2
176
     1
 90
        2
176
     1
 62
     7
176
     1
 62
   257
176
     1
 90
        2
176
     1
 90
        1
176
     1
 40
179.0
176
     1
 90
        0
176
     1
 62
   257
176
     1
 40
1.0
176
     1
 90
        1
176
     1
 90
        6
176
     1
 90
        2
176
     1
 62
     7
176
     1
 90
        3
176
     1
 90
        0
176
     1
 90
        0
176
     1
290
     0
176
     1
 90
        1
176
     1
 40
0.0
176
     1
 90
        0
176
     1
290
     0
176
     1
290
     1
176
     1
290
     1
176
     1
290
     0
176
     1
290
     0
176
     1
290
     0
176
     1
290
     0
176
     1
290
     0
176
     1
290
     0
176
     1
 90
       50
176
     1
 40
0.0
176
     1
 40
1.0
176
     1
 90
        0
176
     1
 62
    18
420
        0
176
     1
 90
       50
176
     1
 90
        3
176
     1
 62
     5
420
      255
176
     1
290
     0
176
     1
 90
       50
176
     1
 90
       50
176
     1
 90
       50
176
     1
290
     0
176
     1
 90
       50
176
     1
 62
   256
176
     0
 40
1.0
176
     0
 90
        2
176
     1
  1
strokes_ogs.tif
176
     1
290
     0
176
     1
 40
1.0
176
     1
 40
1.0
176
     1
  0
VISUALSTYLE
  5
549
102
{ACAD_XDICTIONARY
360
6F91
102
}
102
{ACAD_REACTORS
330
EF
102
}
330
EF
100
AcDbVisualStyle
  2
3dWireframe
 70
     5
177
     3
291
     0
 70
    58
 90
        0
176
     1
 90
        2
176
     1
 90
        0
176
     1
 90
        0
176
     1
 40
0.6
176
     1
 40
30.0
176
     1
 62
     7
420
 16777215
176
     1
 90
        1
176
     1
 90
        4
176
     1
 62
     7
176
     1
 62
   257
176
     1
 90
        1
176
     1
 90
        1
176
     1
 40
1.0
176
     1
 90
        0
176
     1
 62
   257
176
     1
 40
1.0
176
     1
 90
        1
176
     1
 90
        6
176
     1
 90
        2
176
     1
 62
     7
176
     1
 90
        5
176
     1
 90
        0
176
     1
 90
        0
176
     1
290
     0
176
     1
 90
        1
176
     1
 40
0.0
176
     1
 90
        0
176
     1
290
     0
176
     1
290
     1
176
     1
290
     1
176
     1
290
     0
176
     1
290
     0
176
     1
290
     0
176
     1
290
     0
176
     1
290
     0
176
     1
290
     0
176
     1
 90
       50
176
     1
 40
0.0
176
     1
 40
1.0
176
     1
 90
        0
176
     1
 62
    18
420
        0
176
     1
 90
       50
176
     1
 90
        3
176
     1
 62
     5
420
      255
176
     1
290
     0
176
     1
 90
       50
176
     1
 90
       50
176
     1
 90
       50
176
     1
290
     0
176
     1
 90
       50
176
     1
 62
   256
176
     0
 40
1.0
176
     0
 90
        2
176
     1
  1
strokes_ogs.tif
176
     1
290
     0
176
     1
 40
1.0
176
     1
 40
1.0
176
     1
  0
VISUALSTYLE
  5
F4
102
{ACAD_XDICTIONARY
360
6F69
102
}
102
{ACAD_REACTORS
330
EF
102
}
330
EF
100
AcDbVisualStyle
  2
Basic
 70
     7
177
     3
291
     1
 70
    58
 90
        1
176
     1
 90
        0
176
     1
 90
        1
176
     1
 90
        0
176
     1
 40
0.6
176
     1
 40
30.0
176
     1
 62
     7
420
 16777215
176
     1
 90
        0
176
     1
 90
        4
176
     1
 62
     7
176
     1
 62
   257
176
     1
 90
        1
176
     1
 90
        1
176
     1
 40
1.0
176
     1
 90
        8
176
     1
 62
     7
176
     1
 40
1.0
176
     1
 90
        1
176
     1
 90
        6
176
     1
 90
        2
176
     1
 62
     7
176
     1
 90
        5
176
     1
 90
        0
176
     1
 90
        0
176
     1
290
     0
176
     1
 90
        1
176
     1
 40
0.0
176
     1
 90
        0
176
     1
290
     0
176
     1
290
     1
176
     1
290
     1
176
     1
290
     0
176
     1
290
     0
176
     1
290
     0
176
     1
290
     0
176
     1
290
     0
176
     1
290
     0
176
     1
 90
       50
176
     1
 40
0.0
176
     1
 40
1.0
176
     1
 90
        0
176
     1
 62
    18
420
        0
176
     1
 90
       50
176
     1
 90
        3
176
     1
 62
     5
420
      255
176
     1
290
     0
176
     1
 90
       50
176
     1
 90
       50
176
     1
 90
       50
176
     1
290
     0
176
     1
 90
       50
176
     1
 62
   256
176
     0
 40
1.0
176
     0
 90
        2
176
     1
  1
strokes_ogs.tif
176
     1
290
     0
176
     1
 40
1.0
176
     1
 40
1.0
176
     1
  0
VISUALSTYLE
  5
FB
102
{ACAD_XDICTIONARY
360
6F77
102
}
102
{ACAD_REACTORS
330
EF
102
}
330
EF
100
AcDbVisualStyle
  2
Brighten
 70
    12
177
     3
291
     1
 70
    58
 90
        2
176
     1
 90
        2
176
     1
 90
        1
176
     1
 90
        0
176
     1
 40
0.6
176
     1
 40
30.0
176
     1
 62
     7
420
 16777215
176
     1
 90
        1
176
     1
 90
        4
176
     1
 62
     7
176
     1
 62
   257
176
     1
 90
        1
176
     1
 90
        1
176
     1
 40
1.0
176
     1
 90
        8
176
     1
 62
     7
176
     1
 40
1.0
176
     1
 90
        1
176
     1
 90
        6
176
     1
 90
        2
176
     1
 62
     7
176
     1
 90
        5
176
     1
 90
        0
176
     1
 90
        0
176
     1
290
     0
176
     1
 90
        1
176
     1
 40
50.0
176
     1
 90
        0
176
     1
290
     0
176
     1
290
     1
176
     1
290
     1
176
     1
290
     0
176
     1
290
     0
176
     1
290
     0
176
     1
290
     0
176
     1
290
     0
176
     1
290
     0
176
     1
 90
       50
176
     1
 40
0.0
176
     1
 40
1.0
176
     1
 90
        0
176
     1
 62
    18
420
        0
176
     1
 90
       50
176
     1
 90
        3
176
     1
 62
     5
420
      255
176
     1
290
     0
176
     1
 90
       50
176
     1
 90
       50
176
     1
 90
       50
176
     1
290
     0
176
     1
 90
       50
176
     1
 62
   256
176
     0
 40
1.0
176
     0
 90
        2
176
     1
  1
strokes_ogs.tif
176
     1
290
     0
176
     1
 40
1.0
176
     1
 40
1.0
176
     1
  0
VISUALSTYLE
  5
FF
102
{ACAD_XDICTIONARY
360
6F7F
102
}
102
{ACAD_REACTORS
330
EF
102
}
330
EF
100
AcDbVisualStyle
  2
ColorChange
 70
    16
177
     3
291
     1
 70
    58
 90
        2
176
     1
 90
        2
176
     1
 90
        3
176
     1
 90
        0
176
     1
 40
0.6
176
     1
 40
30.0
176
     1
 62
     8
420
  8421504
176
     1
 90
        1
176
     1
 90
        4
176
     1
 62
     7
176
     1
 62
   257
176
     1
 90
        1
176
     1
 90
        1
176
     1
 40
1.0
176
     1
 90
        8
176
     1
 62
     8
420
  8421504
176
     1
 40
1.0
176
     1
 90
        1
176
     1
 90
        6
176
     1
 90
        2
176
     1
 62
     7
176
     1
 90
        5
176
     1
 90
        0
176
     1
 90
        0
176
     1
290
     0
176
     1
 90
        1
176
     1
 40
0.0
176
     1
 90
        0
176
     1
290
     0
176
     1
290
     1
176
     1
290
     1
176
     1
290
     0
176
     1
290
     0
176
     1
290
     0
176
     1
290
     0
176
     1
290
     0
176
     1
290
     0
176
     1
 90
       50
176
     1
 40
0.0
176
     1
 40
1.0
176
     1
 90
        0
176
     1
 62
    18
420
        0
176
     1
 90
       50
176
     1
 90
        3
176
     1
 62
     5
420
      255
176
     1
290
     0
176
     1
 90
       50
176
     1
 90
       50
176
     1
 90
       50
176
     1
290
     0
176
     1
 90
       50
176
     1
 62
   256
176
     0
 40
1.0
176
     0
 90
        2
176
     1
  1
strokes_ogs.tif
176
     1
290
     0
176
     1
 40
1.0
176
     1
 40
1.0
176
     1
  0
VISUALSTYLE
  5
F8
102
{ACAD_XDICTIONARY
360
6F71
102
}
102
{ACAD_REACTORS
330
EF
102
}
330
EF
100
AcDbVisualStyle
  2
Conceptual
 70
     9
177
     3
291
     0
 70
    58
 90
        3
176
     1
 90
        2
176
     1
 90
        1
176
     1
 90
        0
176
     1
 40
0.6
176
     1
 40
30.0
176
     1
 62
     7
420
 16777215
176
     1
 90
        2
176
     1
 90
        2
176
     1
 62
     7
176
     1
 62
   257
176
     1
 90
        1
176
     1
 90
        1
176
     1
 40
40.0
176
     1
 90
        8
176
     1
 62
     7
176
     1
 40
1.0
176
     1
 90
        1
176
     1
 90
        6
176
     1
 90
        2
176
     1
 62
     7
176
     1
 90
        3
176
     1
 90
        0
176
     1
 90
        0
176
     1
290
     0
176
     1
 90
        1
176
     1
 40
0.0
176
     1
 90
        0
176
     1
290
     0
176
     1
290
     1
176
     1
290
     1
176
     1
290
     0
176
     1
290
     0
176
     1
290
     0
176
     1
290
     0
176
     1
290
     0
176
     1
290
     0
176
     1
 90
       50
176
     1
 40
0.0
176
     1
 40
1.0
176
     1
 90
        0
176
     1
 62
    18
420
        0
176
     1
 90
       50
176
     1
 90
        3
176
     1
 62
     5
420
      255
176
     1
290
     0
176
     1
 90
       50
176
     1
 90
       50
176
     1
 90
       50
176
     1
290
     0
176
     1
 90
       50
176
     1
 62
   256
176
     0
 40
1.0
176
     0
 90
        2
176
     1
  1
strokes_ogs.tif
176
     1
290
     0
176
     1
 40
1.0
176
     1
 40
1.0
176
     1
  0
VISUALSTYLE
  5
FA
102
{ACAD_XDICTIONARY
360
6F75
102
}
102
{ACAD_REACTORS
330
EF
102
}
330
EF
100
AcDbVisualStyle
  2
Dim
 70
    11
177
     3
291
     1
 70
    58
 90
        2
176
     1
 90
        2
176
     1
 90
        1
176
     1
 90
        0
176
     1
 40
0.6
176
     1
 40
30.0
176
     1
 62
     7
420
 16777215
176
     1
 90
        1
176
     1
 90
        4
176
     1
 62
     7
176
     1
 62
   257
176
     1
 90
        1
176
     1
 90
        1
176
     1
 40
1.0
176
     1
 90
        8
176
     1
 62
     7
176
     1
 40
1.0
176
     1
 90
        1
176
     1
 90
        6
176
     1
 90
        2
176
     1
 62
     7
176
     1
 90
        5
176
     1
 90
        0
176
     1
 90
        0
176
     1
290
     0
176
     1
 90
        1
176
     1
 40
-50.0
176
     1
 90
        0
176
     1
290
     0
176
     1
290
     1
176
     1
290
     1
176
     1
290
     0
176
     1
290
     0
176
     1
290
     0
176
     1
290
     0
176
     1
290
     0
176
     1
290
     0
176
     1
 90
       50
176
     1
 40
0.0
176
     1
 40
1.0
176
     1
 90
        0
176
     1
 62
    18
420
        0
176
     1
 90
       50
176
     1
 90
        3
176
     1
 62
     5
420
      255
176
     1
290
     0
176
     1
 90
       50
176
     1
 90
       50
176
     1
 90
       50
176
     1
290
     0
176
     1
 90
       50
176
     1
 62
   256
176
     0
 40
1.0
176
     0
 90
        2
176
     1
  1
strokes_ogs.tif
176
     1
290
     0
176
     1
 40
1.0
176
     1
 40
1.0
176
     1
  0
VISUALSTYLE
  5
1E6
102
{ACAD_XDICTIONARY
360
6F85
102
}
102
{ACAD_REACTORS
330
EF
102
}
330
EF
100
AcDbVisualStyle
  2
EdgeColorOff
 70
    22
177
     3
291
     1
 70
    58
 90
        2
176
     0
 90
        2
176
     0
 90
        0
176
     0
 90
        0
176
     0
 40
0.6
176
     0
 40
30.0
176
     0
 62
     7
420
 16777215
176
     0
 90
        1
176
     0
 90
        4
176
     0
 62
     7
176
     0
 62
   257
176
     0
 90
        1
176
     0
 90
        1
176
     0
 40
1.0
176
     0
 90
        8
176
     2
 62
     7
176
     0
 40
1.0
176
     0
 90
        1
176
     0
 90
        6
176
     0
 90
        2
176
     0
 62
     7
176
     0
 90
        5
176
     0
 90
        0
176
     0
 90
        0
176
     0
290
     0
176
     0
 90
        1
176
     0
 40
0.0
176
     0
 90
        0
176
     0
290
     0
176
     1
290
     1
176
     1
290
     1
176
     1
290
     0
176
     1
290
     0
176
     1
290
     0
176
     1
290
     0
176
     1
290
     0
176
     1
290
     0
176
     1
 90
       50
176
     1
 40
0.0
176
     1
 40
1.0
176
     1
 90
        0
176
     1
 62
    18
420
        0
176
     1
 90
       50
176
     1
 90
        3
176
     1
 62
     5
420
      255
176
     1
290
     0
176
     1
 90
       50
176
     1
 90
       50
176
     1
 90
       50
176
     1
290
     0
176
     1
 90
       50
176
     1
 62
   256
176
     0
 40
1.0
176
     0
 90
        2
176
     1
  1
strokes_ogs.tif
176
     1
290
     0
176
     1
 40
1.0
176
     1
 40
1.0
176
     1
  0
VISUALSTYLE
  5
FE
102
{ACAD_XDICTIONARY
360
6F7D
102
}
102
{ACAD_REACTORS
330
EF
102
}
330
EF
100
AcDbVisualStyle
  2
Facepattern
 70
    15
177
     3
291
     1
 70
    58
 90
        2
176
     1
 90
        2
176
     1
 90
        1
176
     1
 90
        0
176
     1
 40
0.6
176
     1
 40
30.0
176
     1
 62
     7
420
 16777215
176
     1
 90
        1
176
     1
 90
        4
176
     1
 62
     7
176
     1
 62
   257
176
     1
 90
        1
176
     1
 90
        1
176
     1
 40
1.0
176
     1
 90
        8
176
     1
 62
     7
176
     1
 40
1.0
176
     1
 90
        1
176
     1
 90
        6
176
     1
 90
        2
176
     1
 62
     7
176
     1
 90
        5
176
     1
 90
        0
176
     1
 90
        0
176
     1
290
     0
176
     1
 90
        1
176
     1
 40
0.0
176
     1
 90
        0
176
     1
290
     0
176
     1
290
     1
176
     1
290
     1
176
     1
290
     0
176
     1
290
     0
176
     1
290
     0
176
     1
290
     0
176
     1
290
     0
176
     1
290
     0
176
     1
 90
       50
176
     1
 40
0.0
176
     1
 40
1.0
176
     1
 90
        0
176
     1
 62
    18
420
        0
176
     1
 90
       50
176
     1
 90
        3
176
     1
 62
     5
420
      255
176
     1
290
     0
176
     1
 90
       50
176
     1
 90
       50
176
     1
 90
       50
176
     1
290
     0
176
     1
 90
       50
176
     1
 62
   256
176
     0
 40
1.0
176
     0
 90
        2
176
     1
  1
strokes_ogs.tif
176
     1
290
     0
176
     1
 40
1.0
176
     1
 40
1.0
176
     1
  0
VISUALSTYLE
  5
F0
102
{ACAD_XDICTIONARY
360
6F61
102
}
102
{ACAD_REACTORS
330
EF
102
}
330
EF
100
AcDbVisualStyle
  2
Flat
 70
     0
177
     3
291
     1
 70
    58
 90
        2
176
     1
 90
        1
176
     1
 90
        1
176
     1
 90
        2
176
     1
 40
0.6
176
     1
 40
30.0
176
     1
 62
     7
420
 16777215
176
     1
 90
        0
176
     1
 90
        0
176
     1
 62
     7
176
     1
 62
   257
176
     1
 90
        1
176
     1
 90
        1
176
     1
 40
1.0
176
     1
 90
        8
176
     1
 62
     7
176
     1
 40
1.0
176
     1
 90
        1
176
     1
 90
        6
176
     1
 90
        2
176
     1
 62
     7
176
     1
 90
        5
176
     1
 90
        0
176
     1
 90
        0
176
     1
290
     0
176
     1
 90
       13
176
     1
 40
0.0
176
     1
 90
        0
176
     1
290
     0
176
     1
290
     1
176
     1
290
     1
176
     1
290
     0
176
     1
290
     0
176
     1
290
     0
176
     1
290
     0
176
     1
290
     0
176
     1
290
     0
176
     1
 90
       50
176
     1
 40
0.0
176
     1
 40
1.0
176
     1
 90
        0
176
     1
 62
    18
420
        0
176
     1
 90
       50
176
     1
 90
        3
176
     1
 62
     5
420
      255
176
     1
290
     0
176
     1
 90
       50
176
     1
 90
       50
176
     1
 90
       50
176
     1
290
     0
176
     1
 90
       50
176
     1
 62
   256
176
     0
 40
1.0
176
     0
 90
        2
176
     1
  1
strokes_ogs.tif
176
     1
290
     0
176
     1
 40
1.0
176
     1
 40
1.0
176
     1
  0
VISUALSTYLE
  5
F1
102
{ACAD_XDICTIONARY
360
6F63
102
}
102
{ACAD_REACTORS
330
EF
102
}
330
EF
100
AcDbVisualStyle
  2
FlatWithEdges
 70
     1
177
     3
291
     1
 70
    58
 90
        2
176
     1
 90
        1
176
     1
 90
        1
176
     1
 90
        2
176
     1
 40
0.6
176
     1
 40
30.0
176
     1
 62
     7
420
 16777215
176
     1
 90
        1
176
     1
 90
        0
176
     1
 62
     7
176
     1
 62
   257
176
     1
 90
        1
176
     1
 90
        1
176
     1
 40
1.0
176
     1
 90
        0
176
     1
 62
   257
176
     1
 40
1.0
176
     1
 90
        1
176
     1
 90
        6
176
     1
 90
        2
176
     1
 62
     7
176
     1
 90
        5
176
     1
 90
        0
176
     1
 90
        0
176
     1
290
     0
176
     1
 90
       13
176
     1
 40
0.0
176
     1
 90
        0
176
     1
290
     0
176
     1
290
     1
176
     1
290
     1
176
     1
290
     0
176
     1
290
     0
176
     1
290
     0
176
     1
290
     0
176
     1
290
     0
176
     1
290
     0
176
     1
 90
       50
176
     1
 40
0.0
176
     1
 40
1.0
176
     1
 90
        0
176
     1
 62
    18
420
        0
176
     1
 90
       50
176
     1
 90
        3
176
     1
 62
     5
420
      255
176
     1
290
     0
176
     1
 90
       50
176
     1
 90
       50
176
     1
 90
       50
176
     1
290
     0
176
     1
 90
       50
176
     1
 62
   256
176
     0
 40
1.0
176
     0
 90
        2
176
     1
  1
strokes_ogs.tif
176
     1
290
     0
176
     1
 40
1.0
176
     1
 40
1.0
176
     1
  0
VISUALSTYLE
  5
F2
102
{ACAD_XDICTIONARY
360
6F65
102
}
102
{ACAD_REACTORS
330
EF
102
}
330
EF
100
AcDbVisualStyle
  2
Gouraud
 70
     2
177
     3
291
     1
 70
    58
 90
        2
176
     1
 90
        2
176
     1
 90
        1
176
     1
 90
        2
176
     1
 40
0.6
176
     1
 40
30.0
176
     1
 62
     7
420
 16777215
176
     1
 90
        0
176
     1
 90
        0
176
     1
 62
     7
176
     1
 62
   257
176
     1
 90
        1
176
     1
 90
        1
176
     1
 40
1.0
176
     1
 90
        0
176
     1
 62
     7
176
     1
 40
1.0
176
     1
 90
        1
176
     1
 90
        6
176
     1
 90
        2
176
     1
 62
     7
176
     1
 90
        5
176
     1
 90
        0
176
     1
 90
        0
176
     1
290
     0
176
     1
 90
       13
176
     1
 40
0.0
176
     1
 90
        0
176
     1
290
     0
176
     1
290
     1
176
     1
290
     1
176
     1
290
     0
176
     1
290
     0
176
     1
290
     0
176
     1
290
     0
176
     1
290
     0
176
     1
290
     0
176
     1
 90
       50
176
     1
 40
0.0
176
     1
 40
1.0
176
     1
 90
        0
176
     1
 62
    18
420
        0
176
     1
 90
       50
176
     1
 90
        3
176
     1
 62
     5
420
      255
176
     1
290
     0
176
     1
 90
       50
176
     1
 90
       50
176
     1
 90
       50
176
     1
290
     0
176
     1
 90
       50
176
     1
 62
   256
176
     0
 40
1.0
176
     0
 90
        2
176
     1
  1
strokes_ogs.tif
176
     1
290
     0
176
     1
 40
1.0
176
     1
 40
1.0
176
     1
  0
VISUALSTYLE
  5
F3
102
{ACAD_XDICTIONARY
360
6F67
102
}
102
{ACAD_REACTORS
330
EF
102
}
330
EF
100
AcDbVisualStyle
  2
GouraudWithEdges
 70
     3
177
     3
291
     1
 70
    58
 90
        2
176
     1
 90
        2
176
     1
 90
        1
176
     1
 90
        2
176
     1
 40
0.6
176
     1
 40
30.0
176
     1
 62
     7
420
 16777215
176
     1
 90
        1
176
     1
 90
        0
176
     1
 62
     7
176
     1
 62
   257
176
     1
 90
        1
176
     1
 90
        1
176
     1
 40
1.0
176
     1
 90
        0
176
     1
 62
   257
176
     1
 40
1.0
176
     1
 90
        1
176
     1
 90
        6
176
     1
 90
        2
176
     1
 62
     7
176
     1
 90
        5
176
     1
 90
        0
176
     1
 90
        0
176
     1
290
     0
176
     1
 90
       13
176
     1
 40
0.0
176
     1
 90
        0
176
     1
290
     0
176
     1
290
     1
176
     1
290
     1
176
     1
290
     0
176
     1
290
     0
176
     1
290
     0
176
     1
290
     0
176
     1
290
     0
176
     1
290
     0
176
     1
 90
       50
176
     1
 40
0.0
176
     1
 40
1.0
176
     1
 90
        0
176
     1
 62
    18
420
        0
176
     1
 90
       50
176
     1
 90
        3
176
     1
 62
     5
420
      255
176
     1
290
     0
176
     1
 90
       50
176
     1
 90
       50
176
     1
 90
       50
176
     1
290
     0
176
     1
 90
       50
176
     1
 62
   256
176
     0
 40
1.0
176
     0
 90
        2
176
     1
  1
strokes_ogs.tif
176
     1
290
     0
176
     1
 40
1.0
176
     1
 40
1.0
176
     1
  0
VISUALSTYLE
  5
F7
102
{ACAD_XDICTIONARY
360
6F6F
102
}
102
{ACAD_REACTORS
330
EF
102
}
330
EF
100
AcDbVisualStyle
  2
Hidden
 70
     6
177
     3
291
     0
 70
    58
 90
        1
176
     1
 90
        2
176
     1
 90
        2
176
     1
 90
        0
176
     1
 40
0.6
176
     1
 40
30.0
176
     1
 62
     7
420
 16777215
176
     1
 90
        2
176
     1
 90
        2
176
     1
 62
     7
176
     1
 62
   257
176
     1
 90
        2
176
     1
 90
        1
176
     1
 40
40.0
176
     1
 90
        0
176
     1
 62
   257
176
     1
 40
1.0
176
     1
 90
        1
176
     1
 90
        6
176
     1
 90
        2
176
     1
 62
     7
176
     1
 90
        3
176
     1
 90
        0
176
     1
 90
        0
176
     1
290
     0
176
     1
 90
        1
176
     1
 40
0.0
176
     1
 90
        0
176
     1
290
     0
176
     1
290
     1
176
     1
290
     1
176
     1
290
     0
176
     1
290
     0
176
     1
290
     0
176
     1
290
     0
176
     1
290
     0
176
     1
290
     0
176
     1
 90
       50
176
     1
 40
0.0
176
     1
 40
1.0
176
     1
 90
        0
176
     1
 62
    18
420
        0
176
     1
 90
       50
176
     1
 90
        3
176
     1
 62
     5
420
      255
176
     1
290
     0
176
     1
 90
       50
176
     1
 90
       50
176
     1
 90
       50
176
     1
290
     0
176
     1
 90
       50
176
     1
 62
   256
176
     0
 40
1.0
176
     0
 90
        2
176
     1
  1
strokes_ogs.tif
176
     1
290
     0
176
     1
 40
1.0
176
     1
 40
1.0
176
     1
  0
VISUALSTYLE
  5
1E4
102
{ACAD_XDICTIONARY
360
6F81
102
}
102
{ACAD_REACTORS
330
EF
102
}
330
EF
100
AcDbVisualStyle
  2
JitterOff
 70
    20
177
     3
291
     1
 70
    58
 90
        2
176
     0
 90
        2
176
     0
 90
        0
176
     0
 90
        0
176
     0
 40
0.6
176
     0
 40
30.0
176
     0
 62
     7
420
 16777215
176
     0
 90
        1
176
     0
 90
        4
176
     0
 62
     7
176
     0
 62
   257
176
     0
 90
        1
176
     0
 90
        1
176
     0
 40
1.0
176
     0
 90
       10
176
     2
 62
     7
176
     0
 40
1.0
176
     0
 90
        1
176
     0
 90
        6
176
     0
 90
        2
176
     0
 62
     7
176
     0
 90
        5
176
     0
 90
        0
176
     0
 90
        0
176
     0
290
     0
176
     0
 90
        1
176
     0
 40
0.0
176
     0
 90
        0
176
     0
290
     0
176
     1
290
     1
176
     1
290
     1
176
     1
290
     0
176
     1
290
     0
176
     1
290
     0
176
     1
290
     0
176
     1
290
     0
176
     1
290
     0
176
     1
 90
       50
176
     1
 40
0.0
176
     1
 40
1.0
176
     1
 90
        0
176
     1
 62
    18
420
        0
176
     1
 90
       50
176
     1
 90
        3
176
     1
 62
     5
420
      255
176
     1
290
     0
176
     1
 90
       50
176
     1
 90
       50
176
     1
 90
       50
176
     1
290
     0
176
     1
 90
       50
176
     1
 62
   256
176
     0
 40
1.0
176
     0
 90
        2
176
     1
  1
strokes_ogs.tif
176
     1
290
     0
176
     1
 40
1.0
176
     1
 40
1.0
176
     1
  0
VISUALSTYLE
  5
FD
102
{ACAD_XDICTIONARY
360
6F7B
102
}
102
{ACAD_REACTORS
330
EF
102
}
330
EF
100
AcDbVisualStyle
  2
Linepattern
 70
    14
177
     3
291
     1
 70
    58
 90
        2
176
     1
 90
        2
176
     1
 90
        1
176
     1
 90
        0
176
     1
 40
0.6
176
     1
 40
30.0
176
     1
 62
     7
420
 16777215
176
     1
 90
        1
176
     1
 90
        4
176
     1
 62
     7
176
     1
 62
   257
176
     1
 90
        7
176
     1
 90
        7
176
     1
 40
1.0
176
     1
 90
        8
176
     1
 62
     7
176
     1
 40
1.0
176
     1
 90
        1
176
     1
 90
        6
176
     1
 90
        2
176
     1
 62
     7
176
     1
 90
        5
176
     1
 90
        0
176
     1
 90
        0
176
     1
290
     0
176
     1
 90
        1
176
     1
 40
0.0
176
     1
 90
        0
176
     1
290
     0
176
     1
290
     1
176
     1
290
     1
176
     1
290
     0
176
     1
290
     0
176
     1
290
     0
176
     1
290
     0
176
     1
290
     0
176
     1
290
     0
176
     1
 90
       50
176
     1
 40
0.0
176
     1
 40
1.0
176
     1
 90
        0
176
     1
 62
    18
420
        0
176
     1
 90
       50
176
     1
 90
        3
176
     1
 62
     5
420
      255
176
     1
290
     0
176
     1
 90
       50
176
     1
 90
       50
176
     1
 90
       50
176
     1
290
     0
176
     1
 90
       50
176
     1
 62
   256
176
     0
 40
1.0
176
     0
 90
        2
176
     1
  1
strokes_ogs.tif
176
     1
290
     0
176
     1
 40
1.0
176
     1
 40
1.0
176
     1
  0
VISUALSTYLE
  5
1E5
102
{ACAD_XDICTIONARY
360
6F83
102
}
102
{ACAD_REACTORS
330
EF
102
}
330
EF
100
AcDbVisualStyle
  2
OverhangOff
 70
    21
177
     3
291
     1
 70
    58
 90
        2
176
     0
 90
        2
176
     0
 90
        0
176
     0
 90
        0
176
     0
 40
0.6
176
     0
 40
30.0
176
     0
 62
     7
420
 16777215
176
     0
 90
        1
176
     0
 90
        4
176
     0
 62
     7
176
     0
 62
   257
176
     0
 90
        1
176
     0
 90
        1
176
     0
 40
1.0
176
     0
 90
        9
176
     2
 62
     7
176
     0
 40
1.0
176
     0
 90
        1
176
     0
 90
        6
176
     0
 90
        2
176
     0
 62
     7
176
     0
 90
        5
176
     0
 90
        0
176
     0
 90
        0
176
     0
290
     0
176
     0
 90
        1
176
     0
 40
0.0
176
     0
 90
        0
176
     0
290
     0
176
     1
290
     1
176
     1
290
     1
176
     1
290
     0
176
     1
290
     0
176
     1
290
     0
176
     1
290
     0
176
     1
290
     0
176
     1
290
     0
176
     1
 90
       50
176
     1
 40
0.0
176
     1
 40
1.0
176
     1
 90
        0
176
     1
 62
    18
420
        0
176
     1
 90
       50
176
     1
 90
        3
176
     1
 62
     5
420
      255
176
     1
290
     0
176
     1
 90
       50
176
     1
 90
       50
176
     1
 90
       50
176
     1
290
     0
176
     1
 90
       50
176
     1
 62
   256
176
     0
 40
1.0
176
     0
 90
        2
176
     1
  1
strokes_ogs.tif
176
     1
290
     0
176
     1
 40
1.0
176
     1
 40
1.0
176
     1
  0
VISUALSTYLE
  5
F9
102
{ACAD_XDICTIONARY
360
6F73
102
}
102
{ACAD_REACTORS
330
EF
102
}
330
EF
100
AcDbVisualStyle
  2
Realistic
 70
     8
177
     3
291
     0
 70
    58
 90
        2
176
     1
 90
        2
176
     1
 90
        0
176
     1
 90
        2
176
     1
 40
0.6
176
     1
 40
30.0
176
     1
 62
     7
420
 16777215
176
     1
 90
        0
176
     1
 90
        0
176
     1
 62
     7
176
     1
 62
   257
176
     1
 90
        1
176
     1
 90
        1
176
     1
 40
1.0
176
     1
 90
        8
176
     1
 62
   257
176
     1
 40
1.0
176
     1
 90
        1
176
     1
 90
        6
176
     1
 90
        2
176
     1
 62
     7
176
     1
 90
        3
176
     1
 90
        0
176
     1
 90
        0
176
     1
290
     0
176
     1
 90
       13
176
     1
 40
0.0
176
     1
 90
        0
176
     1
290
     0
176
     1
290
     1
176
     1
290
     1
176
     1
290
     0
176
     1
290
     0
176
     1
290
     0
176
     1
290
     0
176
     1
290
     0
176
     1
290
     0
176
     1
 90
       50
176
     1
 40
0.0
176
     1
 40
1.0
176
     1
 90
        0
176
     1
 62
    18
420
        0
176
     1
 90
       50
176
     1
 90
        3
176
     1
 62
     5
420
      255
176
     1
290
     0
176
     1
 90
       50
176
     1
 90
       50
176
     1
 90
       50
176
     1
290
     0
176
     1
 90
       50
176
     1
 62
   256
176
     0
 40
1.0
176
     0
 90
        2
176
     1
  1
strokes_ogs.tif
176
     1
290
     0
176
     1
 40
1.0
176
     1
 40
1.0
176
     1
  0
VISUALSTYLE
  5
1F3
102
{ACAD_XDICTIONARY
360
6F8F
102
}
102
{ACAD_REACTORS
330
EF
102
}
330
EF
100
AcDbVisualStyle
  2
Shaded
 70
    27
177
     3
291
     0
 70
    58
 90
        2
176
     1
 90
        2
176
     1
 90
        1
176
     1
 90
        2
176
     1
 40
0.6
176
     1
 40
30.0
176
     1
 62
     7
420
 16777215
176
     1
 90
        0
176
     1
 90
        4
176
     1
 62
     7
176
     1
 62
   257
176
     1
 90
        1
176
     1
 90
        1
176
     1
 40
1.0
176
     1
 90
        8
176
     1
 62
   257
176
     1
 40
1.0
176
     1
 90
        1
176
     1
 90
        6
176
     1
 90
        2
176
     1
 62
     8
420
  7895160
176
     1
 90
        3
176
     1
 90
        0
176
     1
 90
        0
176
     1
290
     0
176
     1
 90
        5
176
     1
 40
0.0
176
     1
 90
        0
176
     1
290
     0
176
     1
290
     1
176
     1
290
     1
176
     1
290
     0
176
     1
290
     0
176
     1
290
     0
176
     1
290
     0
176
     1
290
     0
176
     1
290
     0
176
     1
 90
       50
176
     1
 40
0.0
176
     1
 40
1.0
176
     1
 90
        0
176
     1
 62
    18
420
        0
176
     1
 90
       50
176
     1
 90
        3
176
     1
 62
     5
420
      255
176
     1
290
     0
176
     1
 90
       50
176
     1
 90
       50
176
     1
 90
       50
176
     1
290
     0
176
     1
 90
       50
176
     1
 62
   256
176
     0
 40
1.0
176
     0
 90
        2
176
     1
  1
strokes_ogs.tif
176
     1
290
     0
176
     1
 40
1.0
176
     1
 40
1.0
176
     1
  0
VISUALSTYLE
  5
1F2
102
{ACAD_XDICTIONARY
360
6F8D
102
}
102
{ACAD_REACTORS
330
EF
102
}
330
EF
100
AcDbVisualStyle
  2
Shaded with edges
 70
    26
177
     3
291
     0
 70
    58
 90
        2
176
     1
 90
        2
176
     1
 90
        1
176
     1
 90
        2
176
     1
 40
0.6
176
     1
 40
30.0
176
     1
 62
     7
420
 16777215
176
     1
 90
        1
176
     1
 90
       10
176
     1
 62
     7
176
     1
 62
   257
176
     1
 90
        2
176
     1
 90
        1
176
     1
 40
1.0
176
     1
 90
        8
176
     1
 62
   257
176
     1
 40
1.0
176
     1
 90
        1
176
     1
 90
        6
176
     1
 90
        2
176
     1
 62
     7
176
     1
 90
        3
176
     1
 90
        0
176
     1
 90
        0
176
     1
290
     0
176
     1
 90
        5
176
     1
 40
0.0
176
     1
 90
        0
176
     1
290
     0
176
     1
290
     1
176
     1
290
     1
176
     1
290
     0
176
     1
290
     0
176
     1
290
     0
176
     1
290
     0
176
     1
290
     0
176
     1
290
     0
176
     1
 90
       50
176
     1
 40
0.0
176
     1
 40
1.0
176
     1
 90
        0
176
     1
 62
    18
420
        0
176
     1
 90
       50
176
     1
 90
        3
176
     1
 62
     5
420
      255
176
     1
290
     0
176
     1
 90
       50
176
     1
 90
       50
176
     1
 90
       50
176
     1
290
     0
176
     1
 90
       50
176
     1
 62
   256
176
     0
 40
1.0
176
     0
 90
        2
176
     1
  1
strokes_ogs.tif
176
     1
290
     0
176
     1
 40
1.0
176
     1
 40
1.0
176
     1
  0
VISUALSTYLE
  5
1EF
102
{ACAD_XDICTIONARY
360
6F87
102
}
102
{ACAD_REACTORS
330
EF
102
}
330
EF
100
AcDbVisualStyle
  2
Shades of Gray
 70
    23
177
     3
291
     0
 70
    58
 90
        2
176
     1
 90
        2
176
     1
 90
        3
176
     1
 90
        0
176
     1
 40
0.6
176
     1
 40
30.0
176
     1
 62
     7
420
 16777215
176
     1
 90
        2
176
     1
 90
        2
176
     1
 62
     7
176
     1
 62
     7
176
     1
 90
        1
176
     1
 90
        1
176
     1
 40
40.0
176
     1
 90
        8
176
     1
 62
     7
176
     1
 40
1.0
176
     1
 90
        1
176
     1
 90
        6
176
     1
 90
        2
176
     1
 62
     7
176
     1
 90
        3
176
     1
 90
        0
176
     1
 90
        0
176
     1
290
     0
176
     1
 90
        1
176
     1
 40
0.0
176
     1
 90
        0
176
     1
290
     0
176
     1
290
     1
176
     1
290
     1
176
     1
290
     0
176
     1
290
     0
176
     1
290
     0
176
     1
290
     0
176
     1
290
     0
176
     1
290
     0
176
     1
 90
       50
176
     1
 40
0.0
176
     1
 40
1.0
176
     1
 90
        0
176
     1
 62
    18
420
        0
176
     1
 90
       50
176
     1
 90
        3
176
     1
 62
     5
420
      255
176
     1
290
     0
176
     1
 90
       50
176
     1
 90
       50
176
     1
 90
       50
176
     1
290
     0
176
     1
 90
       50
176
     1
 62
   256
176
     0
 40
1.0
176
     0
 90
        2
176
     1
  1
strokes_ogs.tif
176
     1
290
     0
176
     1
 40
1.0
176
     1
 40
1.0
176
     1
  0
VISUALSTYLE
  5
1F0
102
{ACAD_XDICTIONARY
360
6F89
102
}
102
{ACAD_REACTORS
330
EF
102
}
330
EF
100
AcDbVisualStyle
  2
Sketchy
 70
    24
177
     3
291
     0
 70
    58
 90
        1
176
     1
 90
        2
176
     1
 90
        2
176
     1
 90
        0
176
     1
 40
0.6
176
     1
 40
30.0
176
     1
 62
     7
420
 16777215
176
     1
 90
        2
176
     1
 90
        2
176
     1
 62
     7
176
     1
 62
     7
176
     1
 90
        1
176
     1
 90
        1
176
     1
 40
40.0
176
     1
 90
       11
176
     1
 62
     7
176
     1
 40
1.0
176
     1
 90
        1
176
     1
 90
        6
176
     1
 90
        2
176
     1
 62
     7
176
     1
 90
        6
176
     1
 90
        0
176
     1
 90
        0
176
     1
290
     0
176
     1
 90
        1
176
     1
 40
0.0
176
     1
 90
        0
176
     1
290
     0
176
     1
290
     1
176
     1
290
     1
176
     1
290
     0
176
     1
290
     0
176
     1
290
     0
176
     1
290
     0
176
     1
290
     0
176
     1
290
     0
176
     1
 90
       50
176
     1
 40
0.0
176
     1
 40
1.0
176
     1
 90
        0
176
     1
 62
    18
420
        0
176
     1
 90
       50
176
     1
 90
        3
176
     1
 62
     5
420
      255
176
     1
290
     0
176
     1
 90
       50
176
     1
 90
       50
176
     1
 90
       50
176
     1
290
     0
176
     1
 90
       50
176
     1
 62
   256
176
     0
 40
1.0
176
     0
 90
        2
176
     1
  1
strokes_ogs.tif
176
     1
290
     0
176
     1
 40
1.0
176
     1
 40
1.0
176
     1
  0
VISUALSTYLE
  5
FC
102
{ACAD_XDICTIONARY
360
6F79
102
}
102
{ACAD_REACTORS
330
EF
102
}
330
EF
100
AcDbVisualStyle
  2
Thicken
 70
    13
177
     3
291
     1
 70
    58
 90
        2
176
     1
 90
        2
176
     1
 90
        1
176
     1
 90
        0
176
     1
 40
0.6
176
     1
 40
30.0
176
     1
 62
     7
420
 16777215
176
     1
 90
        1
176
     1
 90
        4
176
     1
 62
     7
176
     1
 62
   257
176
     1
 90
        1
176
     1
 90
        1
176
     1
 40
1.0
176
     1
 90
       12
176
     1
 62
     7
176
     1
 40
1.0
176
     1
 90
        1
176
     1
 90
        6
176
     1
 90
        2
176
     1
 62
     7
176
     1
 90
        5
176
     1
 90
        0
176
     1
 90
        0
176
     1
290
     0
176
     1
 90
        1
176
     1
 40
0.0
176
     1
 90
        0
176
     1
290
     0
176
     1
290
     1
176
     1
290
     1
176
     1
290
     0
176
     1
290
     0
176
     1
290
     0
176
     1
290
     0
176
     1
290
     0
176
     1
290
     0
176
     1
 90
       50
176
     1
 40
0.0
176
     1
 40
1.0
176
     1
 90
        0
176
     1
 62
    18
420
        0
176
     1
 90
       50
176
     1
 90
        3
176
     1
 62
     5
420
      255
176
     1
290
     0
176
     1
 90
       50
176
     1
 90
       50
176
     1
 90
       50
176
     1
290
     0
176
     1
 90
       50
176
     1
 62
   256
176
     0
 40
1.0
176
     0
 90
        2
176
     1
  1
strokes_ogs.tif
176
     1
290
     0
176
     1
 40
1.0
176
     1
 40
1.0
176
     1
  0
VISUALSTYLE
  5
F6
102
{ACAD_XDICTIONARY
360
6F6D
102
}
102
{ACAD_REACTORS
330
EF
102
}
330
EF
100
AcDbVisualStyle
  2
Wireframe
 70
     5
177
     3
291
     0
 70
    58
 90
        0
176
     1
 90
        2
176
     1
 90
        0
176
     1
 90
        0
176
     1
 40
0.6
176
     1
 40
30.0
176
     1
 62
     7
420
 16777215
176
     1
 90
        1
176
     1
 90
        4
176
     1
 62
     7
176
     1
 62
   257
176
     1
 90
        1
176
     1
 90
        1
176
     1
 40
1.0
176
     1
 90
        0
176
     1
 62
   257
176
     1
 40
1.0
176
     1
 90
        1
176
     1
 90
        6
176
     1
 90
        2
176
     1
 62
     7
176
     1
 90
        3
176
     1
 90
        0
176
     1
 90
        0
176
     1
290
     0
176
     1
 90
        1
176
     1
 40
0.0
176
     1
 90
        0
176
     1
290
     0
176
     1
290
     1
176
     1
290
     1
176
     1
290
     0
176
     1
290
     0
176
     1
290
     0
176
     1
290
     0
176
     1
290
     0
176
     1
290
     0
176
     1
 90
       50
176
     1
 40
0.0
176
     1
 40
1.0
176
     1
 90
        0
176
     1
 62
    18
420
        0
176
     1
 90
       50
176
     1
 90
        3
176
     1
 62
     5
420
      255
176
     1
290
     0
176
     1
 90
       50
176
     1
 90
       50
176
     1
 90
       50
176
     1
290
     0
176
     1
 90
       50
176
     1
 62
   256
176
     0
 40
1.0
176
     0
 90
        2
176
     1
  1
strokes_ogs.tif
176
     1
290
     0
176
     1
 40
1.0
176
     1
 40
1.0
176
     1
  0
VISUALSTYLE
  5
1F1
102
{ACAD_XDICTIONARY
360
6F8B
102
}
102
{ACAD_REACTORS
330
EF
102
}
330
EF
100
AcDbVisualStyle
  2
X-Ray
 70
    25
177
     3
291
     0
 70
    58
 90
        2
176
     1
 90
        2
176
     1
 90
        1
176
     1
 90
        1
176
     1
 40
0.5
176
     1
 40
30.0
176
     1
 62
     7
420
 16777215
176
     1
 90
        1
176
     1
 90
        0
176
     1
 62
     7
176
     1
 62
   257
176
     1
 90
        1
176
     1
 90
        1
176
     1
 40
1.0
176
     1
 90
        8
176
     1
 62
     7
176
     1
 40
1.0
176
     1
 90
        1
176
     1
 90
        6
176
     1
 90
        2
176
     1
 62
     7
176
     1
 90
        3
176
     1
 90
        0
176
     1
 90
        0
176
     1
290
     0
176
     1
 90
       13
176
     1
 40
0.0
176
     1
 90
        0
176
     1
290
     0
176
     1
290
     1
176
     1
290
     1
176
     1
290
     0
176
     1
290
     0
176
     1
290
     0
176
     1
290
     0
176
     1
290
     0
176
     1
290
     0
176
     1
 90
       50
176
     1
 40
0.0
176
     1
 40
1.0
176
     1
 90
        0
176
     1
 62
    18
420
        0
176
     1
 90
       50
176
     1
 90
        3
176
     1
 62
     5
420
      255
176
     1
290
     0
176
     1
 90
       50
176
     1
 90
       50
176
     1
 90
       50
176
     1
290
     0
176
     1
 90
       50
176
     1
 62
   256
176
     0
 40
1.0
176
     0
 90
        2
176
     1
  1
strokes_ogs.tif
176
     1
290
     0
176
     1
 40
1.0
176
     1
 40
1.0
176
     1
  0
DICTIONARYVAR
  5
146
102
{ACAD_REACTORS
330
5E
102
}
330
5E
100
DictionaryVariables
280
     0
  1
1:1
  0
DICTIONARYVAR
  5
145
102
{ACAD_REACTORS
330
5E
102
}
330
5E
100
DictionaryVariables
280
     0
  1
STANDARD
  0
DICTIONARYVAR
  5
84
102
{ACAD_REACTORS
330
5E
102
}
330
5E
100
DictionaryVariables
280
     0
  1
STANDARD
  0
DICTIONARYVAR
  5
227
102
{ACAD_REACTORS
330
5E
102
}
330
5E
100
DictionaryVariables
280
     0
  1
Metric50
  0
DICTIONARYVAR
  5
228
102
{ACAD_REACTORS
330
5E
102
}
330
5E
100
DictionaryVariables
280
     0
  1
Metric50
  0
DICTIONARYVAR
  5
5F
102
{ACAD_REACTORS
330
5E
102
}
330
5E
100
DictionaryVariables
280
     0
  1
2
  0
DICTIONARYVAR
  5
63
102
{ACAD_REACTORS
330
5E
102
}
330
5E
100
DictionaryVariables
280
     0
  1
1
  0
DICTIONARYVAR
  5
1AE
102
{ACAD_REACTORS
330
5E
102
}
330
5E
100
DictionaryVariables
280
     0
  1
0
  0
DICTIONARYVAR
  5
1AF
102
{ACAD_REACTORS
330
5E
102
}
330
5E
100
DictionaryVariables
280
     0
  1
0
  0
DICTIONARYVAR
  5
4FD2
102
{ACAD_REACTORS
330
5E
102
}
330
5E
100
DictionaryVariables
280
     0
  1
2
  0
DICTIONARYVAR
  5
4FD1
102
{ACAD_REACTORS
330
5E
102
}
330
5E
100
DictionaryVariables
280
     0
  1
1
  0
DICTIONARYVAR
  5
4FD3
102
{ACAD_REACTORS
330
5E
102
}
330
5E
100
DictionaryVariables
280
     0
  1
0
  0
BLOCKBASEPOINTPARAMETER
  5
262
330
261
100
AcDbEvalExpr
 90
        1
 98
       31
 99
      105
100
AcDbBlockElement
300
基点
 98
       31
 99
      105
1071
        0
100
AcDbBlockParameter
280
     1
281
     0
100
AcDbBlock1PtParameter
1010
574.0
1020
-16.0
1030
0.0
 93
        0
170
     0
171
     0
100
AcDbBlockBasepointParameter
1011
0.0
1021
0.0
1031
0.0
1012
0.0
1022
0.0
1032
0.0
  0
BLOCKBASEPOINTPARAMETER
  5
4AB6
330
4AB5
100
AcDbEvalExpr
 90
        3
 98
       31
 99
      105
100
AcDbBlockElement
300
基点
 98
       31
 99
      105
1071
        0
100
AcDbBlockParameter
280
     1
281
     0
100
AcDbBlock1PtParameter
1010
10.0
1020
8.0
1030
0.0
 93
        0
170
     0
171
     0
100
AcDbBlockBasepointParameter
1011
0.0
1021
0.0
1031
0.0
1012
0.0
1022
0.0
1032
0.0
  0
BLOCKBASEPOINTPARAMETER
  5
4C07
330
4C06
100
AcDbEvalExpr
 90
        1
 98
       31
 99
      105
100
AcDbBlockElement
300
基点
 98
       31
 99
      105
1071
        0
100
AcDbBlockParameter
280
     1
281
     0
100
AcDbBlock1PtParameter
1010
526.0
1020
-12.0
1030
0.0
 93
        0
170
     0
171
     0
100
AcDbBlockBasepointParameter
1011
0.0
1021
0.0
1031
0.0
1012
0.0
1022
0.0
1032
0.0
  0
BLOCKBASEPOINTPARAMETER
  5
287
330
286
100
AcDbEvalExpr
 90
        1
 98
       31
 99
      105
100
AcDbBlockElement
300
基点
 98
       31
 99
      105
1071
        0
100
AcDbBlockParameter
280
     1
281
     0
100
AcDbBlock1PtParameter
1010
760.2617187069327
1020
180.0000006787022
1030
0.0
 93
        0
170
     0
171
     0
100
AcDbBlockBasepointParameter
1011
0.0
1021
0.0
1031
0.0
1012
0.0
1022
0.0
1032
0.0
  0
BLOCKBASEPOINTPARAMETER
  5
293
330
292
100
AcDbEvalExpr
 90
        2
 98
       31
 99
      105
100
AcDbBlockElement
300
基点
 98
       31
 99
      105
1071
        0
100
AcDbBlockParameter
280
     1
281
     0
100
AcDbBlock1PtParameter
1010
8.0
1020
20.0
1030
0.0
 93
        0
170
     0
171
     0
100
AcDbBlockBasepointParameter
1011
0.0
1021
0.0
1031
0.0
1012
0.0
1022
0.0
1032
0.0
  0
BLOCKBASEPOINTPARAMETER
  5
2A7
330
2A6
100
AcDbEvalExpr
 90
        2
 98
       31
 99
      105
100
AcDbBlockElement
300
基点
 98
       31
 99
      105
1071
        0
100
AcDbBlockParameter
280
     1
281
     0
100
AcDbBlock1PtParameter
1010
38.0
1020
26.0
1030
0.0
 93
        0
170
     0
171
     0
100
AcDbBlockBasepointParameter
1011
0.0
1021
0.0
1031
0.0
1012
0.0
1022
0.0
1032
0.0
  0
BLOCKBASEPOINTPARAMETER
  5
2BE
330
2BD
100
AcDbEvalExpr
 90
        1
 98
       31
 99
      105
100
AcDbBlockElement
300
基点
 98
       31
 99
      105
1071
        0
100
AcDbBlockParameter
280
     1
281
     0
100
AcDbBlock1PtParameter
1010
730.0000028050353
1020
329.1974953861529
1030
0.0
 93
        0
170
     0
171
     0
100
AcDbBlockBasepointParameter
1011
0.0
1021
0.0
1031
0.0
1012
0.0
1022
0.0
1032
0.0
  0
BLOCKBASEPOINTPARAMETER
  5
2D0
330
2CF
100
AcDbEvalExpr
 90
        1
 98
       31
 99
      105
100
AcDbBlockElement
300
基点
 98
       31
 99
      105
1071
        0
100
AcDbBlockParameter
280
     1
281
     0
100
AcDbBlock1PtParameter
1010
831.8544171006832
1020
329.1974957089185
1030
0.0
 93
        0
170
     0
171
     0
100
AcDbBlockBasepointParameter
1011
0.0
1021
0.0
1031
0.0
1012
0.0
1022
0.0
1032
0.0
  0
BLOCKBASEPOINTPARAMETER
  5
2E7
330
2E6
100
AcDbEvalExpr
 90
        1
 98
       31
 99
      105
100
AcDbBlockElement
300
基点
 98
       31
 99
      105
1071
        0
100
AcDbBlockParameter
280
     1
281
     0
100
AcDbBlock1PtParameter
1010
574.0
1020
-16.0
1030
0.0
 93
        0
170
     0
171
     0
100
AcDbBlockBasepointParameter
1011
0.0
1021
0.0
1031
0.0
1012
0.0
1022
0.0
1032
0.0
  0
BLOCKBASEPOINTPARAMETER
  5
2F3
330
2F2
100
AcDbEvalExpr
 90
        1
 98
       31
 99
      105
100
AcDbBlockElement
300
基点
 98
       31
 99
      105
1071
        0
100
AcDbBlockParameter
280
     1
281
     0
100
AcDbBlock1PtParameter
1010
914.3409028833502
1020
325.8183246582207
1030
0.0
 93
        0
170
     0
171
     0
100
AcDbBlockBasepointParameter
1011
0.0
1021
0.0
1031
0.0
1012
0.0
1022
0.0
1032
0.0
  0
BLOCKBASEPOINTPARAMETER
  5
1BA0
330
1B9F
100
AcDbEvalExpr
 90
        1
 98
       31
 99
      105
100
AcDbBlockElement
300
基点
 98
       31
 99
      105
1071
        0
100
AcDbBlockParameter
280
     1
281
     0
100
AcDbBlock1PtParameter
1010
428.0
1020
-8.0
1030
0.0
 93
        0
170
     0
171
     0
100
AcDbBlockBasepointParameter
1011
0.0
1021
0.0
1031
0.0
1012
0.0
1022
0.0
1032
0.0
  0
BLOCKBASEPOINTPARAMETER
  5
7452
330
744E
100
AcDbEvalExpr
 90
        2
 98
       31
 99
      105
100
AcDbBlockElement
300
基点
 98
       31
 99
      105
1071
        0
100
AcDbBlockParameter
280
     1
281
     0
100
AcDbBlock1PtParameter
1010
1781.69991981517
1020
292.1466945805651
1030
0.0
 93
        0
170
     0
171
     0
100
AcDbBlockBasepointParameter
1011
0.0
1021
0.0
1031
0.0
1012
0.0
1022
0.0
1032
0.0
  0
BLOCKBASEPOINTPARAMETER
  5
3B32
330
3B31
100
AcDbEvalExpr
 90
        1
 98
       31
 99
      105
100
AcDbBlockElement
300
基点
 98
       31
 99
      105
1071
        0
100
AcDbBlockParameter
280
     1
281
     0
100
AcDbBlock1PtParameter
1010
9341.869952604467
1020
961.1197016149736
1030
0.0
 93
        0
170
     0
171
     0
100
AcDbBlockBasepointParameter
1011
0.0
1021
0.0
1031
0.0
1012
0.0
1022
0.0
1032
0.0
  0
ACDB_BLOCKREPRESENTATION_DATA
  5
6A48
102
{ACAD_REACTORS
330
6A47
102
}
330
6A47
100
AcDbBlockRepresentationData
 70
     1
340
25F
  0
DICTIONARY
  5
6A49
102
{ACAD_REACTORS
330
6A47
102
}
330
6A47
100
AcDbDictionary
280
     1
281
     1
  3
ACAD_ENHANCEDBLOCKDATA
360
6B4B
  0
ACDB_BLOCKREPRESENTATION_DATA
  5
6A4F
102
{ACAD_REACTORS
330
6A4E
102
}
330
6A4E
100
AcDbBlockRepresentationData
 70
     1
340
284
  0
DICTIONARY
  5
6A50
102
{ACAD_REACTORS
330
6A4E
102
}
330
6A4E
100
AcDbDictionary
280
     1
281
     1
  3
ACAD_ENHANCEDBLOCKDATA
360
6AAE
  0
ACDB_BLOCKREPRESENTATION_DATA
  5
6A5C
102
{ACAD_REACTORS
330
6A5B
102
}
330
6A5B
100
AcDbBlockRepresentationData
 70
     1
340
279
  0
DICTIONARY
  5
6A5D
102
{ACAD_REACTORS
330
6A5B
102
}
330
6A5B
100
AcDbDictionary
280
     1
281
     1
  3
ACAD_ENHANCEDBLOCKDATA
360
6ABD
  0
ACDB_BLOCKREPRESENTATION_DATA
  5
6A63
102
{ACAD_REACTORS
330
6A62
102
}
330
6A62
100
AcDbBlockRepresentationData
 70
     1
340
290
  0
DICTIONARY
  5
6A64
102
{ACAD_REACTORS
330
6A62
102
}
330
6A62
100
AcDbDictionary
280
     1
281
     1
  3
ACAD_ENHANCEDBLOCKDATA
360
6AD0
  0
ACDB_BLOCKREPRESENTATION_DATA
  5
6A6A
102
{ACAD_REACTORS
330
6A69
102
}
330
6A69
100
AcDbBlockRepresentationData
 70
     1
340
26D
  0
DICTIONARY
  5
6A6B
102
{ACAD_REACTORS
330
6A69
102
}
330
6A69
100
AcDbDictionary
280
     1
281
     1
  3
ACAD_ENHANCEDBLOCKDATA
360
6ADB
  0
ACDB_BLOCKREPRESENTATION_DATA
  5
6A73
102
{ACAD_REACTORS
330
6A72
102
}
330
6A72
100
AcDbBlockRepresentationData
 70
     1
340
2A4
  0
DICTIONARY
  5
6A74
102
{ACAD_REACTORS
330
6A72
102
}
330
6A72
100
AcDbDictionary
280
     1
281
     1
  3
ACAD_ENHANCEDBLOCKDATA
360
6AF1
  0
ACDB_BLOCKREPRESENTATION_DATA
  5
6A7A
102
{ACAD_REACTORS
330
6A79
102
}
330
6A79
100
AcDbBlockRepresentationData
 70
     1
340
26D
  0
DICTIONARY
  5
6A7B
102
{ACAD_REACTORS
330
6A79
102
}
330
6A79
100
AcDbDictionary
280
     1
281
     1
  3
ACAD_ENHANCEDBLOCKDATA
360
6AFC
  0
ACDB_BLOCKREPRESENTATION_DATA
  5
6A81
102
{ACAD_REACTORS
330
6A80
102
}
330
6A80
100
AcDbBlockRepresentationData
 70
     1
340
2E4
  0
DICTIONARY
  5
6A82
102
{ACAD_REACTORS
330
6A80
102
}
330
6A80
100
AcDbDictionary
280
     1
281
     1
  3
ACAD_ENHANCEDBLOCKDATA
360
6B07
  0
ACDB_BLOCKREPRESENTATION_DATA
  5
6A88
102
{ACAD_REACTORS
330
6A87
102
}
330
6A87
100
AcDbBlockRepresentationData
 70
     1
340
2E4
  0
DICTIONARY
  5
6A89
102
{ACAD_REACTORS
330
6A87
102
}
330
6A87
100
AcDbDictionary
280
     1
281
     1
  3
ACAD_ENHANCEDBLOCKDATA
360
6B12
  0
ACDB_BLOCKREPRESENTATION_DATA
  5
6A8F
102
{ACAD_REACTORS
330
6A8E
102
}
330
6A8E
100
AcDbBlockRepresentationData
 70
     1
340
2E4
  0
DICTIONARY
  5
6A90
102
{ACAD_REACTORS
330
6A8E
102
}
330
6A8E
100
AcDbDictionary
280
     1
281
     1
  3
ACAD_ENHANCEDBLOCKDATA
360
6B1D
  0
ACDB_BLOCKREPRESENTATION_DATA
  5
6A96
102
{ACAD_REACTORS
330
6A95
102
}
330
6A95
100
AcDbBlockRepresentationData
 70
     1
340
2E4
  0
DICTIONARY
  5
6A97
102
{ACAD_REACTORS
330
6A95
102
}
330
6A95
100
AcDbDictionary
280
     1
281
     1
  3
ACAD_ENHANCEDBLOCKDATA
360
6B28
  0
ACDB_BLOCKREPRESENTATION_DATA
  5
6A9D
102
{ACAD_REACTORS
330
6A9C
102
}
330
6A9C
100
AcDbBlockRepresentationData
 70
     1
340
2CD
  0
DICTIONARY
  5
6A9E
102
{ACAD_REACTORS
330
6A9C
102
}
330
6A9C
100
AcDbDictionary
280
     1
281
     1
  3
ACAD_ENHANCEDBLOCKDATA
360
6B3E
  0
ACDB_BLOCKREPRESENTATION_DATA
  5
7387
102
{ACAD_REACTORS
330
7386
102
}
330
7386
100
AcDbBlockRepresentationData
 70
     1
340
3B2F
  0
DICTIONARY
  5
7388
102
{ACAD_REACTORS
330
7386
102
}
330
7386
100
AcDbDictionary
280
     1
281
     1
  3
ACAD_ENHANCEDBLOCKDATA
360
7389
  0
ACDB_BLOCKREPRESENTATION_DATA
  5
738F
102
{ACAD_REACTORS
330
738E
102
}
330
738E
100
AcDbBlockRepresentationData
 70
     1
340
284
  0
DICTIONARY
  5
7390
102
{ACAD_REACTORS
330
738E
102
}
330
738E
100
AcDbDictionary
280
     1
281
     1
  3
ACAD_ENHANCEDBLOCKDATA
360
7391
  0
ACDB_BLOCKREPRESENTATION_DATA
  5
745E
102
{ACAD_REACTORS
330
745D
102
}
330
745D
100
AcDbBlockRepresentationData
 70
     1
340
3B26
  0
DICTIONARY
  5
745F
102
{ACAD_REACTORS
330
745D
102
}
330
745D
100
AcDbDictionary
280
     1
281
     1
  3
ACAD_ENHANCEDBLOCKDATA
360
7489
  0
ACDB_BLOCKREPRESENTATION_DATA
  5
739E
102
{ACAD_REACTORS
330
739D
102
}
330
739D
100
AcDbBlockRepresentationData
 70
     1
340
26D
  0
DICTIONARY
  5
739F
102
{ACAD_REACTORS
330
739D
102
}
330
739D
100
AcDbDictionary
280
     1
281
     1
  3
ACAD_ENHANCEDBLOCKDATA
360
73A0
  0
ACDB_BLOCKREPRESENTATION_DATA
  5
73A6
102
{ACAD_REACTORS
330
73A5
102
}
330
73A5
100
AcDbBlockRepresentationData
 70
     1
340
2A4
  0
DICTIONARY
  5
73A7
102
{ACAD_REACTORS
330
73A5
102
}
330
73A5
100
AcDbDictionary
280
     1
281
     1
  3
ACAD_ENHANCEDBLOCKDATA
360
73A8
  0
ACDB_BLOCKREPRESENTATION_DATA
  5
73AD
102
{ACAD_REACTORS
330
73AC
102
}
330
73AC
100
AcDbBlockRepresentationData
 70
     1
340
26D
  0
DICTIONARY
  5
73AE
102
{ACAD_REACTORS
330
73AC
102
}
330
73AC
100
AcDbDictionary
280
     1
281
     1
  3
ACAD_ENHANCEDBLOCKDATA
360
73AF
  0
ACDB_BLOCKREPRESENTATION_DATA
  5
73B5
102
{ACAD_REACTORS
330
73B4
102
}
330
73B4
100
AcDbBlockRepresentationData
 70
     1
340
279
  0
DICTIONARY
  5
73B6
102
{ACAD_REACTORS
330
73B4
102
}
330
73B4
100
AcDbDictionary
280
     1
281
     1
  3
ACAD_ENHANCEDBLOCKDATA
360
73B7
  0
ACDB_BLOCKREPRESENTATION_DATA
  5
73BD
102
{ACAD_REACTORS
330
73BC
102
}
330
73BC
100
AcDbBlockRepresentationData
 70
     1
340
26D
  0
DICTIONARY
  5
73BE
102
{ACAD_REACTORS
330
73BC
102
}
330
73BC
100
AcDbDictionary
280
     1
281
     1
  3
ACAD_ENHANCEDBLOCKDATA
360
73BF
  0
ACDB_BLOCKREPRESENTATION_DATA
  5
73C7
102
{ACAD_REACTORS
330
73C6
102
}
330
73C6
100
AcDbBlockRepresentationData
 70
     1
340
284
  0
DICTIONARY
  5
73C8
102
{ACAD_REACTORS
330
73C6
102
}
330
73C6
100
AcDbDictionary
280
     1
281
     1
  3
ACAD_ENHANCEDBLOCKDATA
360
73C9
  0
ACDB_BLOCKREPRESENTATION_DATA
  5
73CE
102
{ACAD_REACTORS
330
73CD
102
}
330
73CD
100
AcDbBlockRepresentationData
 70
     1
340
26D
  0
DICTIONARY
  5
73CF
102
{ACAD_REACTORS
330
73CD
102
}
330
73CD
100
AcDbDictionary
280
     1
281
     1
  3
ACAD_ENHANCEDBLOCKDATA
360
73D0
  0
ACDB_BLOCKREPRESENTATION_DATA
  5
7463
102
{ACAD_REACTORS
330
7462
102
}
330
7462
100
AcDbBlockRepresentationData
 70
     1
340
3B26
  0
DICTIONARY
  5
748B
102
{ACAD_REACTORS
330
7462
102
}
330
7462
100
AcDbDictionary
280
     1
281
     1
  3
ACAD_ENHANCEDBLOCKDATA
360
748C
  0
ACDB_BLOCKREPRESENTATION_DATA
  5
73D8
102
{ACAD_REACTORS
330
73D7
102
}
330
73D7
100
AcDbBlockRepresentationData
 70
     1
340
2A4
  0
DICTIONARY
  5
73D9
102
{ACAD_REACTORS
330
73D7
102
}
330
73D7
100
AcDbDictionary
280
     1
281
     1
  3
ACAD_ENHANCEDBLOCKDATA
360
73DA
  0
ACDB_BLOCKREPRESENTATION_DATA
  5
73DF
102
{ACAD_REACTORS
330
73DE
102
}
330
73DE
100
AcDbBlockRepresentationData
 70
     1
340
26D
  0
DICTIONARY
  5
73E0
102
{ACAD_REACTORS
330
73DE
102
}
330
73DE
100
AcDbDictionary
280
     1
281
     1
  3
ACAD_ENHANCEDBLOCKDATA
360
73E1
  0
ACDB_BLOCKREPRESENTATION_DATA
  5
73ED
102
{ACAD_REACTORS
330
73EC
102
}
330
73EC
100
AcDbBlockRepresentationData
 70
     1
340
2CD
  0
DICTIONARY
  5
73EE
102
{ACAD_REACTORS
330
73EC
102
}
330
73EC
100
AcDbDictionary
280
     1
281
     1
  3
ACAD_ENHANCEDBLOCKDATA
360
73EF
  0
ACDB_BLOCKREPRESENTATION_DATA
  5
73F5
102
{ACAD_REACTORS
330
73F4
102
}
330
73F4
100
AcDbBlockRepresentationData
 70
     1
340
2E4
  0
DICTIONARY
  5
73F6
102
{ACAD_REACTORS
330
73F4
102
}
330
73F4
100
AcDbDictionary
280
     1
281
     1
  3
ACAD_ENHANCEDBLOCKDATA
360
73F7
  0
ACDB_BLOCKREPRESENTATION_DATA
  5
73FC
102
{ACAD_REACTORS
330
73FB
102
}
330
73FB
100
AcDbBlockRepresentationData
 70
     1
340
2E4
  0
DICTIONARY
  5
73FD
102
{ACAD_REACTORS
330
73FB
102
}
330
73FB
100
AcDbDictionary
280
     1
281
     1
  3
ACAD_ENHANCEDBLOCKDATA
360
73FE
  0
ACDB_BLOCKREPRESENTATION_DATA
  5
7403
102
{ACAD_REACTORS
330
7402
102
}
330
7402
100
AcDbBlockRepresentationData
 70
     1
340
2E4
  0
DICTIONARY
  5
7404
102
{ACAD_REACTORS
330
7402
102
}
330
7402
100
AcDbDictionary
280
     1
281
     1
  3
ACAD_ENHANCEDBLOCKDATA
360
7405
  0
ACDB_BLOCKREPRESENTATION_DATA
  5
740A
102
{ACAD_REACTORS
330
7409
102
}
330
7409
100
AcDbBlockRepresentationData
 70
     1
340
2E4
  0
DICTIONARY
  5
740B
102
{ACAD_REACTORS
330
7409
102
}
330
7409
100
AcDbDictionary
280
     1
281
     1
  3
ACAD_ENHANCEDBLOCKDATA
360
740C
  0
ACDB_BLOCKREPRESENTATION_DATA
  5
7412
102
{ACAD_REACTORS
330
7411
102
}
330
7411
100
AcDbBlockRepresentationData
 70
     1
340
290
  0
DICTIONARY
  5
7413
102
{ACAD_REACTORS
330
7411
102
}
330
7411
100
AcDbDictionary
280
     1
281
     1
  3
ACAD_ENHANCEDBLOCKDATA
360
7414
  0
ACDB_BLOCKREPRESENTATION_DATA
  5
7419
102
{ACAD_REACTORS
330
7418
102
}
330
7418
100
AcDbBlockRepresentationData
 70
     1
340
26D
  0
DICTIONARY
  5
741A
102
{ACAD_REACTORS
330
7418
102
}
330
7418
100
AcDbDictionary
280
     1
281
     1
  3
ACAD_ENHANCEDBLOCKDATA
360
741B
  0
ACDB_BLOCKREPRESENTATION_DATA
  5
7421
102
{ACAD_REACTORS
330
7420
102
}
330
7420
100
AcDbBlockRepresentationData
 70
     1
340
284
  0
DICTIONARY
  5
7422
102
{ACAD_REACTORS
330
7420
102
}
330
7420
100
AcDbDictionary
280
     1
281
     1
  3
ACAD_ENHANCEDBLOCKDATA
360
7423
  0
DICTIONARY
  5
7498
330
71D5
100
AcDbDictionary
280
     1
281
     1
  3
ACAD_XREC_ROUNDTRIP
360
74B7
  0
DICTIONARY
  5
205
330
22
100
AcDbDictionary
280
     1
281
     1
  0
DICTIONARY
  5
1F9
330
ED
100
AcDbDictionary
280
     1
281
     1
  3
FBXASSET
360
1FA
  0
DICTIONARY
  5
1F7
330
EC
100
AcDbDictionary
280
     1
281
     1
  3
FBXASSET
360
1F8
  0
DICTIONARY
  5
173
330
EE
100
AcDbDictionary
280
     1
281
     1
  3
BUMPTILE
360
175
  3
DIFFUSETILE
360
174
  3
FBXASSET
360
1FB
  3
OPACITYTILE
360
176
  3
REFLECTIONTILE
360
177
  0
DICTIONARY
  5
7496
330
71D4
100
AcDbDictionary
280
     1
281
     1
  3
ACAD_XREC_ROUNDTRIP
360
74B6
  0
DICTIONARY
  5
162
330
7F
100
AcDbDictionary
280
     1
281
     1
  3
ACAD_ROUNDTRIP_2008_TABLESTYLE_CELLSTYLEMAP
360
74B4
  0
DICTIONARY
  5
6F6B
330
F5
100
AcDbDictionary
280
     1
281
     1
  3
ACAD_XREC_ROUNDTRIP
360
6F6C
  0
DICTIONARY
  5
6F95
330
4E1B
100
AcDbDictionary
280
     1
281
     1
  3
ACAD_XREC_ROUNDTRIP
360
6F96
  0
DICTIONARY
  5
6F91
330
549
100
AcDbDictionary
280
     1
281
     1
  3
ACAD_XREC_ROUNDTRIP
360
6F92
  0
DICTIONARY
  5
6F69
330
F4
100
AcDbDictionary
280
     1
281
     1
  3
ACAD_XREC_ROUNDTRIP
360
6F6A
  0
DICTIONARY
  5
6F77
330
FB
100
AcDbDictionary
280
     1
281
     1
  3
ACAD_XREC_ROUNDTRIP
360
6F78
  0
DICTIONARY
  5
6F7F
330
FF
100
AcDbDictionary
280
     1
281
     1
  3
ACAD_XREC_ROUNDTRIP
360
6F80
  0
DICTIONARY
  5
6F71
330
F8
100
AcDbDictionary
280
     1
281
     1
  3
ACAD_XREC_ROUNDTRIP
360
6F72
  0
DICTIONARY
  5
6F75
330
FA
100
AcDbDictionary
280
     1
281
     1
  3
ACAD_XREC_ROUNDTRIP
360
6F76
  0
DICTIONARY
  5
6F85
330
1E6
100
AcDbDictionary
280
     1
281
     1
  3
ACAD_XREC_ROUNDTRIP
360
6F86
  0
DICTIONARY
  5
6F7D
330
FE
100
AcDbDictionary
280
     1
281
     1
  3
ACAD_XREC_ROUNDTRIP
360
6F7E
  0
DICTIONARY
  5
6F61
330
F0
100
AcDbDictionary
280
     1
281
     1
  3
ACAD_XREC_ROUNDTRIP
360
6F62
  0
DICTIONARY
  5
6F63
330
F1
100
AcDbDictionary
280
     1
281
     1
  3
ACAD_XREC_ROUNDTRIP
360
6F64
  0
DICTIONARY
  5
6F65
330
F2
100
AcDbDictionary
280
     1
281
     1
  3
ACAD_XREC_ROUNDTRIP
360
6F66
  0
DICTIONARY
  5
6F67
330
F3
100
AcDbDictionary
280
     1
281
     1
  3
ACAD_XREC_ROUNDTRIP
360
6F68
  0
DICTIONARY
  5
6F6F
330
F7
100
AcDbDictionary
280
     1
281
     1
  3
ACAD_XREC_ROUNDTRIP
360
6F70
  0
DICTIONARY
  5
6F81
330
1E4
100
AcDbDictionary
280
     1
281
     1
  3
ACAD_XREC_ROUNDTRIP
360
6F82
  0
DICTIONARY
  5
6F7B
330
FD
100
AcDbDictionary
280
     1
281
     1
  3
ACAD_XREC_ROUNDTRIP
360
6F7C
  0
DICTIONARY
  5
6F83
330
1E5
100
AcDbDictionary
280
     1
281
     1
  3
ACAD_XREC_ROUNDTRIP
360
6F84
  0
DICTIONARY
  5
6F73
330
F9
100
AcDbDictionary
280
     1
281
     1
  3
ACAD_XREC_ROUNDTRIP
360
6F74
  0
DICTIONARY
  5
6F8F
330
1F3
100
AcDbDictionary
280
     1
281
     1
  3
ACAD_XREC_ROUNDTRIP
360
6F90
  0
DICTIONARY
  5
6F8D
330
1F2
100
AcDbDictionary
280
     1
281
     1
  3
ACAD_XREC_ROUNDTRIP
360
6F8E
  0
DICTIONARY
  5
6F87
330
1EF
100
AcDbDictionary
280
     1
281
     1
  3
ACAD_XREC_ROUNDTRIP
360
6F88
  0
DICTIONARY
  5
6F89
330
1F0
100
AcDbDictionary
280
     1
281
     1
  3
ACAD_XREC_ROUNDTRIP
360
6F8A
  0
DICTIONARY
  5
6F79
330
FC
100
AcDbDictionary
280
     1
281
     1
  3
ACAD_XREC_ROUNDTRIP
360
6F7A
  0
DICTIONARY
  5
6F6D
330
F6
100
AcDbDictionary
280
     1
281
     1
  3
ACAD_XREC_ROUNDTRIP
360
6F6E
  0
DICTIONARY
  5
6F8B
330
1F1
100
AcDbDictionary
280
     1
281
     1
  3
ACAD_XREC_ROUNDTRIP
360
6F8C
  0
DICTIONARY
  5
6B4B
102
{ACAD_REACTORS
330
6A49
102
}
330
6A49
100
AcDbDictionary
280
     1
281
     1
  3
1
360
6B4C
  0
DICTIONARY
  5
6AAE
102
{ACAD_REACTORS
330
6A50
102
}
330
6A50
100
AcDbDictionary
280
     1
281
     1
  3
1
360
6AAF
  0
DICTIONARY
  5
6ABD
102
{ACAD_REACTORS
330
6A5D
102
}
330
6A5D
100
AcDbDictionary
280
     1
281
     1
  3
1
360
6ABE
  0
DICTIONARY
  5
6AD0
102
{ACAD_REACTORS
330
6A64
102
}
330
6A64
100
AcDbDictionary
280
     1
281
     1
  3
2
360
6AD1
  0
DICTIONARY
  5
6ADB
102
{ACAD_REACTORS
330
6A6B
102
}
330
6A6B
100
AcDbDictionary
280
     1
281
     1
  3
3
360
6ADC
  0
DICTIONARY
  5
6AF1
102
{ACAD_REACTORS
330
6A74
102
}
330
6A74
100
AcDbDictionary
280
     1
281
     1
  3
2
360
6AF2
  0
DICTIONARY
  5
6AFC
102
{ACAD_REACTORS
330
6A7B
102
}
330
6A7B
100
AcDbDictionary
280
     1
281
     1
  3
3
360
6AFD
  0
DICTIONARY
  5
6B07
102
{ACAD_REACTORS
330
6A82
102
}
330
6A82
100
AcDbDictionary
280
     1
281
     1
  3
1
360
6B08
  0
DICTIONARY
  5
6B12
102
{ACAD_REACTORS
330
6A89
102
}
330
6A89
100
AcDbDictionary
280
     1
281
     1
  3
1
360
6B13
  0
DICTIONARY
  5
6B1D
102
{ACAD_REACTORS
330
6A90
102
}
330
6A90
100
AcDbDictionary
280
     1
281
     1
  3
1
360
6B1E
  0
DICTIONARY
  5
6B28
102
{ACAD_REACTORS
330
6A97
102
}
330
6A97
100
AcDbDictionary
280
     1
281
     1
  3
1
360
6B29
  0
DICTIONARY
  5
6B3E
102
{ACAD_REACTORS
330
6A9E
102
}
330
6A9E
100
AcDbDictionary
280
     1
281
     1
  3
1
360
6B3F
  0
DICTIONARY
  5
7389
102
{ACAD_REACTORS
330
7388
102
}
330
7388
100
AcDbDictionary
280
     1
281
     1
  3
1
360
738A
  0
DICTIONARY
  5
7391
102
{ACAD_REACTORS
330
7390
102
}
330
7390
100
AcDbDictionary
280
     1
281
     1
  3
1
360
7392
  0
DICTIONARY
  5
7489
102
{ACAD_REACTORS
330
745F
102
}
330
745F
100
AcDbDictionary
280
     1
281
     1
  3
2
360
748A
  0
DICTIONARY
  5
73A0
102
{ACAD_REACTORS
330
739F
102
}
330
739F
100
AcDbDictionary
280
     1
281
     1
  3
3
360
73A1
  0
DICTIONARY
  5
73A8
102
{ACAD_REACTORS
330
73A7
102
}
330
73A7
100
AcDbDictionary
280
     1
281
     1
  3
2
360
73A9
  0
DICTIONARY
  5
73AF
102
{ACAD_REACTORS
330
73AE
102
}
330
73AE
100
AcDbDictionary
280
     1
281
     1
  3
3
360
73B0
  0
DICTIONARY
  5
73B7
102
{ACAD_REACTORS
330
73B6
102
}
330
73B6
100
AcDbDictionary
280
     1
281
     1
  3
1
360
73B8
  0
DICTIONARY
  5
73BF
102
{ACAD_REACTORS
330
73BE
102
}
330
73BE
100
AcDbDictionary
280
     1
281
     1
  3
3
360
73C0
  0
DICTIONARY
  5
73C9
102
{ACAD_REACTORS
330
73C8
102
}
330
73C8
100
AcDbDictionary
280
     1
281
     1
  3
1
360
73CA
  0
DICTIONARY
  5
73D0
102
{ACAD_REACTORS
330
73CF
102
}
330
73CF
100
AcDbDictionary
280
     1
281
     1
  3
3
360
73D1
  0
DICTIONARY
  5
748C
102
{ACAD_REACTORS
330
748B
102
}
330
748B
100
AcDbDictionary
280
     1
281
     1
  3
2
360
748D
  0
DICTIONARY
  5
73DA
102
{ACAD_REACTORS
330
73D9
102
}
330
73D9
100
AcDbDictionary
280
     1
281
     1
  3
2
360
73DB
  0
DICTIONARY
  5
73E1
102
{ACAD_REACTORS
330
73E0
102
}
330
73E0
100
AcDbDictionary
280
     1
281
     1
  3
3
360
73E2
  0
DICTIONARY
  5
73EF
102
{ACAD_REACTORS
330
73EE
102
}
330
73EE
100
AcDbDictionary
280
     1
281
     1
  3
1
360
73F0
  0
DICTIONARY
  5
73F7
102
{ACAD_REACTORS
330
73F6
102
}
330
73F6
100
AcDbDictionary
280
     1
281
     1
  3
1
360
73F8
  0
DICTIONARY
  5
73FE
102
{ACAD_REACTORS
330
73FD
102
}
330
73FD
100
AcDbDictionary
280
     1
281
     1
  3
1
360
73FF
  0
DICTIONARY
  5
7405
102
{ACAD_REACTORS
330
7404
102
}
330
7404
100
AcDbDictionary
280
     1
281
     1
  3
1
360
7406
  0
DICTIONARY
  5
740C
102
{ACAD_REACTORS
330
740B
102
}
330
740B
100
AcDbDictionary
280
     1
281
     1
  3
1
360
740D
  0
DICTIONARY
  5
7414
102
{ACAD_REACTORS
330
7413
102
}
330
7413
100
AcDbDictionary
280
     1
281
     1
  3
2
360
7415
  0
DICTIONARY
  5
741B
102
{ACAD_REACTORS
330
741A
102
}
330
741A
100
AcDbDictionary
280
     1
281
     1
  3
3
360
741C
  0
DICTIONARY
  5
7423
102
{ACAD_REACTORS
330
7422
102
}
330
7422
100
AcDbDictionary
280
     1
281
     1
  3
1
360
7424
  0
XRECORD
  5
74B7
102
{ACAD_REACTORS
330
7498
102
}
330
7498
100
AcDbXrecord
280
     1
102
DISPLAYNAME
  1
Metric50
102
FLAGS
 90
        0
  0
XRECORD
  5
1FA
102
{ACAD_REACTORS
330
1F9
102
}
330
1F9
100
AcDbXrecord
280
     1
 70
     1
 90
429727718
  1
D62C5603-E3A1-4AEA-B7FB-FE5D8D0755AF
310
504B03040A0000080000CC70623B3DEE336E79000000790000001B0000006175746F6465736B2D64657369676E2D7061636B6167652E786D6C3C3F786D6C2076657273696F6E3D22312E302220656E636F64696E673D227574662D3822203F3E3C666F726D6174733E3C666F726D61743E687474703A2F2F736368656D612E
310
6175746F6465736B2E636F6D2F64657369676E2D7061636B6167652F323030393C2F666F726D61743E3C2F666F726D6174733E504B0304140006080800CC70623BD486FD9CA0000000F4000000130000005B436F6E74656E745F54797065735D2E786D6C7D8EC10E82300C865F65E91D8A1E8C310C0EEA1BF002731658846E
310
D98AC1B77784ABF1D8FE5FBFBF75BBCE937A534CCEB38643598122B6FEE978D0B0485F9C41B54DDD7D022595594E1A469170414C76A4D9A4D207E29CF43ECE46F218070CC6BECC4078ACAA135ACF422C856C0E68EA1BF5669944DDD7BCDE7B1F8E415D77AECB980613C2E4AC91FC167A2B244592486606FC29C8FD7F045B9A
310
EF7053A7E60B504B0304140006080800CC70623B853B8169EB0000007C01000008000000636F72652E786D6C8D90416EC3201045AF62CDB6C206821CC7C244919D9CA01740401C94182C03558F5F9C3852BBEB6A467FFE9B197D7EFC9E1EC5975982F5AE035262288C535E5B377690E21535501C055FBC8FBF6C503839990E
310
5619041F179FE64D52DE45E362569DD7661365082642A11EB9E920A89B99642953CC8E702F67A9EE7234257977194EC9EAE275C4EABCCF5EAD5940D4AC6F0E35A568B8F43562CD7046CD199FD07E60174276A7BE677B5EADB0E0D14EEFFB6A31321A0D82627C4084204C3F096B71DD52F6819B16635EADF63F509AF53FA164
310
5DDCD1EDDD17164090FCC8732078B56691CB33A85CD7DCC40F504B0304140006080800CC70623B55019EA25F0000007C00000007000000636E782E786D6C4DCB3B0E80201045D1AD90E915ED2CF8AC45050C11660C8261F98AB1B07AC9C97D42D718D865D3E909258CFD00CCE24AC6E326A164D74DC0B4128928FF32603847
310
2BA13128B1252AC747C6BAB984FC68F0B87FE8960A5C09FE86CFB69FBA01504B0304140006080800CC70623BDBABAAF470010000D40300000C0000006662782F636F72652E786D6CC553D16E823014FD95A6AF4B694182CC941A83FA05FB810A9511A125A5257EFE2E82712ECEB8A7F100CD39F7F69E734AF9FADC366850B6
310
AF8DCE7018308C942E4C59EB2AC3DE1D498AD15A706B8CFB56869196ADCAF00863C12B6B7C374385D14E6907A836A59A41D9F7CA615434B0C8705F7CAA5606D23BA8E84F41278B93AC54100640439DE0BDB320004D43C63716C7C399D30917DCFBBA9CD9BA8469F5B156168B24CED3F7248AC8769F27244EB73B92EED8862C
310
B7F13E0C179B3C8F979C8ECD82BBBABDAA2BAC924E9558448CBD9330242CFA08E3154B5651FCC6D215639C8EE5774DBE2B5F6CF2B5768B68963BB5F5588420E442FC700B1139D4CB01F450C1E918227C2E09DF070D8140C84E1E9AAB8F1340832A9CB13130A5F1376A908D57309505ECF2A0DF179C4E9D30F5B239B87E3823
310
7A79C6F31DE1A8A5AEC08474B03C7837EAE4938639B44E5932B833D2C6B6B279CDC613877FA26EE21F4A2A4C63EC7F29A2F301D1F9F7A0E37D145F504B0304140006080800CC70623B9C113CC27E0000009D0000000B0000006662782F636E782E786D6C4DCCDF0A83201C86E15B91DFB94BFB330DD428C8FB886521330DA7
310
6397BF1A1DECE883878F57749FCDA1B7892F1BBC047A23808C7F84D9FA55424E0BE6803A256208E9EF06C84F9B91703228B1C690F78B66B34CD9A5439DF5CF0BFBF65E35BCA1B8D6A5C6F540381E886698B5741C695F9503EBA150A2F8958E3DC3EA0B504B0304140006080800CC70623B7DF2F77C2A010000120200003100
310
00006662782F41393633353835312D344632462D344230382D423046372D3739314545314133324237412F636F72652E786D6C8D51DB8EC22014FC15C2939B0D2DB4B45643319AE817EC0F6041255A68B86CFCFC856D4D76DF7CE190393373060EDB3DC707F856CE6B6B7A480A0C81328395DA5C7B18C3057510EC3873D686
310
3F34088C18550F330C39BB3A1BA7051AAC09CA84841A2BD5020AEF55806078A44B0FFD7053A328440C89E1EFC52486BBB8AA8214A99D789CF9E05200300FC927E4FB4D5B375D43103D5527440FB843077C5AA3F5861C8F645F5787F59E95B390B318B55CE45AA638FAA2957BD7248B390B7A7CC51F9C124149C82B8C378810
310
84AB2F42B7B8DD56F413775B8C5999E9FF4471926F8AA236A1AE96B8B3CC434E5839373893369E1FAF30EA395917409EB7F26AF8801C171837A4A6AC9C89E9F9C9B1A58BA30FD6A5EF5DDDCF894B9AD9B6A59C957943A9FCAE2FD5BC4DFE03504B0304140006080800CC70623BAD7543B64E01000033030000300000006662
310
782F41393633353835312D344632462D344230382D423046372D3739314545314133324237412F636E782E786D6CD593CD6EC32010845F0571AD6CE3D48AD20813A9873E410FBD12D82434182C7EAAE6EDBB2424CD25871E7B41D6EC30B3FA84F9E67BB2E40B4234DE8DB46F1925E094D7C6ED479AD3AE5951B2113C789FEE
310
6C943839C1488B4C05DF079FE72A69D8C96C13AAD6B8631503449F83828872B949AC57D26200B826A308D316B4064D6E46FCDA41C05550DC9E483A00797BFD207EFB092A45DE9514C1BBD22178396BD39D891265658C238DEA00936C654E5E433CB65A26D9F6EDB5EBC14EBF49A45CB856E66048291F6939A9A81BB5C89177
310
38143CA680F4AA299D66A042CEB3354A2684DC9D8D178FE0D9B8B41CAAD720F880EE7EF93C0C18769E099ECC04D5A102C8049A8A05632F4DDF376CF1DE0F6BB65C2F8627B65A33C6BB62177CEBBDAD973006829F89F22E814B54F4BC2BE347F8AA8F681390B50FA73F804400B5F542E796F19FF974E7F78DB802FE05E20750
310
4B0304140006080800CC70623BE75B7789680500003C100000340000006662782F41393633353835312D344632462D344230382D423046372D3739314545314133324237412F6F626A656374732E786D6CAD575B8F9B3818FD2B887D06C22499CB8AA1CA655245D5B455A356FB305264C061D8018C6C3393D95FBFC7600890
310
A4CD5EF210B0B1BFEBF98E3F7B1FF6596ABC522E1296DF9BAE3D320D9A872C4AF2F8DE2CE5CEBA358D0FBEC719939D65A691938CDE9B6ADAF4BD98B3B2D05311DD91329583D9D5FC0F438434A7A611A644887B5384CF34233629258BA878B12322891DEFF6B66BD70BFB62634E8AE781D082709A4B588AF91C528CDA28B73F
310
1C998EEF39EABBEFA97FBD6A7C7E9553F9D3D79FE442923C3C523610337627CB87ABE99D359D4CC6D6E4FACAB5E6ABF9D2726FC6A3C5F56271377BB88362213924694B38DD99FE47C48627A1E7D49F5A8BB5E1A74C0A599ED3B0F21F1E56366B89112D681E218F0915D0D6F17AD41FBA2A369DCF6335D62ABBD39779D5DDD1
310
11D4D8DE3CBB96B2E04FB8202E41051754A1AA8E8F76B4C6DFE810B580B1547F4B84911149794252234D024EF8BBE963A95AE27B3D310A9D5C215C7960FAEE415ED75694C6AFB17BCACA5D99A60A9AA65F217B0BFC53292ACB92BF283FAD0D3621576592CB5BED907C2FA8E9DF794E35E97BEA31BED21FEB401ABB94C44839
310
DCACBF0E1C5DA8DA5B2F4DFFD32AD86F543D9E565E7056502E157C00AD2671CD534549AB752FCA9CDA00677A313F04E51B22FF19E57B300579E3C97EB29F682D92935CEC18CF901B7B54FD8C51F362B56FC72FE0B3C1EAE335EDCCBF5AEC39ADB17DC238973F804BA5E6F6BFE7AF1FB32E523BE9F3BD571418E3631DCA4D48
310
5250CF639223210A9446CA30052EDF057BD35F8329C1ECD84552BF0DC8D18BE7BCE23BFE6BD960AB4A7DE79923A103BEBD80F911CBAA2C60DB19B01CF164A5583B772EE6D3FFA56666CBCDA74DC97724A48F9A58967497E489C4D979006FD7A05E227A1EBDD0F737C623387A9C844D3709995625106D157315F8B8392CD4E0
310
A0B9A720C4BE9829CEF37EA1E13111214D53925356365ADA634861B52519DD27A00AEB808EAF0628E6F435519D446F45CF2C9CF5214F0A15B2F6D06B79DA3EE3CBF7F56780D2F4E7EF73A0F5E5B02A38D07DC852C6B7C1FBB6664213E0C39E3EBA7FF4E1AD23EA2829407C85E586727488B751B2DB9502BC7B228A3FD68B6E
310
A65A22397E690AA8D158D7E404EC8CDA235CC3B7D1898680131CEC2CDF2638C65196279577750F15884AEE19F94199155B92B13297978469D4F8D358DF0AEF7631E28DC8F0D9F437D5D39A83B2231A1D52D543813A824EF8D44BCFF2FA6A31BD1E8DAD87F1CCB526B3879935BF59CDADD5C37479BB1CDD4CA7B3556B516589
310
EF352754B706114D9C885EC9131DE6EFEB43D99AFE2391C2F958179413D7CFEF6B1B6DB1E7600F00DE6E5C67454A339A4BA2E0FBA85ED26F045D454F463DBFCE484C2F90F2E5E3666003662ED8F755951A7D1BECD5B30B550B2785C8E7320B7292A4838DDA71BBC863ED7613CAF659337A3354231D4FF4A182A54904C2898C
310
98B28C4AD0CE056CCF332A80986E571EE9DBC305BB5FEB7E509220A58D25CF042D712A806AC0AD0C657FDEF80D2D9CEAA2EE4D1C76F60BFE74219A06527D6F82DF6412526107381E55E353090704D085B52408A8913C4ED159D79BDA71BB4BC506F4831350EB6F975CD22D69BF7AC49B91A2C0A9DDA3D5CA36AD20FC478E37
310
E61844E2352865EBCB61A275A65283CAAA9DD27703B4102F5AF51EF5F573B75CBB5AD38BC845F7A49F82A0966A49C2E3EA5EA0ECD326CD965F1DB402C6FA8B51A4658C5C5E2EC9E214602E55810345408596591009A82E7E7FFACA19EEA299B14A0081A705CB3296EBC14CDF658DCD336EA6D1136881AAEB87B81AB9EE53D5
310
F5EB8BC8362082DA24122F98680A4E7930C01A0079749CEA14382A0783E5EBA5A10F8C098456A03D6A4AEB6BB881E2513747552A5DB22C7EDAF83BD5528081A365F7FF06504B0304140006080000CC70623B000000000000000000000000350000006662782F41393633353835312D344632462D344230382D423046372D37
310
39314545314133324237412F76657274696365732E62696E504B0304140006080800CC70623BF270F1330600000004000000360000006662782F41393633353835312D344632462D344230382D423046372D3739314545314133324237412F747269616E676C65732E62696E636660600000504B0304140006080000CC7062
310
3B000000000000000000000000370000006662782F41393633353835312D344632462D344230382D423046372D3739314545314133324237412F617474726962757465732E62696E504B0304140006080800CC70623B08DA0BD19000000041010000360000006662782F41393633353835312D344632462D344230382D4230
310
46372D3739314545314133324237412F6469726563746F72792E786D6C858F410AC3201045AF22B36F53E9A60B35CBEEBAE80D244E44489C6234F4F835464A48035D0DF398FF9F8AF63D0E6CC63039F212F8F9020C7D47C6792B21C5FE7403D62A1188E2E60C98D7234A5830286103A55745067B9D86B8A3CF9C7F90C11DE6
310
07FB144396D7B6A82D282E9A152AD114D5EF2CB866EEE831B8EEA07A7BB5A8D7D61A2BAAEB7FD5F70921FF497D00504B0304140006080800CC70623BEDD1DC58FD000000A00100003B0000006662782F41393633353835312D344632462D344230382D423046372D3739314545314133324237412F7265736F75726365732F
310
636F72652E786D6C8D504B6E833010BD0A9A6D65B00922041947112427E8052C33A156828DFCA97AFC9A40A576D7CDCCE87D344F8F9FBFE667F689CE6B6B3A6039850C8DB2A336530731DC4903D95970676DF82583CCC8193B5861107C72362E3BA4AC096842428D1D7107A5F7182053CF7474E0D507CE32973124857FE48B
310
540F3961CEF244279DE03EB81420DB9EAC1384436FA353E879B1B182C7A8C75DA3C7F453DF353A1075D537A7BA6464B8F535A99AE14A9A2BBD90E350DD183B5CFABE3AF262350B1EF4FC9351399401471025A527C218A1E53BAB5A5AB765F5469B96525EACF23FA6B88CFF34456DC2A1DCE36E360F82A5202F42F062ED2BAD
310
579969AFDD8A6F504B010214000A0000080000CC70623B3DEE336E79000000790000001B00000000000000000000000000000000006175746F6465736B2D64657369676E2D7061636B6167652E786D6C504B01021400140006080800CC70623BD486FD9CA0000000F40000001300000000000000000000000000B20000005B
310
436F6E74656E745F54797065735D2E786D6C504B01021400140006080800CC70623B853B8169EB0000007C010000080000000000000000000000000083010000636F72652E786D6C504B01021400140006080800CC70623B55019EA25F0000007C000000070000000000000000000000000094020000636E782E786D6C504B
310
01021400140006080800CC70623BDBABAAF470010000D40300000C00000000000000000000000000180300006662782F636F72652E786D6C504B01021400140006080800CC70623B9C113CC27E0000009D0000000B00000000000000000000000000B20400006662782F636E782E786D6C504B01021400140006080800CC70
310
623B7DF2F77C2A010000120200003100000000000000000000000000590500006662782F41393633353835312D344632462D344230382D423046372D3739314545314133324237412F636F72652E786D6C504B01021400140006080800CC70623BAD7543B64E010000330300003000000000000000000000000000D2060000
310
6662782F41393633353835312D344632462D344230382D423046372D3739314545314133324237412F636E782E786D6C504B01021400140006080800CC70623BE75B7789680500003C10000034000000000000000000000000006E0800006662782F41393633353835312D344632462D344230382D423046372D3739314545
310
314133324237412F6F626A656374732E786D6C504B01021400140006080000CC70623B0000000000000000000000003500000000000000000000000000280E00006662782F41393633353835312D344632462D344230382D423046372D3739314545314133324237412F76657274696365732E62696E504B01021400140006
310
080800CC70623BF270F133060000000400000036000000000000000000000000007B0E00006662782F41393633353835312D344632462D344230382D423046372D3739314545314133324237412F747269616E676C65732E62696E504B01021400140006080000CC70623B0000000000000000000000003700000000000000
310
000000000000D50E00006662782F41393633353835312D344632462D344230382D423046372D3739314545314133324237412F617474726962757465732E62696E504B01021400140006080800CC70623B08DA0BD1900000004101000036000000000000000000000000002A0F00006662782F41393633353835312D344632
310
462D344230382D423046372D3739314545314133324237412F6469726563746F72792E786D6C504B01021400140006080800CC70623BEDD1DC58FD000000A00100003B000000000000000000000000000E1000006662782F41393633353835312D344632462D344230382D423046372D3739314545314133324237412F7265
310
736F75726365732F636F72652E786D6C504B0506000000000E000E0080040000641100000000
  0
XRECORD
  5
1F8
102
{ACAD_REACTORS
330
1F7
102
}
330
1F7
100
AcDbXrecord
280
     1
 70
     1
 90
429727718
  1
30362254-06B7-45E0-A893-8CFA70E3D6BC
310
504B03040A0000080000CC70623B3DEE336E79000000790000001B0000006175746F6465736B2D64657369676E2D7061636B6167652E786D6C3C3F786D6C2076657273696F6E3D22312E302220656E636F64696E673D227574662D3822203F3E3C666F726D6174733E3C666F726D61743E687474703A2F2F736368656D612E
310
6175746F6465736B2E636F6D2F64657369676E2D7061636B6167652F323030393C2F666F726D61743E3C2F666F726D6174733E504B0304140006080800CC70623BD486FD9CA0000000F4000000130000005B436F6E74656E745F54797065735D2E786D6C7D8EC10E82300C865F65E91D8A1E8C310C0EEA1BF002731658846E
310
D98AC1B77784ABF1D8FE5FBFBF75BBCE937A534CCEB38643598122B6FEE978D0B0485F9C41B54DDD7D022595594E1A469170414C76A4D9A4D207E29CF43ECE46F218070CC6BECC4078ACAA135ACF422C856C0E68EA1BF5669944DDD7BCDE7B1F8E415D77AECB980613C2E4AC91FC167A2B244592486606FC29C8FD7F045B9A
310
EF7053A7E60B504B0304140006080800CC70623B1EC5D7A3EB0000007C01000008000000636F72652E786D6C8D90416EC3201045AF82665B6103C6756C6122AB4D4ED00B204C5C94182C03558F5F9C3852BBEB6A467FFE9B197D71FC9E6FE8CBACC17AD7032D0820E3B41FAD9B7A48F1820F808E52ACDEC75F36404ECDA687
310
4D0629A6D5A76597B477D1B89855E747B38B2A041301E95B6E7A08FAD3CCAA50296647B8168BD2573599823EBB0CA76447F43862C7BCCF5EAC59410E4DDD9C7973C2755553CCCFA4C603E3040F1565ED3B1FDE4E432BCA0D9622DAF9795FAF464533826484B498524CD807E51D79ED187F21878E10516EF63F505AC67F42C9
310
BA58B1FDDD071640D2FCC87D2045B96591CB3DA85CB7DCE40F504B0304140006080800CC70623B55019EA25F0000007C00000007000000636E782E786D6C4DCB3B0E80201045D1AD90E915ED2CF8AC45050C11660C8261F98AB1B07AC9C97D42D718D865D3E909258CFD00CCE24AC6E326A164D74DC0B4128928FF32603847
310
2BA13128B1252AC747C6BAB984FC68F0B87FE8960A5C09FE86CFB69FBA01504B0304140006080800CC70623B8C9102E971010000D40300000C0000006662782F636F72652E786D6CC5535B6E833010BC8AE5DF0A6C08340F1947A84D4ED00B38C6A128602363A31CBFCB234A53A551FA553EC09AD9F5CE8C31DB9E9B1AF5CA
310
7695D1198E428A91D2D214952E33ECDD315861B4E5CC1AE3BE9561A445A3323CC098B3D21ADFCE9034DA29ED00D5A6503328BA4E398C640D8B0C77F253352214DE4145770A5B214FA2546114020D759C75CE8200340D19DE981F0F6746269C33EFAB6266AB02A655C74A59CCF365BADC27CB5D902ED22848F6340DF238A141
310
BE88E2F57B92BFEDF23523433367AE6A2EEAA455C2A902F398D2751045018D3FA264435F3771F242571B4A1919CA6F9A7C5B3CD9E42BED16F12C776AEB308F40C848FC700B1139D4891EF410CEC810227CC6846F8386402064270EF5C5C709A05E49676C024C61FC95EA45ED154CA5211D1FF4FB8291A913A68E9B83EBBB33
310
E2A7673CDE118E5AE8124C0807CB8377834E366998436B950D7A7746DAD846D4CFD978E0F04FD455FC5D49D2D4C6FE9722321F10997F0F32DC47FE05504B0304140006080800CC70623BFFEA85907E0000009D0000000B0000006662782F636E782E786D6C4DCCD10A83201886E15B91FFDC95D95A811AB6F23E625948A6C3
310
E9D8E5AF46073BFAE0E1E365ED67B3E8ADC3CB78C7815C7240DA3DFC64DCC221C519D7805AC182F7F1EF06C88D9BE6703008B6049F9E274D7A1E938DBB5AE3D6131B2589BA0D3D965551E0B2EA732C9B9A624AAEB41E3A557677029960D9AFB4EF11165F504B0304140006080800CC70623B4FEEA4082C0100001202000031
310
0000006662782F39464131463745442D413632322D343644302D413938332D3331353338454246344243312F636F72652E786D6C8D515B6EC32010BC0AE2AB55850DD871ED0813254D72825EC00192A2C460F1A872FC42ED48ED5F7E00CDCECCCEB26C731F6FE05B39AFADE921293004CA082BB5B9F43086336A21D870E6AC
310
0D7F68109861543DCC30E4ECE26C9C164858139409093556AA051CBC570102714B8F1E7AF1A5C6A11862480C7F2DA6415C878B2A4891CA89C7990F2E050073937C42DE1DB7E4F87ED8A36D4329AA9B3D46DBAEAD504556557BD81DEBDD0761E52CE42C462D17B996298E3E6BE59E35C962CE821E1FF18553435012728A7187
310
0841987E927A8D9B35ADDF70BBC6989599FE4F1427F9A4286A132ABAC49D651EF234CD5CE04CDA78BA3DC2A8FB645D00B9DF8B57E215725C60BCA2A463E54C4CE327C7A65E1C7DB02E7DEFCBF594B864C5CA6CDBD49C957943E9FA5D5FBAF336F90F504B0304140006080800CC70623BAD7543B64E01000033030000300000
310
006662782F39464131463745442D413632322D343644302D413938332D3331353338454246344243312F636E782E786D6CD593CD6EC32010845F0571AD6CE3D48AD20813A9873E410FBD12D82434182C7EAAE6EDBB2424CD25871E7B41D6EC30B3FA84F9E67BB2E40B4234DE8DB46F1925E094D7C6ED479AD3AE5951B2113C
310
789FEE6C943839C1488B4C05DF079FE72A69D8C96C13AAD6B8631503449F83828872B949AC57D26200B826A308D316B4064D6E46FCDA41C05550DC9E483A00797BFD207EFB092A45DE9514C1BBD22178396BD39D891265658C238DEA00936C654E5E433CB65A26D9F6EDB5EBC14EBF49A45CB856E66048291F6939A9A81BB5
310
C8917738143CA680F4AA299D66A042CEB3354A2684DC9D8D178FE0D9B8B41CAAD720F880EE7EF93C0C18769E099ECC04D5A102C8049A8A05632F4DDF376CF1DE0F6BB65C2F8627B65A33C6BB62177CEBBDAD973006829F89F22E814B54F4BC2BE347F8AA8F681390B50FA73F804400B5F542E796F19FF974E7F78DB802FE05
310
E207504B0304140006080800CC70623B16AB87BA640500003C100000340000006662782F39464131463745442D413632322D343644302D413938332D3331353338454246344243312F6F626A656374732E786D6CAD575B6FA33818FD2B887DE6924B3BED8A326A92B68A663B534DD4D13E548A0C38942D60649B369D5FBFC7
310
600890A493BDE42160637FD7F31D7FF63E6FB3D478A55C242CBF3247B66B1A340F5994E4F19559CA8D75611A9F7D8F33263BCB4C232719BD32D5B4E97B316765A1A722BA21652A07B3B7B33F0D11D29C9A46981221AE4C113ED38CD8A4942CA2E2C58E882476BCD9DA23BB5ED8171B73523C0F841684D35CC252CCE79062D4
310
468DFA43D7747CCF51DF7D4FFDEB5593E3AB9CCA9FBEFE241792E4E19EB28198C968BAB8199F5D5A67D3E9C49A9E8F47D6EC76B6B0469F26EEFC7C3EBFBCBEB98462213924694B38DD98FE1D62C393D073EA4FADC5DAF04326852CCF6958F90F0F2B9BB5C48816348F90C7840A68EB78EDF68723159BCEE7891A6B95DDE9D3
310
BCEAEEE8086A6C6F9E5D4B59F0175C10A7A0820BAA5055C7473B5AE3CFDD452D602CD5DF12616444529E90D448938013FE6EFA58AA96F85E4F8C42275708571E98FE6827AF6B2B4AE3D7D83D64E5A64C53054DD3AF90BD06FEA9149565C94FCA0F6B834DC85599E4F2423B24DF0B6AFA979E534DFA9E7A4CC6FA631D486393
310
921829879BF5D781A373557BCB85E97FB90DB62B558F8795179C15944B051F40AB495CF35451D26A4727654E6D8033BD98EF82F21D91FF8AF2DD9982BCF1643BDD4EB516C9492E368C67C88DED563FC36D5EACF66DFF057C3658BDBFA69DF9578B3DA735B64F18C7F20770A9D45CFCF7FCF563D6456A277DBEF78A02637CA2
310
43B90A490AEAB94F72244481D24819A6C0E59B606BFA4B3025981DBB48EAB701D97BF19C577CC77F2D1B6C55A9EF3C732474C0B727303F625995056C3B02963D9EAC146BE78EC5FCEC7FA999EBC5EACBAAE41B12D27B4D2C0BBA49F244E2ECDC81B76B502F113D8F5EE8FB1BE3111CDD4FC2AA9B844CAB1288B68AB90A7CDC
310
1C166AB0D3DC5310625FCC14E779BFD0709F8890A629C9292B1B2DED31A4B0DA928CEE135085754027E3018A397D4D5427D15BD1330B677DC8934285AC3DF45A9EB68FF8F2B8FC0A509AFEECFD0FF2DE25CC6047F7214B195F07EFEB9A094D800F7BFAE8FED187B78EA8A3A400F115961BCAD1215E47C966530AF0EE8128FE
310
58CEBB996A8964FFA529A046635D9353B0336A8F700DDF46271A024E70B0B37C9DE01847591E54DED53D54202AB947E4076556AC49C6CA5C9E1226B7F1A7B1BE15DEED62C41B91E1B3E9AFAAA735036547343A925075041DF0A9979E893B391F8FCFA6967B3EFB644DCF6E5CEBFAE272625DCC6FAF3FB93793C5F90CE1EF57
310
407342756B10D1C489E8953CD1617E5CEECAD6F4EF8914CE5D5D504E5C3F1F9736DA62CFC11E00BCDDB8CC8A9466349744C1F75EBDA4DF09BA8A9E8C7A7E9991989E20E5DBDD6A6003664ED8F7A04A8DBE0DF6EAD9B9AA858342E47399053949D2C146EDB85DE4B176BB0965FBAC19BD19AA918E27FA50C1D22402E144464C
310
59462568E704B6E71915404CB72B8FF4EDE184DDAF753F284990D2C6926782963815403548A70C657FDEF80D2D9CEAA2AE4C1C76F60BFE74219A06527D6582DF6412526107381E55E353090704D085B52408D0933C4ED159D79BDA71BB4BC506F4831350EB6F979CD22D69BF7AC49B91A2C0A9DDA3D5CA36AD20FC478E37E6
310
1844E2352865EBCB6EA275A652E3836BE04EFB400BF1A2556F515F1FBB35B2AB35BD889C744FFA1004B5544B121E57F70215746DD2F5E2C1412B602CBF19455AC6C8E5E9922C4E01E65215385004546899059180EAFCF7A707CE7017CD8CDB0410789AB32C63B91E5CEBBBACB17AC6CD347A022D5075FD106377347AAABA7E
310
7D11590744509B44E205134DC1290F06580320F78E537D3D73540E06CB970B431F185308AD40BBD794D6D77003C5A36E8EAA54BA64597CD8F83BD552A080A365F7FF06504B0304140006080000CC70623B000000000000000000000000350000006662782F39464131463745442D413632322D343644302D413938332D3331
310
353338454246344243312F76657274696365732E62696E504B0304140006080800CC70623BF270F1330600000004000000360000006662782F39464131463745442D413632322D343644302D413938332D3331353338454246344243312F747269616E676C65732E62696E636660600000504B0304140006080000CC70623B
310
000000000000000000000000370000006662782F39464131463745442D413632322D343644302D413938332D3331353338454246344243312F617474726962757465732E62696E504B0304140006080800CC70623B08DA0BD19000000041010000360000006662782F39464131463745442D413632322D343644302D413938
310
332D3331353338454246344243312F6469726563746F72792E786D6C858F410AC3201045AF22B36F53E9A60B35CBEEBAE80D244E44489C6234F4F835464A48035D0DF398FF9F8AF63D0E6CC63039F212F8F9020C7D47C6792B21C5FE7403D62A1188E2E60C98D7234A5830286103A55745067B9D86B8A3CF9C7F90C11DE607
310
FB144396D7B6A82D282E9A152AD114D5EF2CB866EEE831B8EEA07A7BB5A8D7D61A2BAAEB7FD5F70921FF497D00504B0304140006080800CC70623B0D6EF93BFE000000A00100003B0000006662782F39464131463745442D413632322D343644302D413938332D3331353338454246344243312F7265736F75726365732F63
310
6F72652E786D6C8D50596E833010BD0A9ADFCA60B334011947A8694ED00B586642AC041B79A97AFC9A40A5F6AF3F33A3B7689E1E3F7DCD8FEC139DD7D6F4C0720A191A65476DA61E62B892236427C19DB5E1970C322367EC618541F0C9D9B8EC90B226A009093576C41D94DE63804C3DD2D18357379C652E63480A7FCF17A9
310
EE72C29CE5894E3AC17D702940B63D59270887DE46A7D0F36263058F518FBB468FE9A7BE6A7420864373B8D4873369AA8691FA421B3294352543C5CAF65C0F6FEF43CB8BD52C78D0F34F46E550061C419494B6843142CB0F5677F4B52BEB177AEC28E5C52AFF638ACBF84F53D42654E51E77B379102C05791282176B5F693D
310
CB4C7BED567C03504B010214000A0000080000CC70623B3DEE336E79000000790000001B00000000000000000000000000000000006175746F6465736B2D64657369676E2D7061636B6167652E786D6C504B01021400140006080800CC70623BD486FD9CA0000000F40000001300000000000000000000000000B20000005B
310
436F6E74656E745F54797065735D2E786D6C504B01021400140006080800CC70623B1EC5D7A3EB0000007C010000080000000000000000000000000083010000636F72652E786D6C504B01021400140006080800CC70623B55019EA25F0000007C000000070000000000000000000000000094020000636E782E786D6C504B
310
01021400140006080800CC70623B8C9102E971010000D40300000C00000000000000000000000000180300006662782F636F72652E786D6C504B01021400140006080800CC70623BFFEA85907E0000009D0000000B00000000000000000000000000B30400006662782F636E782E786D6C504B01021400140006080800CC70
310
623B4FEEA4082C0100001202000031000000000000000000000000005A0500006662782F39464131463745442D413632322D343644302D413938332D3331353338454246344243312F636F72652E786D6C504B01021400140006080800CC70623BAD7543B64E010000330300003000000000000000000000000000D5060000
310
6662782F39464131463745442D413632322D343644302D413938332D3331353338454246344243312F636E782E786D6C504B01021400140006080800CC70623B16AB87BA640500003C1000003400000000000000000000000000710800006662782F39464131463745442D413632322D343644302D413938332D3331353338
310
454246344243312F6F626A656374732E786D6C504B01021400140006080000CC70623B0000000000000000000000003500000000000000000000000000270E00006662782F39464131463745442D413632322D343644302D413938332D3331353338454246344243312F76657274696365732E62696E504B01021400140006
310
080800CC70623BF270F133060000000400000036000000000000000000000000007A0E00006662782F39464131463745442D413632322D343644302D413938332D3331353338454246344243312F747269616E676C65732E62696E504B01021400140006080000CC70623B0000000000000000000000003700000000000000
310
000000000000D40E00006662782F39464131463745442D413632322D343644302D413938332D3331353338454246344243312F617474726962757465732E62696E504B01021400140006080800CC70623B08DA0BD190000000410100003600000000000000000000000000290F00006662782F39464131463745442D413632
310
322D343644302D413938332D3331353338454246344243312F6469726563746F72792E786D6C504B01021400140006080800CC70623B0D6EF93BFE000000A00100003B000000000000000000000000000D1000006662782F39464131463745442D413632322D343644302D413938332D3331353338454246344243312F7265
310
736F75726365732F636F72652E786D6C504B0506000000000E000E0080040000641100000000
  0
XRECORD
  5
175
102
{ACAD_REACTORS
330
173
102
}
330
173
100
AcDbXrecord
280
     1
270
     1
271
     1
  0
XRECORD
  5
174
102
{ACAD_REACTORS
330
173
102
}
330
173
100
AcDbXrecord
280
     1
270
     1
271
     1
  0
XRECORD
  5
1FB
102
{ACAD_REACTORS
330
173
102
}
330
173
100
AcDbXrecord
280
     1
 70
     0
 90
1673772943
  1
ECE7A1D2-D628-4531-984C-D00F80459256
310
504B03040A0000080000CC70623B3DEE336E79000000790000001B0000006175746F6465736B2D64657369676E2D7061636B6167652E786D6C3C3F786D6C2076657273696F6E3D22312E302220656E636F64696E673D227574662D3822203F3E3C666F726D6174733E3C666F726D61743E687474703A2F2F736368656D612E
310
6175746F6465736B2E636F6D2F64657369676E2D7061636B6167652F323030393C2F666F726D61743E3C2F666F726D6174733E504B0304140006080800CC70623BD486FD9CA0000000F4000000130000005B436F6E74656E745F54797065735D2E786D6C7D8EC10E82300C865F65E91D8A1E8C310C0EEA1BF002731658846E
310
D98AC1B77784ABF1D8FE5FBFBF75BBCE937A534CCEB38643598122B6FEE978D0B0485F9C41B54DDD7D022595594E1A469170414C76A4D9A4D207E29CF43ECE46F218070CC6BECC4078ACAA135ACF422C856C0E68EA1BF5669944DDD7BCDE7B1F8E415D77AECB980613C2E4AC91FC167A2B244592486606FC29C8FD7F045B9A
310
EF7053A7E60B504B0304140006080800CC70623BD9DDAED0EC0000007C01000008000000636F72652E786D6C8D90416EC3201045AF82665B61836D9CD8C2444DD39CA01740405C94182C03558F5F9C3852BBEB6A467FFE9B197D7EF89E6EE8CB2CC17A37002D0820E394D7D68D03A478C17B4007C117EFE32F1B20272733C0
310
2A83E0E3E2D3BC49CABB685CCCAAF3DA6CA20CC14440EA969B0182FA34932C648AD911AEC52CD5558EA6A0CF2EC329598D1E47ACCEFBECC59A050463A7EA5833865FEBDD0E37353BE3EE8DBDE3F6786A48D375FBF6CC78B9C282473B3DEFABC5C86834888A900E538A49F5419B9EB47DD5BC907D4F082F57FB1F28CDFA9F50
310
B22ED6D5F6EE030B20687EE43E10BC5CB3C8E51E54AE6B6EE207504B0304140006080800CC70623B55019EA25F0000007C00000007000000636E782E786D6C4DCB3B0E80201045D1AD90E915ED2CF8AC45050C11660C8261F98AB1B07AC9C97D42D718D865D3E909258CFD00CCE24AC6E326A164D74DC0B4128928FF326038
310
472BA13128B1252AC747C6BAB984FC68F0B87FE8960A5C09FE86CFB69FBA01504B0304140006080800CC70623BA24EB22D72010000D40300000C0000006662782F636F72652E786D6CC5535B6E833010BC8AE5DF0A6C5E49888CA3A6694ED00B38E05014B091B1518EDFE511A5A9D228FD2A1F60CDEC7A67C6986DCE4D8D7A
310
69BA4AAB0C073EC548AA5C17952A33ECECD15B61B4E1CC686DBF9561A44423333CC098B3D268D7CE50AE9595CA02AA74216750749DB418E5352C32DCE59FB211BE70162ABA93DF8AFC244AE9073ED050C759670D0840D390E18DF9F1706664C23973AE2A66B62A605A75ACA4C13C4976E1364A12EF355A2EBD384AF65EFA96
310
BC7B8BED2EA6719AAE16FB8491A199335B351775B991C2CA02F390D2D40B028F861F41BCA68B7518BFD0D59A524686F29B26D7164F36B94AD9289CE54E6D1DE6010819891F6E21228B3AD1831EC219194284CF98F06DD01008846CC5A1BEF83801D4CBDC6A1303536877A57A513B0953A94FC707FDBE6064EA84A9E3E6E0FA
310
EE8CF0E9198F7784A316AA0413C2C2F2E0ECA0934D1AE6D05A69BCDE9E91D2A611F573361E38FC1375157F5752AE6B6DFE4B11990F88CCBF0719EE23FF02504B0304140006080800CC70623B408A7D3B7C0000009D0000000B0000006662782F636E782E786D6C4DCCD10A83201886E15B91FFDC552A92A0064DBC8F581632
310
D3703A76F9ABD1C18E3E78F878E5F0D9027ABBFCF2292AE86E2D20171F69F6715550CB827B40839639A5F2770314A7CD293819B45C73AAFB45B35BA61ACAA1C1C7E7855C58C15BC331339661262CC762340413D68D77DA5B42298546CBE6573AF60CEB2F504B0304140006080800CC70623B449FB9BD290100001202000031
310
0000006662782F36394639363044362D344446342D343946362D394244322D3234314243333846323333332F636F72652E786D6C8D515B6EC32010BC0AE22B55850D98B871848994463E412FE002495162B07854397EA176A4F62F3F2C9A9D991D587EB84F37F0AD7D30CEF6905418026DA553C65E7A98E219ED203808EE9D
310
8B7F6810D871D23D2C3014FCE25D9A57483A1BB58D19B54EE9151C43D0110279CB971E06F9A5A7B11A53CC8C70ADE6515EC78BAE4895DB992778883E0700CB907242D17643D7E2538BD869608875438BBAE38922CAC8F1BDD90DB4691A5E2F42C153326A951B95E398B3D1FE599322163C9AE9115F7A3D46ADA0A018778810
310
84E907617BDCEE297BC5BB3DC6BC2EF47FA234AB2745C9D8D8D035EE220B50105E2F0DC1954B9FB747187D9F9D8FA0CCDB042D5FA0C015C65B42DF78BD10F3F3B363CB56C7109DCFDFBBB97E662ED92EB62D13BC2E1BCAE5777DB9966D8A1F504B0304140006080800CC70623BAD7543B64E01000033030000300000006662
310
782F36394639363044362D344446342D343946362D394244322D3234314243333846323333332F636E782E786D6CD593CD6EC32010845F0571AD6CE3D48AD20813A9873E410FBD12D82434182C7EAAE6EDBB2424CD25871E7B41D6EC30B3FA84F9E67BB2E40B4234DE8DB46F1925E094D7C6ED479AD3AE5951B2113C789FEE
310
6C943839C1488B4C05DF079FE72A69D8C96C13AAD6B8631503449F83828872B949AC57D26200B826A308D316B4064D6E46FCDA41C05550DC9E483A00797BFD207EFB092A45DE9514C1BBD22178396BD39D891265658C238DEA00936C654E5E433CB65A26D9F6EDB5EBC14EBF49A45CB856E66048291F6939A9A81BB5C89177
310
38143CA680F4AA299D66A042CEB3354A2684DC9D8D178FE0D9B8B41CAAD720F880EE7EF93C0C18769E099ECC04D5A102C8049A8A05632F4DDF376CF1DE0F6BB65C2F8627B65A33C6BB62177CEBBDAD973006829F89F22E814B54F4BC2BE347F8AA8F681390B50FA73F804400B5F542E796F19FF974E7F78DB802FE05E20750
310
4B0304140006080800CC70623B8D05915C650500003B100000340000006662782F36394639363044362D344446342D343946362D394244322D3234314243333846323333332F6F626A656374732E786D6CAD575B6FA33814FE2B887D06429276DA1565D4266D158D3A339A6846FB502932E050B66023DB74D2FDF5FB190C01
310
9276B2973C046C8ECFF53B17071F77456EBD502133CEAE6CDF9DD81665314F32965ED995DA3A17B6F5310C04E7AA47665B8C14F4CAD6DB7618A48257A5D94AE89654B91AEDDEDDFC61C998326A5B714EA4BCB265FC440BE2924AF184CA6737218AB8E976E7FA6E4338649B0A523E8D98964450A6A029F619B8588D52FE7039
310
B1BD30F0F4F730D0FF866AF6369557DB33949F31A9088B0F848DD8CCFCF9F2767A76E99CCDE733677E3EF59D9BBB9BA5E37F984D16E78BC5E5F5ED25044B25C0C96822E8D60EEFE11B91C581D77CEA34368A1F5329E68CD1B8B61F16D63A1B8E092D294B10C78C4A48EB593D192E7DED9BDEE7995E1B91FDEDD3ACEA9FE831
310
6A756F9F7D4D79F4274C90A7A04248AA51D5F8C718DAE06FB2F75AC4796EBE65D22A88A22223B995679120E2D50E41AA49C260C046A35368846B0BECD0DFF3EBEB8AD4F835768F69B9ADF25C43D30E6B646F807FAA64AD59F61715C7A54127C4AACA98BA3006A9D792DAE165E0D59B61A01FB3A9F9D838D2DAE62445C86166
310
F37564E842E7DE6A69879FEEA2DD5AE7E371E1A5E025154AC307D06A03D73EB5978C58FFA4C8E9033066E0F3BD53BEC1F39F91BE7B55103791EDE6BBB991A2046172CB4581D8B893FA674DDA17A77B3B7C413D1B511FD2743BFF8A38F03A658705E3ADF8015C3A3417FF3D7E439FF591DA0B5F18BC20C1B8981957AE6392A3
310
F43C640C01D1A0B4728E2DD4F26DB4B3C3152A252A3B4E913CEC1C72F012782FF88EFF8637AA552DBEF76408E8A8DE9E50F9E1CB3A2DA0DB1B6039A893B56063DC5B3E3FFB5F72E67AB9FEB4AEC496C4F4C1149625DD662C53E89D7BF0F6151A046260D1337DFDC94502430F83B0EE07A130A224BCAD7DAE1D9FB6CD422FF6
310
920702629C4BB9AE79C12F243C6432A6794E18E5552BA56B431AAB5D91317302B2B071E86C3A42B1A02F999E24061403B5D0EB639195DA655DD3EBEAB4FB862DDF579F014AD0E73C22F99E28DA57FB98E75C6CA2D74D53086D600F4786E0FE3144B771A8A7B900F03594DB8A633CBC49B2EDB69228BB479CF863B5E807AAAB
310
23872F6DFEB4129B949CA33823F58830E86D65621E10047D9DB34D862E8EAC3C2ABC2F7B2C40D67CDFE01F5545B92105AF983AC54D93D69E56FB8E797F88913F898A9FEC705D3F9D1B54EC8426FB500D40A03BD0119B06E1B95DDC7EB8F6975367793EBD70E66733DFB9BC982F9CE564727731999F5D4ECFCE3B8D6A4DC2A0
310
6D50FD148437D110834A64C6CDDF57FBACB5C307A2A477DFE4939736CFEF2B175371E0E10CF0DD1D5C15654E0BCA14D1E87DD02FF93782A162C0A3D95F1524A52770F972BF1EE9809D13CE7DD599467F8ECE9ADD85CE85A34CD45355448C64F9E8A031DC2D596ACC6E5DD93D9B82DE2EF5CAF81363A8E47996A0DE24564A79
310
4115AACE09C55E14540231FDA13C319787134EBF34E3A022514E5B4D9E0826E25C02D5805B15ABE1BEF51B26383D445DD9E875EE33FE4C22DA16427D65A3BCA92CA6D28DD01DF5DC53330704308475351050232CCD31583787BA75774AFB06E5070DD0C8EF484E19968C5D83BA5B90B244D31E54D55A372320FE4786B7EA58
310
44E135AA5467CB7EA333A61683CC6A8C3257034C10CF46F40EF9F5BE59BE5BD30C3C72D235E95D10345C1D45445A5F0BB47E46A5EBE5570F9380B5FA629579952296A773720405982B9DE04011506178964401AA8BDF1FBF0A8EAB6861DD6580C0E38217056766716DAEB2D6FA0917D3E4116581EADB879C4E7CFFB11EFACD
310
3D641311495D92C8676CB409A72D18610D803CE8A626049E8EC1887CB5B44CC39883690DDA8399B4B9855B481E7D71D4A9D22F96E5BB73BF5793020C02137BF837504B0304140006080000CC70623B000000000000000000000000350000006662782F36394639363044362D344446342D343946362D394244322D32343142
310
43333846323333332F76657274696365732E62696E504B0304140006080800CC70623BF270F1330600000004000000360000006662782F36394639363044362D344446342D343946362D394244322D3234314243333846323333332F747269616E676C65732E62696E636660600000504B0304140006080000CC70623B0000
310
00000000000000000000370000006662782F36394639363044362D344446342D343946362D394244322D3234314243333846323333332F617474726962757465732E62696E504B0304140006080800CC70623B08DA0BD19000000041010000360000006662782F36394639363044362D344446342D343946362D394244322D
310
3234314243333846323333332F6469726563746F72792E786D6C858F410AC3201045AF22B36F53E9A60B35CBEEBAE80D244E44489C6234F4F835464A48035D0DF398FF9F8AF63D0E6CC63039F212F8F9020C7D47C6792B21C5FE7403D62A1188E2E60C98D7234A5830286103A55745067B9D86B8A3CF9C7F90C11DE607FB14
310
4396D7B6A82D282E9A152AD114D5EF2CB866EEE831B8EEA07A7BB5A8D7D61A2BAAEB7FD5F70921FF497D00504B0304140006080800CC70623BCA768048FE000000A00100003B0000006662782F36394639363044362D344446342D343946362D394244322D3234314243333846323333332F7265736F75726365732F636F72
310
652E786D6C8D50596E833010BD0A9ADFCA60D600328E9AA639412F609909B1126CE4A5EAF16B0295DABFFECC8CDEA2797AECF8353F924FB44E193D409E5248504B332A3D0D10FC95B4901C39B3C6F85F3248B49871801506CE266BC2B243D2688FDA47549B11775038871E12F988C7004EDE7016A9083E2ADC3D5D84BC8B09
310
D33C8D74D471E6BC8D0192EDC93A815B742658898E651BCB59086ADC356A8C3FD555A1055ED7E7E254D615792D0F075295F585746FF53B694EE78A565DD736979A65AB9933AFE69F8CD2A2F038022F28ED489E135A7CE4554F9BBEA85E68DB53CAB255FEC71496F19FA6A0B42F8B3DEE6673C0F318E4497096AD7DC5F52C33
310
EEB55BFE0D504B010214000A0000080000CC70623B3DEE336E79000000790000001B00000000000000000000000000000000006175746F6465736B2D64657369676E2D7061636B6167652E786D6C504B01021400140006080800CC70623BD486FD9CA0000000F40000001300000000000000000000000000B20000005B436F
310
6E74656E745F54797065735D2E786D6C504B01021400140006080800CC70623BD9DDAED0EC0000007C010000080000000000000000000000000083010000636F72652E786D6C504B01021400140006080800CC70623B55019EA25F0000007C000000070000000000000000000000000095020000636E782E786D6C504B0102
310
1400140006080800CC70623BA24EB22D72010000D40300000C00000000000000000000000000190300006662782F636F72652E786D6C504B01021400140006080800CC70623B408A7D3B7C0000009D0000000B00000000000000000000000000B50400006662782F636E782E786D6C504B01021400140006080800CC70623B
310
449FB9BD290100001202000031000000000000000000000000005A0500006662782F36394639363044362D344446342D343946362D394244322D3234314243333846323333332F636F72652E786D6C504B01021400140006080800CC70623BAD7543B64E010000330300003000000000000000000000000000D20600006662
310
782F36394639363044362D344446342D343946362D394244322D3234314243333846323333332F636E782E786D6C504B01021400140006080800CC70623B8D05915C650500003B10000034000000000000000000000000006E0800006662782F36394639363044362D344446342D343946362D394244322D32343142433338
310
46323333332F6F626A656374732E786D6C504B01021400140006080000CC70623B0000000000000000000000003500000000000000000000000000250E00006662782F36394639363044362D344446342D343946362D394244322D3234314243333846323333332F76657274696365732E62696E504B010214001400060808
310
00CC70623BF270F13306000000040000003600000000000000000000000000780E00006662782F36394639363044362D344446342D343946362D394244322D3234314243333846323333332F747269616E676C65732E62696E504B01021400140006080000CC70623B00000000000000000000000037000000000000000000
310
00000000D20E00006662782F36394639363044362D344446342D343946362D394244322D3234314243333846323333332F617474726962757465732E62696E504B01021400140006080800CC70623B08DA0BD190000000410100003600000000000000000000000000270F00006662782F36394639363044362D344446342D
310
343946362D394244322D3234314243333846323333332F6469726563746F72792E786D6C504B01021400140006080800CC70623BCA768048FE000000A00100003B000000000000000000000000000B1000006662782F36394639363044362D344446342D343946362D394244322D3234314243333846323333332F7265736F
310
75726365732F636F72652E786D6C504B0506000000000E000E0080040000621100000000
  0
XRECORD
  5
176
102
{ACAD_REACTORS
330
173
102
}
330
173
100
AcDbXrecord
280
     1
270
     1
271
     1
  0
XRECORD
  5
177
102
{ACAD_REACTORS
330
173
102
}
330
173
100
AcDbXrecord
280
     1
270
     1
271
     1
  0
XRECORD
  5
74B6
102
{ACAD_REACTORS
330
7496
102
}
330
7496
100
AcDbXrecord
280
     1
102
DISPLAYNAME
  1
Metric50
102
FLAGS
 90
        0
  0
CELLSTYLEMAP
  5
74B4
102
{ACAD_REACTORS
330
162
102
}
330
162
100
AcDbCellStyleMap
 90
        3
300
CELLSTYLE
  1
TABLEFORMAT_BEGIN
 90
        5
170
     1
 91
        0
 92
    32768
 62
   257
 93
        1
300
CONTENTFORMAT
  1
CONTENTFORMAT_BEGIN
 90
        0
 91
        0
 92
      512
 93
        0
300

 40
0.0
140
1.0
 94
        5
 62
     0
340
11
144
6.0
309
CONTENTFORMAT_END
171
     1
301
MARGIN
  1
CELLMARGIN_BEGIN
 40
1.5
 40
1.5
 40
1.5
 40
1.5
 40
4.5
 40
4.5
309
CELLMARGIN_END
 94
        6
 95
        1
302
GRIDFORMAT
  1
GRIDFORMAT_BEGIN
 90
        0
 91
        1
 62
     0
 92
       -2
340
14
 93
        0
 40
1.125
309
GRIDFORMAT_END
 95
        2
302
GRIDFORMAT
  1
GRIDFORMAT_BEGIN
 90
        0
 91
        1
 62
     0
 92
       -2
340
14
 93
        0
 40
1.125
309
GRIDFORMAT_END
 95
        4
302
GRIDFORMAT
  1
GRIDFORMAT_BEGIN
 90
        0
 91
        1
 62
     0
 92
       -2
340
14
 93
        0
 40
1.125
309
GRIDFORMAT_END
 95
        8
302
GRIDFORMAT
  1
GRIDFORMAT_BEGIN
 90
        0
 91
        1
 62
     0
 92
       -2
340
14
 93
        0
 40
1.125
309
GRIDFORMAT_END
 95
       16
302
GRIDFORMAT
  1
GRIDFORMAT_BEGIN
 90
        0
 91
        1
 62
     0
 92
       -2
340
14
 93
        0
 40
1.125
309
GRIDFORMAT_END
 95
       32
302
GRIDFORMAT
  1
GRIDFORMAT_BEGIN
 90
        0
 91
        1
 62
     0
 92
       -2
340
14
 93
        0
 40
1.125
309
GRIDFORMAT_END
309
TABLEFORMAT_END
  1
CELLSTYLE_BEGIN
 90
        1
 91
        1
300
_TITLE
309
CELLSTYLE_END
300
CELLSTYLE
  1
TABLEFORMAT_BEGIN
 90
        5
170
     1
 91
        0
 92
        0
 62
   257
 93
        1
300
CONTENTFORMAT
  1
CONTENTFORMAT_BEGIN
 90
        0
 91
        0
 92
      512
 93
        0
300

 40
0.0
140
1.0
 94
        5
 62
     0
340
11
144
4.5
309
CONTENTFORMAT_END
171
     1
301
MARGIN
  1
CELLMARGIN_BEGIN
 40
1.5
 40
1.5
 40
1.5
 40
1.5
 40
4.5
 40
4.5
309
CELLMARGIN_END
 94
        6
 95
        1
302
GRIDFORMAT
  1
GRIDFORMAT_BEGIN
 90
        0
 91
        1
 62
     0
 92
       -2
340
14
 93
        0
 40
1.125
309
GRIDFORMAT_END
 95
        2
302
GRIDFORMAT
  1
GRIDFORMAT_BEGIN
 90
        0
 91
        1
 62
     0
 92
       -2
340
14
 93
        0
 40
1.125
309
GRIDFORMAT_END
 95
        4
302
GRIDFORMAT
  1
GRIDFORMAT_BEGIN
 90
        0
 91
        1
 62
     0
 92
       -2
340
14
 93
        0
 40
1.125
309
GRIDFORMAT_END
 95
        8
302
GRIDFORMAT
  1
GRIDFORMAT_BEGIN
 90
        0
 91
        1
 62
     0
 92
       -2
340
14
 93
        0
 40
1.125
309
GRIDFORMAT_END
 95
       16
302
GRIDFORMAT
  1
GRIDFORMAT_BEGIN
 90
        0
 91
        1
 62
     0
 92
       -2
340
14
 93
        0
 40
1.125
309
GRIDFORMAT_END
 95
       32
302
GRIDFORMAT
  1
GRIDFORMAT_BEGIN
 90
        0
 91
        1
 62
     0
 92
       -2
340
14
 93
        0
 40
1.125
309
GRIDFORMAT_END
309
TABLEFORMAT_END
  1
CELLSTYLE_BEGIN
 90
        2
 91
        1
300
_HEADER
309
CELLSTYLE_END
300
CELLSTYLE
  1
TABLEFORMAT_BEGIN
 90
        5
170
     1
 91
        0
 92
        0
 62
   257
 93
        1
300
CONTENTFORMAT
  1
CONTENTFORMAT_BEGIN
 90
        0
 91
        0
 92
      512
 93
        0
300

 40
0.0
140
1.0
 94
        2
 62
     0
340
11
144
4.5
309
CONTENTFORMAT_END
171
     1
301
MARGIN
  1
CELLMARGIN_BEGIN
 40
1.5
 40
1.5
 40
1.5
 40
1.5
 40
4.5
 40
4.5
309
CELLMARGIN_END
 94
        6
 95
        1
302
GRIDFORMAT
  1
GRIDFORMAT_BEGIN
 90
        0
 91
        1
 62
     0
 92
       -2
340
14
 93
        0
 40
1.125
309
GRIDFORMAT_END
 95
        2
302
GRIDFORMAT
  1
GRIDFORMAT_BEGIN
 90
        0
 91
        1
 62
     0
 92
       -2
340
14
 93
        0
 40
1.125
309
GRIDFORMAT_END
 95
        4
302
GRIDFORMAT
  1
GRIDFORMAT_BEGIN
 90
        0
 91
        1
 62
     0
 92
       -2
340
14
 93
        0
 40
1.125
309
GRIDFORMAT_END
 95
        8
302
GRIDFORMAT
  1
GRIDFORMAT_BEGIN
 90
        0
 91
        1
 62
     0
 92
       -2
340
14
 93
        0
 40
1.125
309
GRIDFORMAT_END
 95
       16
302
GRIDFORMAT
  1
GRIDFORMAT_BEGIN
 90
        0
 91
        1
 62
     0
 92
       -2
340
14
 93
        0
 40
1.125
309
GRIDFORMAT_END
 95
       32
302
GRIDFORMAT
  1
GRIDFORMAT_BEGIN
 90
        0
 91
        1
 62
     0
 92
       -2
340
14
 93
        0
 40
1.125
309
GRIDFORMAT_END
309
TABLEFORMAT_END
  1
CELLSTYLE_BEGIN
 90
        3
 91
        2
300
_DATA
309
CELLSTYLE_END
  0
XRECORD
  5
6F6C
102
{ACAD_REACTORS
330
6F6B
102
}
330
6F6B
100
AcDbXrecord
280
     1
102
RTVSPropertyOp28
 70
     1
102
RTVSPropertyOp29
 70
     1
102
RTVSPropertyOp30
 70
     1
102
RTVSPropertyOp31
 70
     1
102
RTVSPropertyOp32
 70
     1
102
RTVSPropertyOp33
 70
     1
102
RTVSPropertyOp34
 70
     1
102
RTVSPropertyOp35
 70
     1
102
RTVSPropertyOp36
 70
     1
102
RTVSPropertyOp37
 70
     1
102
RTVSPropertyOp38
 70
     1
102
RTVSPropertyOp39
 70
     1
102
RTVSPropertyOp40
 70
     1
102
RTVSPropertyOp41
 70
     1
102
RTVSPropertyOp42
 70
     1
102
RTVSPropertyOp43
 70
     1
102
RTVSPropertyOp44
 70
     1
102
RTVSPropertyOp45
 70
     1
102
RTVSPropertyOp46
 70
     1
102
RTVSPropertyOp47
 70
     1
102
RTVSPropertyOp48
 70
     1
102
RTVSPropertyOp49
 70
     1
102
RTVSPropertyOp50
 70
     1
102
RTVSPropertyOp51
 70
     0
102
RTVSPropertyOp52
 70
     0
102
RTVSPropertyOp53
 70
     1
102
RTVSPropertyOp54
 70
     1
102
RTVSPropertyOp55
 70
     1
102
RTVSPropertyOp56
 70
     1
102
RTVSPropertyOp57
 70
     1
102
RTVSPropertyOp58
 70
     1
102
RTVSPropertyOp59
 70
     1
102
RTVSPropertyOp60
 70
     1
102
RTVSPropertyOp61
 70
     1
102
RTVSPropertyOp62
 70
     1
  0
XRECORD
  5
6F96
102
{ACAD_REACTORS
330
6F95
102
}
330
6F95
100
AcDbXrecord
280
     1
102
RTVSPropertyOp28
 70
     1
102
RTVSPropertyOp29
 70
     1
102
RTVSPropertyOp30
 70
     1
102
RTVSPropertyOp31
 70
     1
102
RTVSPropertyOp32
 70
     1
102
RTVSPropertyOp33
 70
     1
102
RTVSPropertyOp34
 70
     1
102
RTVSPropertyOp35
 70
     1
102
RTVSPropertyOp36
 70
     1
102
RTVSPropertyOp37
 70
     1
102
RTVSPropertyOp38
 70
     1
102
RTVSPropertyOp39
 70
     1
102
RTVSPropertyOp40
 70
     1
102
RTVSPropertyOp41
 70
     1
102
RTVSPropertyOp42
 70
     1
102
RTVSPropertyOp43
 70
     1
102
RTVSPropertyOp44
 70
     1
102
RTVSPropertyOp45
 70
     1
102
RTVSPropertyOp46
 70
     1
102
RTVSPropertyOp47
 70
     1
102
RTVSPropertyOp48
 70
     1
102
RTVSPropertyOp49
 70
     1
102
RTVSPropertyOp50
 70
     1
102
RTVSPropertyOp51
 70
     0
102
RTVSPropertyOp52
 70
     0
102
RTVSPropertyOp53
 70
     1
102
RTVSPropertyOp54
 70
     1
102
RTVSPropertyOp55
 70
     1
102
RTVSPropertyOp56
 70
     1
102
RTVSPropertyOp57
 70
     1
102
RTVSPropertyOp58
 70
     1
102
RTVSPropertyOp59
 70
     1
102
RTVSPropertyOp60
 70
     1
102
RTVSPropertyOp61
 70
     1
102
RTVSPropertyOp62
 70
     1
  0
XRECORD
  5
6F92
102
{ACAD_REACTORS
330
6F91
102
}
330
6F91
100
AcDbXrecord
280
     1
102
RTVSPropertyOp28
 70
     1
102
RTVSPropertyOp29
 70
     1
102
RTVSPropertyOp30
 70
     1
102
RTVSPropertyOp31
 70
     1
102
RTVSPropertyOp32
 70
     1
102
RTVSPropertyOp33
 70
     1
102
RTVSPropertyOp34
 70
     1
102
RTVSPropertyOp35
 70
     1
102
RTVSPropertyOp36
 70
     1
102
RTVSPropertyOp37
 70
     1
102
RTVSPropertyOp38
 70
     1
102
RTVSPropertyOp39
 70
     1
102
RTVSPropertyOp40
 70
     1
102
RTVSPropertyOp41
 70
     1
102
RTVSPropertyOp42
 70
     1
102
RTVSPropertyOp43
 70
     1
102
RTVSPropertyOp44
 70
     1
102
RTVSPropertyOp45
 70
     1
102
RTVSPropertyOp46
 70
     1
102
RTVSPropertyOp47
 70
     1
102
RTVSPropertyOp48
 70
     1
102
RTVSPropertyOp49
 70
     1
102
RTVSPropertyOp50
 70
     1
102
RTVSPropertyOp51
 70
     0
102
RTVSPropertyOp52
 70
     0
102
RTVSPropertyOp53
 70
     1
102
RTVSPropertyOp54
 70
     1
102
RTVSPropertyOp55
 70
     1
102
RTVSPropertyOp56
 70
     1
102
RTVSPropertyOp57
 70
     1
102
RTVSPropertyOp58
 70
     1
102
RTVSPropertyOp59
 70
     1
102
RTVSPropertyOp60
 70
     1
102
RTVSPropertyOp61
 70
     1
102
RTVSPropertyOp62
 70
     1
  0
XRECORD
  5
6F6A
102
{ACAD_REACTORS
330
6F69
102
}
330
6F69
100
AcDbXrecord
280
     1
102
RTVSPropertyOp28
 70
     1
102
RTVSPropertyOp29
 70
     1
102
RTVSPropertyOp30
 70
     1
102
RTVSPropertyOp31
 70
     1
102
RTVSPropertyOp32
 70
     1
102
RTVSPropertyOp33
 70
     1
102
RTVSPropertyOp34
 70
     1
102
RTVSPropertyOp35
 70
     1
102
RTVSPropertyOp36
 70
     1
102
RTVSPropertyOp37
 70
     1
102
RTVSPropertyOp38
 70
     1
102
RTVSPropertyOp39
 70
     1
102
RTVSPropertyOp40
 70
     1
102
RTVSPropertyOp41
 70
     1
102
RTVSPropertyOp42
 70
     1
102
RTVSPropertyOp43
 70
     1
102
RTVSPropertyOp44
 70
     1
102
RTVSPropertyOp45
 70
     1
102
RTVSPropertyOp46
 70
     1
102
RTVSPropertyOp47
 70
     1
102
RTVSPropertyOp48
 70
     1
102
RTVSPropertyOp49
 70
     1
102
RTVSPropertyOp50
 70
     1
102
RTVSPropertyOp51
 70
     0
102
RTVSPropertyOp52
 70
     0
102
RTVSPropertyOp53
 70
     1
102
RTVSPropertyOp54
 70
     1
102
RTVSPropertyOp55
 70
     1
102
RTVSPropertyOp56
 70
     1
102
RTVSPropertyOp57
 70
     1
102
RTVSPropertyOp58
 70
     1
102
RTVSPropertyOp59
 70
     1
102
RTVSPropertyOp60
 70
     1
102
RTVSPropertyOp61
 70
     1
102
RTVSPropertyOp62
 70
     1
  0
XRECORD
  5
6F78
102
{ACAD_REACTORS
330
6F77
102
}
330
6F77
100
AcDbXrecord
280
     1
102
RTVSPropertyOp28
 70
     1
102
RTVSPropertyOp29
 70
     1
102
RTVSPropertyOp30
 70
     1
102
RTVSPropertyOp31
 70
     1
102
RTVSPropertyOp32
 70
     1
102
RTVSPropertyOp33
 70
     1
102
RTVSPropertyOp34
 70
     1
102
RTVSPropertyOp35
 70
     1
102
RTVSPropertyOp36
 70
     1
102
RTVSPropertyOp37
 70
     1
102
RTVSPropertyOp38
 70
     1
102
RTVSPropertyOp39
 70
     1
102
RTVSPropertyOp40
 70
     1
102
RTVSPropertyOp41
 70
     1
102
RTVSPropertyOp42
 70
     1
102
RTVSPropertyOp43
 70
     1
102
RTVSPropertyOp44
 70
     1
102
RTVSPropertyOp45
 70
     1
102
RTVSPropertyOp46
 70
     1
102
RTVSPropertyOp47
 70
     1
102
RTVSPropertyOp48
 70
     1
102
RTVSPropertyOp49
 70
     1
102
RTVSPropertyOp50
 70
     1
102
RTVSPropertyOp51
 70
     0
102
RTVSPropertyOp52
 70
     0
102
RTVSPropertyOp53
 70
     1
102
RTVSPropertyOp54
 70
     1
102
RTVSPropertyOp55
 70
     1
102
RTVSPropertyOp56
 70
     1
102
RTVSPropertyOp57
 70
     1
102
RTVSPropertyOp58
 70
     1
102
RTVSPropertyOp59
 70
     1
102
RTVSPropertyOp60
 70
     1
102
RTVSPropertyOp61
 70
     1
102
RTVSPropertyOp62
 70
     1
  0
XRECORD
  5
6F80
102
{ACAD_REACTORS
330
6F7F
102
}
330
6F7F
100
AcDbXrecord
280
     1
102
RTVSPropertyOp28
 70
     1
102
RTVSPropertyOp29
 70
     1
102
RTVSPropertyOp30
 70
     1
102
RTVSPropertyOp31
 70
     1
102
RTVSPropertyOp32
 70
     1
102
RTVSPropertyOp33
 70
     1
102
RTVSPropertyOp34
 70
     1
102
RTVSPropertyOp35
 70
     1
102
RTVSPropertyOp36
 70
     1
102
RTVSPropertyOp37
 70
     1
102
RTVSPropertyOp38
 70
     1
102
RTVSPropertyOp39
 70
     1
102
RTVSPropertyOp40
 70
     1
102
RTVSPropertyOp41
 70
     1
102
RTVSPropertyOp42
 70
     1
102
RTVSPropertyOp43
 70
     1
102
RTVSPropertyOp44
 70
     1
102
RTVSPropertyOp45
 70
     1
102
RTVSPropertyOp46
 70
     1
102
RTVSPropertyOp47
 70
     1
102
RTVSPropertyOp48
 70
     1
102
RTVSPropertyOp49
 70
     1
102
RTVSPropertyOp50
 70
     1
102
RTVSPropertyOp51
 70
     0
102
RTVSPropertyOp52
 70
     0
102
RTVSPropertyOp53
 70
     1
102
RTVSPropertyOp54
 70
     1
102
RTVSPropertyOp55
 70
     1
102
RTVSPropertyOp56
 70
     1
102
RTVSPropertyOp57
 70
     1
102
RTVSPropertyOp58
 70
     1
102
RTVSPropertyOp59
 70
     1
102
RTVSPropertyOp60
 70
     1
102
RTVSPropertyOp61
 70
     1
102
RTVSPropertyOp62
 70
     1
  0
XRECORD
  5
6F72
102
{ACAD_REACTORS
330
6F71
102
}
330
6F71
100
AcDbXrecord
280
     1
102
RTVSPropertyOp28
 70
     1
102
RTVSPropertyOp29
 70
     1
102
RTVSPropertyOp30
 70
     1
102
RTVSPropertyOp31
 70
     1
102
RTVSPropertyOp32
 70
     1
102
RTVSPropertyOp33
 70
     1
102
RTVSPropertyOp34
 70
     1
102
RTVSPropertyOp35
 70
     1
102
RTVSPropertyOp36
 70
     1
102
RTVSPropertyOp37
 70
     1
102
RTVSPropertyOp38
 70
     1
102
RTVSPropertyOp39
 70
     1
102
RTVSPropertyOp40
 70
     1
102
RTVSPropertyOp41
 70
     1
102
RTVSPropertyOp42
 70
     1
102
RTVSPropertyOp43
 70
     1
102
RTVSPropertyOp44
 70
     1
102
RTVSPropertyOp45
 70
     1
102
RTVSPropertyOp46
 70
     1
102
RTVSPropertyOp47
 70
     1
102
RTVSPropertyOp48
 70
     1
102
RTVSPropertyOp49
 70
     1
102
RTVSPropertyOp50
 70
     1
102
RTVSPropertyOp51
 70
     0
102
RTVSPropertyOp52
 70
     0
102
RTVSPropertyOp53
 70
     1
102
RTVSPropertyOp54
 70
     1
102
RTVSPropertyOp55
 70
     1
102
RTVSPropertyOp56
 70
     1
102
RTVSPropertyOp57
 70
     1
102
RTVSPropertyOp58
 70
     1
102
RTVSPropertyOp59
 70
     1
102
RTVSPropertyOp60
 70
     1
102
RTVSPropertyOp61
 70
     1
102
RTVSPropertyOp62
 70
     1
  0
XRECORD
  5
6F76
102
{ACAD_REACTORS
330
6F75
102
}
330
6F75
100
AcDbXrecord
280
     1
102
RTVSPropertyOp28
 70
     1
102
RTVSPropertyOp29
 70
     1
102
RTVSPropertyOp30
 70
     1
102
RTVSPropertyOp31
 70
     1
102
RTVSPropertyOp32
 70
     1
102
RTVSPropertyOp33
 70
     1
102
RTVSPropertyOp34
 70
     1
102
RTVSPropertyOp35
 70
     1
102
RTVSPropertyOp36
 70
     1
102
RTVSPropertyOp37
 70
     1
102
RTVSPropertyOp38
 70
     1
102
RTVSPropertyOp39
 70
     1
102
RTVSPropertyOp40
 70
     1
102
RTVSPropertyOp41
 70
     1
102
RTVSPropertyOp42
 70
     1
102
RTVSPropertyOp43
 70
     1
102
RTVSPropertyOp44
 70
     1
102
RTVSPropertyOp45
 70
     1
102
RTVSPropertyOp46
 70
     1
102
RTVSPropertyOp47
 70
     1
102
RTVSPropertyOp48
 70
     1
102
RTVSPropertyOp49
 70
     1
102
RTVSPropertyOp50
 70
     1
102
RTVSPropertyOp51
 70
     0
102
RTVSPropertyOp52
 70
     0
102
RTVSPropertyOp53
 70
     1
102
RTVSPropertyOp54
 70
     1
102
RTVSPropertyOp55
 70
     1
102
RTVSPropertyOp56
 70
     1
102
RTVSPropertyOp57
 70
     1
102
RTVSPropertyOp58
 70
     1
102
RTVSPropertyOp59
 70
     1
102
RTVSPropertyOp60
 70
     1
102
RTVSPropertyOp61
 70
     1
102
RTVSPropertyOp62
 70
     1
  0
XRECORD
  5
6F86
102
{ACAD_REACTORS
330
6F85
102
}
330
6F85
100
AcDbXrecord
280
     1
102
RTVSPropertyOp28
 70
     1
102
RTVSPropertyOp29
 70
     1
102
RTVSPropertyOp30
 70
     1
102
RTVSPropertyOp31
 70
     1
102
RTVSPropertyOp32
 70
     1
102
RTVSPropertyOp33
 70
     1
102
RTVSPropertyOp34
 70
     1
102
RTVSPropertyOp35
 70
     1
102
RTVSPropertyOp36
 70
     1
102
RTVSPropertyOp37
 70
     1
102
RTVSPropertyOp38
 70
     1
102
RTVSPropertyOp39
 70
     1
102
RTVSPropertyOp40
 70
     1
102
RTVSPropertyOp41
 70
     1
102
RTVSPropertyOp42
 70
     1
102
RTVSPropertyOp43
 70
     1
102
RTVSPropertyOp44
 70
     1
102
RTVSPropertyOp45
 70
     1
102
RTVSPropertyOp46
 70
     1
102
RTVSPropertyOp47
 70
     1
102
RTVSPropertyOp48
 70
     1
102
RTVSPropertyOp49
 70
     1
102
RTVSPropertyOp50
 70
     1
102
RTVSPropertyOp51
 70
     0
102
RTVSPropertyOp52
 70
     0
102
RTVSPropertyOp53
 70
     1
102
RTVSPropertyOp54
 70
     1
102
RTVSPropertyOp55
 70
     1
102
RTVSPropertyOp56
 70
     1
102
RTVSPropertyOp57
 70
     1
102
RTVSPropertyOp58
 70
     1
102
RTVSPropertyOp59
 70
     1
102
RTVSPropertyOp60
 70
     1
102
RTVSPropertyOp61
 70
     1
102
RTVSPropertyOp62
 70
     1
  0
XRECORD
  5
6F7E
102
{ACAD_REACTORS
330
6F7D
102
}
330
6F7D
100
AcDbXrecord
280
     1
102
RTVSPropertyOp28
 70
     1
102
RTVSPropertyOp29
 70
     1
102
RTVSPropertyOp30
 70
     1
102
RTVSPropertyOp31
 70
     1
102
RTVSPropertyOp32
 70
     1
102
RTVSPropertyOp33
 70
     1
102
RTVSPropertyOp34
 70
     1
102
RTVSPropertyOp35
 70
     1
102
RTVSPropertyOp36
 70
     1
102
RTVSPropertyOp37
 70
     1
102
RTVSPropertyOp38
 70
     1
102
RTVSPropertyOp39
 70
     1
102
RTVSPropertyOp40
 70
     1
102
RTVSPropertyOp41
 70
     1
102
RTVSPropertyOp42
 70
     1
102
RTVSPropertyOp43
 70
     1
102
RTVSPropertyOp44
 70
     1
102
RTVSPropertyOp45
 70
     1
102
RTVSPropertyOp46
 70
     1
102
RTVSPropertyOp47
 70
     1
102
RTVSPropertyOp48
 70
     1
102
RTVSPropertyOp49
 70
     1
102
RTVSPropertyOp50
 70
     1
102
RTVSPropertyOp51
 70
     0
102
RTVSPropertyOp52
 70
     0
102
RTVSPropertyOp53
 70
     1
102
RTVSPropertyOp54
 70
     1
102
RTVSPropertyOp55
 70
     1
102
RTVSPropertyOp56
 70
     1
102
RTVSPropertyOp57
 70
     1
102
RTVSPropertyOp58
 70
     1
102
RTVSPropertyOp59
 70
     1
102
RTVSPropertyOp60
 70
     1
102
RTVSPropertyOp61
 70
     1
102
RTVSPropertyOp62
 70
     1
  0
XRECORD
  5
6F62
102
{ACAD_REACTORS
330
6F61
102
}
330
6F61
100
AcDbXrecord
280
     1
102
RTVSPropertyOp28
 70
     1
102
RTVSPropertyOp29
 70
     1
102
RTVSPropertyOp30
 70
     1
102
RTVSPropertyOp31
 70
     1
102
RTVSPropertyOp32
 70
     1
102
RTVSPropertyOp33
 70
     1
102
RTVSPropertyOp34
 70
     1
102
RTVSPropertyOp35
 70
     1
102
RTVSPropertyOp36
 70
     1
102
RTVSPropertyOp37
 70
     1
102
RTVSPropertyOp38
 70
     1
102
RTVSPropertyOp39
 70
     1
102
RTVSPropertyOp40
 70
     1
102
RTVSPropertyOp41
 70
     1
102
RTVSPropertyOp42
 70
     1
102
RTVSPropertyOp43
 70
     1
102
RTVSPropertyOp44
 70
     1
102
RTVSPropertyOp45
 70
     1
102
RTVSPropertyOp46
 70
     1
102
RTVSPropertyOp47
 70
     1
102
RTVSPropertyOp48
 70
     1
102
RTVSPropertyOp49
 70
     1
102
RTVSPropertyOp50
 70
     1
102
RTVSPropertyOp51
 70
     0
102
RTVSPropertyOp52
 70
     0
102
RTVSPropertyOp53
 70
     1
102
RTVSPropertyOp54
 70
     1
102
RTVSPropertyOp55
 70
     1
102
RTVSPropertyOp56
 70
     1
102
RTVSPropertyOp57
 70
     1
102
RTVSPropertyOp58
 70
     1
102
RTVSPropertyOp59
 70
     1
102
RTVSPropertyOp60
 70
     1
102
RTVSPropertyOp61
 70
     1
102
RTVSPropertyOp62
 70
     1
  0
XRECORD
  5
6F64
102
{ACAD_REACTORS
330
6F63
102
}
330
6F63
100
AcDbXrecord
280
     1
102
RTVSPropertyOp28
 70
     1
102
RTVSPropertyOp29
 70
     1
102
RTVSPropertyOp30
 70
     1
102
RTVSPropertyOp31
 70
     1
102
RTVSPropertyOp32
 70
     1
102
RTVSPropertyOp33
 70
     1
102
RTVSPropertyOp34
 70
     1
102
RTVSPropertyOp35
 70
     1
102
RTVSPropertyOp36
 70
     1
102
RTVSPropertyOp37
 70
     1
102
RTVSPropertyOp38
 70
     1
102
RTVSPropertyOp39
 70
     1
102
RTVSPropertyOp40
 70
     1
102
RTVSPropertyOp41
 70
     1
102
RTVSPropertyOp42
 70
     1
102
RTVSPropertyOp43
 70
     1
102
RTVSPropertyOp44
 70
     1
102
RTVSPropertyOp45
 70
     1
102
RTVSPropertyOp46
 70
     1
102
RTVSPropertyOp47
 70
     1
102
RTVSPropertyOp48
 70
     1
102
RTVSPropertyOp49
 70
     1
102
RTVSPropertyOp50
 70
     1
102
RTVSPropertyOp51
 70
     0
102
RTVSPropertyOp52
 70
     0
102
RTVSPropertyOp53
 70
     1
102
RTVSPropertyOp54
 70
     1
102
RTVSPropertyOp55
 70
     1
102
RTVSPropertyOp56
 70
     1
102
RTVSPropertyOp57
 70
     1
102
RTVSPropertyOp58
 70
     1
102
RTVSPropertyOp59
 70
     1
102
RTVSPropertyOp60
 70
     1
102
RTVSPropertyOp61
 70
     1
102
RTVSPropertyOp62
 70
     1
  0
XRECORD
  5
6F66
102
{ACAD_REACTORS
330
6F65
102
}
330
6F65
100
AcDbXrecord
280
     1
102
RTVSPropertyOp28
 70
     1
102
RTVSPropertyOp29
 70
     1
102
RTVSPropertyOp30
 70
     1
102
RTVSPropertyOp31
 70
     1
102
RTVSPropertyOp32
 70
     1
102
RTVSPropertyOp33
 70
     1
102
RTVSPropertyOp34
 70
     1
102
RTVSPropertyOp35
 70
     1
102
RTVSPropertyOp36
 70
     1
102
RTVSPropertyOp37
 70
     1
102
RTVSPropertyOp38
 70
     1
102
RTVSPropertyOp39
 70
     1
102
RTVSPropertyOp40
 70
     1
102
RTVSPropertyOp41
 70
     1
102
RTVSPropertyOp42
 70
     1
102
RTVSPropertyOp43
 70
     1
102
RTVSPropertyOp44
 70
     1
102
RTVSPropertyOp45
 70
     1
102
RTVSPropertyOp46
 70
     1
102
RTVSPropertyOp47
 70
     1
102
RTVSPropertyOp48
 70
     1
102
RTVSPropertyOp49
 70
     1
102
RTVSPropertyOp50
 70
     1
102
RTVSPropertyOp51
 70
     0
102
RTVSPropertyOp52
 70
     0
102
RTVSPropertyOp53
 70
     1
102
RTVSPropertyOp54
 70
     1
102
RTVSPropertyOp55
 70
     1
102
RTVSPropertyOp56
 70
     1
102
RTVSPropertyOp57
 70
     1
102
RTVSPropertyOp58
 70
     1
102
RTVSPropertyOp59
 70
     1
102
RTVSPropertyOp60
 70
     1
102
RTVSPropertyOp61
 70
     1
102
RTVSPropertyOp62
 70
     1
  0
XRECORD
  5
6F68
102
{ACAD_REACTORS
330
6F67
102
}
330
6F67
100
AcDbXrecord
280
     1
102
RTVSPropertyOp28
 70
     1
102
RTVSPropertyOp29
 70
     1
102
RTVSPropertyOp30
 70
     1
102
RTVSPropertyOp31
 70
     1
102
RTVSPropertyOp32
 70
     1
102
RTVSPropertyOp33
 70
     1
102
RTVSPropertyOp34
 70
     1
102
RTVSPropertyOp35
 70
     1
102
RTVSPropertyOp36
 70
     1
102
RTVSPropertyOp37
 70
     1
102
RTVSPropertyOp38
 70
     1
102
RTVSPropertyOp39
 70
     1
102
RTVSPropertyOp40
 70
     1
102
RTVSPropertyOp41
 70
     1
102
RTVSPropertyOp42
 70
     1
102
RTVSPropertyOp43
 70
     1
102
RTVSPropertyOp44
 70
     1
102
RTVSPropertyOp45
 70
     1
102
RTVSPropertyOp46
 70
     1
102
RTVSPropertyOp47
 70
     1
102
RTVSPropertyOp48
 70
     1
102
RTVSPropertyOp49
 70
     1
102
RTVSPropertyOp50
 70
     1
102
RTVSPropertyOp51
 70
     0
102
RTVSPropertyOp52
 70
     0
102
RTVSPropertyOp53
 70
     1
102
RTVSPropertyOp54
 70
     1
102
RTVSPropertyOp55
 70
     1
102
RTVSPropertyOp56
 70
     1
102
RTVSPropertyOp57
 70
     1
102
RTVSPropertyOp58
 70
     1
102
RTVSPropertyOp59
 70
     1
102
RTVSPropertyOp60
 70
     1
102
RTVSPropertyOp61
 70
     1
102
RTVSPropertyOp62
 70
     1
  0
XRECORD
  5
6F70
102
{ACAD_REACTORS
330
6F6F
102
}
330
6F6F
100
AcDbXrecord
280
     1
102
RTVSPropertyOp28
 70
     1
102
RTVSPropertyOp29
 70
     1
102
RTVSPropertyOp30
 70
     1
102
RTVSPropertyOp31
 70
     1
102
RTVSPropertyOp32
 70
     1
102
RTVSPropertyOp33
 70
     1
102
RTVSPropertyOp34
 70
     1
102
RTVSPropertyOp35
 70
     1
102
RTVSPropertyOp36
 70
     1
102
RTVSPropertyOp37
 70
     1
102
RTVSPropertyOp38
 70
     1
102
RTVSPropertyOp39
 70
     1
102
RTVSPropertyOp40
 70
     1
102
RTVSPropertyOp41
 70
     1
102
RTVSPropertyOp42
 70
     1
102
RTVSPropertyOp43
 70
     1
102
RTVSPropertyOp44
 70
     1
102
RTVSPropertyOp45
 70
     1
102
RTVSPropertyOp46
 70
     1
102
RTVSPropertyOp47
 70
     1
102
RTVSPropertyOp48
 70
     1
102
RTVSPropertyOp49
 70
     1
102
RTVSPropertyOp50
 70
     1
102
RTVSPropertyOp51
 70
     0
102
RTVSPropertyOp52
 70
     0
102
RTVSPropertyOp53
 70
     1
102
RTVSPropertyOp54
 70
     1
102
RTVSPropertyOp55
 70
     1
102
RTVSPropertyOp56
 70
     1
102
RTVSPropertyOp57
 70
     1
102
RTVSPropertyOp58
 70
     1
102
RTVSPropertyOp59
 70
     1
102
RTVSPropertyOp60
 70
     1
102
RTVSPropertyOp61
 70
     1
102
RTVSPropertyOp62
 70
     1
  0
XRECORD
  5
6F82
102
{ACAD_REACTORS
330
6F81
102
}
330
6F81
100
AcDbXrecord
280
     1
102
RTVSPropertyOp28
 70
     1
102
RTVSPropertyOp29
 70
     1
102
RTVSPropertyOp30
 70
     1
102
RTVSPropertyOp31
 70
     1
102
RTVSPropertyOp32
 70
     1
102
RTVSPropertyOp33
 70
     1
102
RTVSPropertyOp34
 70
     1
102
RTVSPropertyOp35
 70
     1
102
RTVSPropertyOp36
 70
     1
102
RTVSPropertyOp37
 70
     1
102
RTVSPropertyOp38
 70
     1
102
RTVSPropertyOp39
 70
     1
102
RTVSPropertyOp40
 70
     1
102
RTVSPropertyOp41
 70
     1
102
RTVSPropertyOp42
 70
     1
102
RTVSPropertyOp43
 70
     1
102
RTVSPropertyOp44
 70
     1
102
RTVSPropertyOp45
 70
     1
102
RTVSPropertyOp46
 70
     1
102
RTVSPropertyOp47
 70
     1
102
RTVSPropertyOp48
 70
     1
102
RTVSPropertyOp49
 70
     1
102
RTVSPropertyOp50
 70
     1
102
RTVSPropertyOp51
 70
     0
102
RTVSPropertyOp52
 70
     0
102
RTVSPropertyOp53
 70
     1
102
RTVSPropertyOp54
 70
     1
102
RTVSPropertyOp55
 70
     1
102
RTVSPropertyOp56
 70
     1
102
RTVSPropertyOp57
 70
     1
102
RTVSPropertyOp58
 70
     1
102
RTVSPropertyOp59
 70
     1
102
RTVSPropertyOp60
 70
     1
102
RTVSPropertyOp61
 70
     1
102
RTVSPropertyOp62
 70
     1
  0
XRECORD
  5
6F7C
102
{ACAD_REACTORS
330
6F7B
102
}
330
6F7B
100
AcDbXrecord
280
     1
102
RTVSPropertyOp28
 70
     1
102
RTVSPropertyOp29
 70
     1
102
RTVSPropertyOp30
 70
     1
102
RTVSPropertyOp31
 70
     1
102
RTVSPropertyOp32
 70
     1
102
RTVSPropertyOp33
 70
     1
102
RTVSPropertyOp34
 70
     1
102
RTVSPropertyOp35
 70
     1
102
RTVSPropertyOp36
 70
     1
102
RTVSPropertyOp37
 70
     1
102
RTVSPropertyOp38
 70
     1
102
RTVSPropertyOp39
 70
     1
102
RTVSPropertyOp40
 70
     1
102
RTVSPropertyOp41
 70
     1
102
RTVSPropertyOp42
 70
     1
102
RTVSPropertyOp43
 70
     1
102
RTVSPropertyOp44
 70
     1
102
RTVSPropertyOp45
 70
     1
102
RTVSPropertyOp46
 70
     1
102
RTVSPropertyOp47
 70
     1
102
RTVSPropertyOp48
 70
     1
102
RTVSPropertyOp49
 70
     1
102
RTVSPropertyOp50
 70
     1
102
RTVSPropertyOp51
 70
     0
102
RTVSPropertyOp52
 70
     0
102
RTVSPropertyOp53
 70
     1
102
RTVSPropertyOp54
 70
     1
102
RTVSPropertyOp55
 70
     1
102
RTVSPropertyOp56
 70
     1
102
RTVSPropertyOp57
 70
     1
102
RTVSPropertyOp58
 70
     1
102
RTVSPropertyOp59
 70
     1
102
RTVSPropertyOp60
 70
     1
102
RTVSPropertyOp61
 70
     1
102
RTVSPropertyOp62
 70
     1
  0
XRECORD
  5
6F84
102
{ACAD_REACTORS
330
6F83
102
}
330
6F83
100
AcDbXrecord
280
     1
102
RTVSPropertyOp28
 70
     1
102
RTVSPropertyOp29
 70
     1
102
RTVSPropertyOp30
 70
     1
102
RTVSPropertyOp31
 70
     1
102
RTVSPropertyOp32
 70
     1
102
RTVSPropertyOp33
 70
     1
102
RTVSPropertyOp34
 70
     1
102
RTVSPropertyOp35
 70
     1
102
RTVSPropertyOp36
 70
     1
102
RTVSPropertyOp37
 70
     1
102
RTVSPropertyOp38
 70
     1
102
RTVSPropertyOp39
 70
     1
102
RTVSPropertyOp40
 70
     1
102
RTVSPropertyOp41
 70
     1
102
RTVSPropertyOp42
 70
     1
102
RTVSPropertyOp43
 70
     1
102
RTVSPropertyOp44
 70
     1
102
RTVSPropertyOp45
 70
     1
102
RTVSPropertyOp46
 70
     1
102
RTVSPropertyOp47
 70
     1
102
RTVSPropertyOp48
 70
     1
102
RTVSPropertyOp49
 70
     1
102
RTVSPropertyOp50
 70
     1
102
RTVSPropertyOp51
 70
     0
102
RTVSPropertyOp52
 70
     0
102
RTVSPropertyOp53
 70
     1
102
RTVSPropertyOp54
 70
     1
102
RTVSPropertyOp55
 70
     1
102
RTVSPropertyOp56
 70
     1
102
RTVSPropertyOp57
 70
     1
102
RTVSPropertyOp58
 70
     1
102
RTVSPropertyOp59
 70
     1
102
RTVSPropertyOp60
 70
     1
102
RTVSPropertyOp61
 70
     1
102
RTVSPropertyOp62
 70
     1
  0
XRECORD
  5
6F74
102
{ACAD_REACTORS
330
6F73
102
}
330
6F73
100
AcDbXrecord
280
     1
102
RTVSPropertyOp28
 70
     1
102
RTVSPropertyOp29
 70
     1
102
RTVSPropertyOp30
 70
     1
102
RTVSPropertyOp31
 70
     1
102
RTVSPropertyOp32
 70
     1
102
RTVSPropertyOp33
 70
     1
102
RTVSPropertyOp34
 70
     1
102
RTVSPropertyOp35
 70
     1
102
RTVSPropertyOp36
 70
     1
102
RTVSPropertyOp37
 70
     1
102
RTVSPropertyOp38
 70
     1
102
RTVSPropertyOp39
 70
     1
102
RTVSPropertyOp40
 70
     1
102
RTVSPropertyOp41
 70
     1
102
RTVSPropertyOp42
 70
     1
102
RTVSPropertyOp43
 70
     1
102
RTVSPropertyOp44
 70
     1
102
RTVSPropertyOp45
 70
     1
102
RTVSPropertyOp46
 70
     1
102
RTVSPropertyOp47
 70
     1
102
RTVSPropertyOp48
 70
     1
102
RTVSPropertyOp49
 70
     1
102
RTVSPropertyOp50
 70
     1
102
RTVSPropertyOp51
 70
     0
102
RTVSPropertyOp52
 70
     0
102
RTVSPropertyOp53
 70
     1
102
RTVSPropertyOp54
 70
     1
102
RTVSPropertyOp55
 70
     1
102
RTVSPropertyOp56
 70
     1
102
RTVSPropertyOp57
 70
     1
102
RTVSPropertyOp58
 70
     1
102
RTVSPropertyOp59
 70
     1
102
RTVSPropertyOp60
 70
     1
102
RTVSPropertyOp61
 70
     1
102
RTVSPropertyOp62
 70
     1
  0
XRECORD
  5
6F90
102
{ACAD_REACTORS
330
6F8F
102
}
330
6F8F
100
AcDbXrecord
280
     1
102
RTVSPropertyOp28
 70
     1
102
RTVSPropertyOp29
 70
     1
102
RTVSPropertyOp30
 70
     1
102
RTVSPropertyOp31
 70
     1
102
RTVSPropertyOp32
 70
     1
102
RTVSPropertyOp33
 70
     1
102
RTVSPropertyOp34
 70
     1
102
RTVSPropertyOp35
 70
     1
102
RTVSPropertyOp36
 70
     1
102
RTVSPropertyOp37
 70
     1
102
RTVSPropertyOp38
 70
     1
102
RTVSPropertyOp39
 70
     1
102
RTVSPropertyOp40
 70
     1
102
RTVSPropertyOp41
 70
     1
102
RTVSPropertyOp42
 70
     1
102
RTVSPropertyOp43
 70
     1
102
RTVSPropertyOp44
 70
     1
102
RTVSPropertyOp45
 70
     1
102
RTVSPropertyOp46
 70
     1
102
RTVSPropertyOp47
 70
     1
102
RTVSPropertyOp48
 70
     1
102
RTVSPropertyOp49
 70
     1
102
RTVSPropertyOp50
 70
     1
102
RTVSPropertyOp51
 70
     0
102
RTVSPropertyOp52
 70
     0
102
RTVSPropertyOp53
 70
     1
102
RTVSPropertyOp54
 70
     1
102
RTVSPropertyOp55
 70
     1
102
RTVSPropertyOp56
 70
     1
102
RTVSPropertyOp57
 70
     1
102
RTVSPropertyOp58
 70
     1
102
RTVSPropertyOp59
 70
     1
102
RTVSPropertyOp60
 70
     1
102
RTVSPropertyOp61
 70
     1
102
RTVSPropertyOp62
 70
     1
  0
XRECORD
  5
6F8E
102
{ACAD_REACTORS
330
6F8D
102
}
330
6F8D
100
AcDbXrecord
280
     1
102
RTVSPropertyOp28
 70
     1
102
RTVSPropertyOp29
 70
     1
102
RTVSPropertyOp30
 70
     1
102
RTVSPropertyOp31
 70
     1
102
RTVSPropertyOp32
 70
     1
102
RTVSPropertyOp33
 70
     1
102
RTVSPropertyOp34
 70
     1
102
RTVSPropertyOp35
 70
     1
102
RTVSPropertyOp36
 70
     1
102
RTVSPropertyOp37
 70
     1
102
RTVSPropertyOp38
 70
     1
102
RTVSPropertyOp39
 70
     1
102
RTVSPropertyOp40
 70
     1
102
RTVSPropertyOp41
 70
     1
102
RTVSPropertyOp42
 70
     1
102
RTVSPropertyOp43
 70
     1
102
RTVSPropertyOp44
 70
     1
102
RTVSPropertyOp45
 70
     1
102
RTVSPropertyOp46
 70
     1
102
RTVSPropertyOp47
 70
     1
102
RTVSPropertyOp48
 70
     1
102
RTVSPropertyOp49
 70
     1
102
RTVSPropertyOp50
 70
     1
102
RTVSPropertyOp51
 70
     0
102
RTVSPropertyOp52
 70
     0
102
RTVSPropertyOp53
 70
     1
102
RTVSPropertyOp54
 70
     1
102
RTVSPropertyOp55
 70
     1
102
RTVSPropertyOp56
 70
     1
102
RTVSPropertyOp57
 70
     1
102
RTVSPropertyOp58
 70
     1
102
RTVSPropertyOp59
 70
     1
102
RTVSPropertyOp60
 70
     1
102
RTVSPropertyOp61
 70
     1
102
RTVSPropertyOp62
 70
     1
  0
XRECORD
  5
6F88
102
{ACAD_REACTORS
330
6F87
102
}
330
6F87
100
AcDbXrecord
280
     1
102
RTVSPropertyOp28
 70
     1
102
RTVSPropertyOp29
 70
     1
102
RTVSPropertyOp30
 70
     1
102
RTVSPropertyOp31
 70
     1
102
RTVSPropertyOp32
 70
     1
102
RTVSPropertyOp33
 70
     1
102
RTVSPropertyOp34
 70
     1
102
RTVSPropertyOp35
 70
     1
102
RTVSPropertyOp36
 70
     1
102
RTVSPropertyOp37
 70
     1
102
RTVSPropertyOp38
 70
     1
102
RTVSPropertyOp39
 70
     1
102
RTVSPropertyOp40
 70
     1
102
RTVSPropertyOp41
 70
     1
102
RTVSPropertyOp42
 70
     1
102
RTVSPropertyOp43
 70
     1
102
RTVSPropertyOp44
 70
     1
102
RTVSPropertyOp45
 70
     1
102
RTVSPropertyOp46
 70
     1
102
RTVSPropertyOp47
 70
     1
102
RTVSPropertyOp48
 70
     1
102
RTVSPropertyOp49
 70
     1
102
RTVSPropertyOp50
 70
     1
102
RTVSPropertyOp51
 70
     0
102
RTVSPropertyOp52
 70
     0
102
RTVSPropertyOp53
 70
     1
102
RTVSPropertyOp54
 70
     1
102
RTVSPropertyOp55
 70
     1
102
RTVSPropertyOp56
 70
     1
102
RTVSPropertyOp57
 70
     1
102
RTVSPropertyOp58
 70
     1
102
RTVSPropertyOp59
 70
     1
102
RTVSPropertyOp60
 70
     1
102
RTVSPropertyOp61
 70
     1
102
RTVSPropertyOp62
 70
     1
  0
XRECORD
  5
6F8A
102
{ACAD_REACTORS
330
6F89
102
}
330
6F89
100
AcDbXrecord
280
     1
102
RTVSPropertyOp28
 70
     1
102
RTVSPropertyOp29
 70
     1
102
RTVSPropertyOp30
 70
     1
102
RTVSPropertyOp31
 70
     1
102
RTVSPropertyOp32
 70
     1
102
RTVSPropertyOp33
 70
     1
102
RTVSPropertyOp34
 70
     1
102
RTVSPropertyOp35
 70
     1
102
RTVSPropertyOp36
 70
     1
102
RTVSPropertyOp37
 70
     1
102
RTVSPropertyOp38
 70
     1
102
RTVSPropertyOp39
 70
     1
102
RTVSPropertyOp40
 70
     1
102
RTVSPropertyOp41
 70
     1
102
RTVSPropertyOp42
 70
     1
102
RTVSPropertyOp43
 70
     1
102
RTVSPropertyOp44
 70
     1
102
RTVSPropertyOp45
 70
     1
102
RTVSPropertyOp46
 70
     1
102
RTVSPropertyOp47
 70
     1
102
RTVSPropertyOp48
 70
     1
102
RTVSPropertyOp49
 70
     1
102
RTVSPropertyOp50
 70
     1
102
RTVSPropertyOp51
 70
     0
102
RTVSPropertyOp52
 70
     0
102
RTVSPropertyOp53
 70
     1
102
RTVSPropertyOp54
 70
     1
102
RTVSPropertyOp55
 70
     1
102
RTVSPropertyOp56
 70
     1
102
RTVSPropertyOp57
 70
     1
102
RTVSPropertyOp58
 70
     1
102
RTVSPropertyOp59
 70
     1
102
RTVSPropertyOp60
 70
     1
102
RTVSPropertyOp61
 70
     1
102
RTVSPropertyOp62
 70
     1
  0
XRECORD
  5
6F7A
102
{ACAD_REACTORS
330
6F79
102
}
330
6F79
100
AcDbXrecord
280
     1
102
RTVSPropertyOp28
 70
     1
102
RTVSPropertyOp29
 70
     1
102
RTVSPropertyOp30
 70
     1
102
RTVSPropertyOp31
 70
     1
102
RTVSPropertyOp32
 70
     1
102
RTVSPropertyOp33
 70
     1
102
RTVSPropertyOp34
 70
     1
102
RTVSPropertyOp35
 70
     1
102
RTVSPropertyOp36
 70
     1
102
RTVSPropertyOp37
 70
     1
102
RTVSPropertyOp38
 70
     1
102
RTVSPropertyOp39
 70
     1
102
RTVSPropertyOp40
 70
     1
102
RTVSPropertyOp41
 70
     1
102
RTVSPropertyOp42
 70
     1
102
RTVSPropertyOp43
 70
     1
102
RTVSPropertyOp44
 70
     1
102
RTVSPropertyOp45
 70
     1
102
RTVSPropertyOp46
 70
     1
102
RTVSPropertyOp47
 70
     1
102
RTVSPropertyOp48
 70
     1
102
RTVSPropertyOp49
 70
     1
102
RTVSPropertyOp50
 70
     1
102
RTVSPropertyOp51
 70
     0
102
RTVSPropertyOp52
 70
     0
102
RTVSPropertyOp53
 70
     1
102
RTVSPropertyOp54
 70
     1
102
RTVSPropertyOp55
 70
     1
102
RTVSPropertyOp56
 70
     1
102
RTVSPropertyOp57
 70
     1
102
RTVSPropertyOp58
 70
     1
102
RTVSPropertyOp59
 70
     1
102
RTVSPropertyOp60
 70
     1
102
RTVSPropertyOp61
 70
     1
102
RTVSPropertyOp62
 70
     1
  0
XRECORD
  5
6F6E
102
{ACAD_REACTORS
330
6F6D
102
}
330
6F6D
100
AcDbXrecord
280
     1
102
RTVSPropertyOp28
 70
     1
102
RTVSPropertyOp29
 70
     1
102
RTVSPropertyOp30
 70
     1
102
RTVSPropertyOp31
 70
     1
102
RTVSPropertyOp32
 70
     1
102
RTVSPropertyOp33
 70
     1
102
RTVSPropertyOp34
 70
     1
102
RTVSPropertyOp35
 70
     1
102
RTVSPropertyOp36
 70
     1
102
RTVSPropertyOp37
 70
     1
102
RTVSPropertyOp38
 70
     1
102
RTVSPropertyOp39
 70
     1
102
RTVSPropertyOp40
 70
     1
102
RTVSPropertyOp41
 70
     1
102
RTVSPropertyOp42
 70
     1
102
RTVSPropertyOp43
 70
     1
102
RTVSPropertyOp44
 70
     1
102
RTVSPropertyOp45
 70
     1
102
RTVSPropertyOp46
 70
     1
102
RTVSPropertyOp47
 70
     1
102
RTVSPropertyOp48
 70
     1
102
RTVSPropertyOp49
 70
     1
102
RTVSPropertyOp50
 70
     1
102
RTVSPropertyOp51
 70
     0
102
RTVSPropertyOp52
 70
     0
102
RTVSPropertyOp53
 70
     1
102
RTVSPropertyOp54
 70
     1
102
RTVSPropertyOp55
 70
     1
102
RTVSPropertyOp56
 70
     1
102
RTVSPropertyOp57
 70
     1
102
RTVSPropertyOp58
 70
     1
102
RTVSPropertyOp59
 70
     1
102
RTVSPropertyOp60
 70
     1
102
RTVSPropertyOp61
 70
     1
102
RTVSPropertyOp62
 70
     1
  0
XRECORD
  5
6F8C
102
{ACAD_REACTORS
330
6F8B
102
}
330
6F8B
100
AcDbXrecord
280
     1
102
RTVSPropertyOp28
 70
     1
102
RTVSPropertyOp29
 70
     1
102
RTVSPropertyOp30
 70
     1
102
RTVSPropertyOp31
 70
     1
102
RTVSPropertyOp32
 70
     1
102
RTVSPropertyOp33
 70
     1
102
RTVSPropertyOp34
 70
     1
102
RTVSPropertyOp35
 70
     1
102
RTVSPropertyOp36
 70
     1
102
RTVSPropertyOp37
 70
     1
102
RTVSPropertyOp38
 70
     1
102
RTVSPropertyOp39
 70
     1
102
RTVSPropertyOp40
 70
     1
102
RTVSPropertyOp41
 70
     1
102
RTVSPropertyOp42
 70
     1
102
RTVSPropertyOp43
 70
     1
102
RTVSPropertyOp44
 70
     1
102
RTVSPropertyOp45
 70
     1
102
RTVSPropertyOp46
 70
     1
102
RTVSPropertyOp47
 70
     1
102
RTVSPropertyOp48
 70
     1
102
RTVSPropertyOp49
 70
     1
102
RTVSPropertyOp50
 70
     1
102
RTVSPropertyOp51
 70
     0
102
RTVSPropertyOp52
 70
     0
102
RTVSPropertyOp53
 70
     1
102
RTVSPropertyOp54
 70
     1
102
RTVSPropertyOp55
 70
     1
102
RTVSPropertyOp56
 70
     1
102
RTVSPropertyOp57
 70
     1
102
RTVSPropertyOp58
 70
     1
102
RTVSPropertyOp59
 70
     1
102
RTVSPropertyOp60
 70
     1
102
RTVSPropertyOp61
 70
     1
102
RTVSPropertyOp62
 70
     1
  0
XRECORD
  5
6B4C
102
{ACAD_REACTORS
330
6B4B
102
}
330
6B4B
100
AcDbXrecord
280
     1
1071
 82437801
1071
112294725
 70
    25
 70
   104
 10
0.0
 20
0.0
 30
0.0
  0
XRECORD
  5
6AAF
102
{ACAD_REACTORS
330
6AAE
102
}
330
6AAE
100
AcDbXrecord
280
     1
1071
 82437801
1071
112294725
 70
    25
 70
   104
 10
0.0
 20
0.0
 30
0.0
  0
XRECORD
  5
6ABE
102
{ACAD_REACTORS
330
6ABD
102
}
330
6ABD
100
AcDbXrecord
280
     1
1071
 82437801
1071
112294725
 70
    25
 70
   104
 10
0.0
 20
0.0
 30
0.0
  0
XRECORD
  5
6AD1
102
{ACAD_REACTORS
330
6AD0
102
}
330
6AD0
100
AcDbXrecord
280
     1
1071
 82437801
1071
112294725
 70
    25
 70
   104
 10
0.0
 20
0.0
 30
0.0
  0
XRECORD
  5
6ADC
102
{ACAD_REACTORS
330
6ADB
102
}
330
6ADB
100
AcDbXrecord
280
     1
1071
 82437801
1071
112294725
 70
    25
 70
   104
 10
0.0
 20
0.0
 30
0.0
  0
XRECORD
  5
6AF2
102
{ACAD_REACTORS
330
6AF1
102
}
330
6AF1
100
AcDbXrecord
280
     1
1071
 82437801
1071
112294725
 70
    25
 70
   104
 10
0.0
 20
0.0
 30
0.0
  0
XRECORD
  5
6AFD
102
{ACAD_REACTORS
330
6AFC
102
}
330
6AFC
100
AcDbXrecord
280
     1
1071
 82437801
1071
112294725
 70
    25
 70
   104
 10
0.0
 20
0.0
 30
0.0
  0
XRECORD
  5
6B08
102
{ACAD_REACTORS
330
6B07
102
}
330
6B07
100
AcDbXrecord
280
     1
1071
 82437801
1071
112294725
 70
    25
 70
   104
 10
0.0
 20
0.0
 30
0.0
  0
XRECORD
  5
6B13
102
{ACAD_REACTORS
330
6B12
102
}
330
6B12
100
AcDbXrecord
280
     1
1071
 82437801
1071
112294725
 70
    25
 70
   104
 10
0.0
 20
0.0
 30
0.0
  0
XRECORD
  5
6B1E
102
{ACAD_REACTORS
330
6B1D
102
}
330
6B1D
100
AcDbXrecord
280
     1
1071
 82437801
1071
112294725
 70
    25
 70
   104
 10
0.0
 20
0.0
 30
0.0
  0
XRECORD
  5
6B29
102
{ACAD_REACTORS
330
6B28
102
}
330
6B28
100
AcDbXrecord
280
     1
1071
 82437801
1071
112294725
 70
    25
 70
   104
 10
0.0
 20
0.0
 30
0.0
  0
XRECORD
  5
6B3F
102
{ACAD_REACTORS
330
6B3E
102
}
330
6B3E
100
AcDbXrecord
280
     1
1071
 82437801
1071
112294725
 70
    25
 70
   104
 10
0.0
 20
0.0
 30
0.0
  0
XRECORD
  5
738A
102
{ACAD_REACTORS
330
7389
102
}
330
7389
100
AcDbXrecord
280
     1
1071
 82437801
1071
112294725
 70
    25
 70
   104
 10
0.0
 20
0.0
 30
0.0
  0
XRECORD
  5
7392
102
{ACAD_REACTORS
330
7391
102
}
330
7391
100
AcDbXrecord
280
     1
1071
 82437801
1071
112294725
 70
    25
 70
   104
 10
0.0
 20
0.0
 30
0.0
  0
XRECORD
  5
748A
102
{ACAD_REACTORS
330
7489
102
}
330
7489
100
AcDbXrecord
280
     1
1071
 82437801
1071
112294725
 70
    25
 70
   104
 10
0.0
 20
0.0
 30
0.0
  0
XRECORD
  5
73A1
102
{ACAD_REACTORS
330
73A0
102
}
330
73A0
100
AcDbXrecord
280
     1
1071
 82437801
1071
112294725
 70
    25
 70
   104
 10
0.0
 20
0.0
 30
0.0
  0
XRECORD
  5
73A9
102
{ACAD_REACTORS
330
73A8
102
}
330
73A8
100
AcDbXrecord
280
     1
1071
 82437801
1071
112294725
 70
    25
 70
   104
 10
0.0
 20
0.0
 30
0.0
  0
XRECORD
  5
73B0
102
{ACAD_REACTORS
330
73AF
102
}
330
73AF
100
AcDbXrecord
280
     1
1071
 82437801
1071
112294725
 70
    25
 70
   104
 10
0.0
 20
0.0
 30
0.0
  0
XRECORD
  5
73B8
102
{ACAD_REACTORS
330
73B7
102
}
330
73B7
100
AcDbXrecord
280
     1
1071
 82437801
1071
112294725
 70
    25
 70
   104
 10
0.0
 20
0.0
 30
0.0
  0
XRECORD
  5
73C0
102
{ACAD_REACTORS
330
73BF
102
}
330
73BF
100
AcDbXrecord
280
     1
1071
 82437801
1071
112294725
 70
    25
 70
   104
 10
0.0
 20
0.0
 30
0.0
  0
XRECORD
  5
73CA
102
{ACAD_REACTORS
330
73C9
102
}
330
73C9
100
AcDbXrecord
280
     1
1071
 82437801
1071
112294725
 70
    25
 70
   104
 10
0.0
 20
0.0
 30
0.0
  0
XRECORD
  5
73D1
102
{ACAD_REACTORS
330
73D0
102
}
330
73D0
100
AcDbXrecord
280
     1
1071
 82437801
1071
112294725
 70
    25
 70
   104
 10
0.0
 20
0.0
 30
0.0
  0
XRECORD
  5
748D
102
{ACAD_REACTORS
330
748C
102
}
330
748C
100
AcDbXrecord
280
     1
1071
 82437801
1071
112294725
 70
    25
 70
   104
 10
0.0
 20
0.0
 30
0.0
  0
XRECORD
  5
73DB
102
{ACAD_REACTORS
330
73DA
102
}
330
73DA
100
AcDbXrecord
280
     1
1071
 82437801
1071
112294725
 70
    25
 70
   104
 10
0.0
 20
0.0
 30
0.0
  0
XRECORD
  5
73E2
102
{ACAD_REACTORS
330
73E1
102
}
330
73E1
100
AcDbXrecord
280
     1
1071
 82437801
1071
112294725
 70
    25
 70
   104
 10
0.0
 20
0.0
 30
0.0
  0
XRECORD
  5
73F0
102
{ACAD_REACTORS
330
73EF
102
}
330
73EF
100
AcDbXrecord
280
     1
1071
 82437801
1071
112294725
 70
    25
 70
   104
 10
0.0
 20
0.0
 30
0.0
  0
XRECORD
  5
73F8
102
{ACAD_REACTORS
330
73F7
102
}
330
73F7
100
AcDbXrecord
280
     1
1071
 82437801
1071
112294725
 70
    25
 70
   104
 10
0.0
 20
0.0
 30
0.0
  0
XRECORD
  5
73FF
102
{ACAD_REACTORS
330
73FE
102
}
330
73FE
100
AcDbXrecord
280
     1
1071
 82437801
1071
112294725
 70
    25
 70
   104
 10
0.0
 20
0.0
 30
0.0
  0
XRECORD
  5
7406
102
{ACAD_REACTORS
330
7405
102
}
330
7405
100
AcDbXrecord
280
     1
1071
 82437801
1071
112294725
 70
    25
 70
   104
 10
0.0
 20
0.0
 30
0.0
  0
XRECORD
  5
740D
102
{ACAD_REACTORS
330
740C
102
}
330
740C
100
AcDbXrecord
280
     1
1071
 82437801
1071
112294725
 70
    25
 70
   104
 10
0.0
 20
0.0
 30
0.0
  0
XRECORD
  5
7415
102
{ACAD_REACTORS
330
7414
102
}
330
7414
100
AcDbXrecord
280
     1
1071
 82437801
1071
112294725
 70
    25
 70
   104
 10
0.0
 20
0.0
 30
0.0
  0
XRECORD
  5
741C
102
{ACAD_REACTORS
330
741B
102
}
330
741B
100
AcDbXrecord
280
     1
1071
 82437801
1071
112294725
 70
    25
 70
   104
 10
0.0
 20
0.0
 30
0.0
  0
XRECORD
  5
7424
102
{ACAD_REACTORS
330
7423
102
}
330
7423
100
AcDbXrecord
280
     1
1071
 82437801
1071
112294725
 70
    25
 70
   104
 10
0.0
 20
0.0
 30
0.0
  0
ENDSEC
  0
SECTION
  2
ACDSDATA
 70
     2
 71
     8
  0
ACDSSCHEMA
 90
        0
  1
AcDb_Thumbnail_Schema
  2
AcDbDs::ID
280
    10
 91
        8
  2
Thumbnail_Data
280
    15
 91
        0
101
ACDSRECORD
 95
        0
 90
        1
  2
AcDbDs::TreatedAsObjectData
280
     1
291
     1
101
ACDSRECORD
 95
        0
 90
        2
  2
AcDbDs::Legacy
280
     1
291
     1
101
ACDSRECORD
  1
AcDbDs::ID
 90
        3
  2
AcDs:Indexable
280
     1
291
     1
101
ACDSRECORD
  1
AcDbDs::ID
 90
        4
  2
AcDbDs::HandleAttribute
280
     7
282
     1
  0
ACDSSCHEMA
 90
        1
  1
AcDbDs::TreatedAsObjectDataSchema
  2
AcDbDs::TreatedAsObjectData
280
     1
 91
        0
  0
ACDSSCHEMA
 90
        2
  1
AcDbDs::LegacySchema
  2
AcDbDs::Legacy
280
     1
 91
        0
  0
ACDSSCHEMA
 90
        3
  1
AcDbDs::IndexedPropertySchema
  2
AcDs:Indexable
280
     1
 91
        0
  0
ACDSSCHEMA
 90
        4
  1
AcDbDs::HandleAttributeSchema
  2
AcDbDs::HandleAttribute
280
     7
 91
        1
284
     1
  0
ACDSRECORD
 90
        0
  2
AcDbDs::ID
280
    10
320
22
  2
Thumbnail_Data
280
    15
 94
     1550
310
89504E470D0A1A0A0000000D4948445200000100000000C00803000000DC334D5400000300504C5445FFFFFF000000C8C8C80000000000000000000000000000000000000000000000000000330000660000990000CC0000FF0033000033330033660033990033CC0033FF0066000066330066660066990066CC0066FF0099
310
000099330099660099990099CC0099FF00CC0000CC3300CC6600CC9900CCCC00CCFF00FF0000FF3300FF6600FF9900FFCC00FFFF3300003300333300663300993300CC3300FF3333003333333333663333993333CC3333FF3366003366333366663366993366CC3366FF3399003399333399663399993399CC3399FF33CC00
310
33CC3333CC6633CC9933CCCC33CCFF33FF0033FF3333FF6633FF9933FFCC33FFFF6600006600336600666600996600CC6600FF6633006633336633666633996633CC6633FF6666006666336666666666996666CC6666FF6699006699336699666699996699CC6699FF66CC0066CC3366CC6666CC9966CCCC66CCFF66FF0066
310
FF3366FF6666FF9966FFCC66FFFF9900009900339900669900999900CC9900FF9933009933339933669933999933CC9933FF9966009966339966669966999966CC9966FF9999009999339999669999999999CC9999FF99CC0099CC3399CC6699CC9999CCCC99CCFF99FF0099FF3399FF6699FF9999FFCC99FFFFCC0000CC00
310
33CC0066CC0099CC00CCCC00FFCC3300CC3333CC3366CC3399CC33CCCC33FFCC6600CC6633CC6666CC6699CC66CCCC66FFCC9900CC9933CC9966CC9999CC99CCCC99FFCCCC00CCCC33CCCC66CCCC99CCCCCCCCCCFFCCFF00CCFF33CCFF66CCFF99CCFFCCCCFFFFFF0000FF0033FF0066FF0099FF00CCFF00FFFF3300FF3333
310
FF3366FF3399FF33CCFF33FFFF6600FF6633FF6666FF6699FF66CCFF66FFFF9900FF9933FF9966FF9999FF99CCFF99FFFFCC00FFCC33FFCC66FFCC99FFCCCCFFCCFFFFFF00FFFF33FFFF66FFFF99FFFFCCFFFFFF0000000D0D0D1A1A1A2828283535354343435050505D5D5D6B6B6B787878868686939393A1A1A1AEAEAEBB
310
BBBBC9C9C9D6D6D6E4E4E4F1F1F1FFFFFF000000000000000000000000000000000000000000000000000000000000B0E2D235000002C94944415478DAEDDCE16DDB301086E1DB406B78FF016E98FBED21E2889444D986814814E2E3F77E691B17AD8DF0097524658666841042082184104208218410420821847449947CD9
310
4B0100C075F17DEA57ED5D93A8FD17050000A409BEBC0ADE3FA5DBCB7D33C06B9FF8F06F075F2E174000D015E057201540337BD3043079807A0D842EC0A3ED654970EFE599AD0846AD051D0066CB2C00D39CC7173CC5349DBF044A2D89443D606A4AC074BA08D6DB0171F085FE11C0FB002CA349C802ACA54416C0D47B40BA
310
B500005D4781B400653104C07180D80F837200F3D3E729505A8079467C0260CB725334610FB0739740EE1ED0F78648D2615019C00100A02740A2C55053B6A5006269FEA40910DB5E96787A3B5705607F0BA77B0F48775B5C0E20AE2D829EE312789ABC6B013CADDEE42642EA3DE0EA220800000000C036390012019CBC293A
310
C056D95300F6A1A44814410000000000000000008044007D7F6A6C84B88907000000000000000E3DADBEAF583ED53F77FFC38705F0DAFEF957F98B55062FBFCBC351014A0B4B1397E65A6DB45BF9304F4270B007AC97806FFD610150E801EE9B42FB69BD169A07A38E02FEFEC99E6D7861185407387BFCD7F3D93975647497
310
01281FED4942CB609882213A01589915BD3E1CBE072C53A1B6D5DE4E88C607485E03F31D03D9F9FB1FA60EB09DA2F22123B75F1AA0B65D19606D1D001A0D7E33117C5B0384564261CA00E5DBAF0DA03E19569F0AB318623528DF036E0068467E97D8FDB507002007706BA209B0F500007401729C867B1D404400509784C297
310
401800EA00260E205C03A447810000006980F55068D922D8BE37AE7B43E4D4212A0000901E203A9F22930B200010BF2DAE0E30CF7FB47B803C0035000000B67D620000A0380F68F6868ACE0362DD2FCD250080EC3C4016C08C5D6200000000009A008A9BA56F7F8D7AFB471300401DE0CF04E30F056A3F270B000000104208
310
21841092213FE173F744946957BB0000000049454E44AE426082
  0
ENDSEC
  0
EOF
