  0
SECTION
  2
HEADER
  9
$ACADVER
  1
AC1024
  9
$ACADMAINTVER
 70
   205
  9
$DWGCODEPAGE
  3
ANSI_936
  9
$LASTSAVEDBY
  1
Arysting
  9
$INSBASE
 10
0.0
 20
0.0
 30
0.0
  9
$EXTMIN
 10
-74.0
 20
-62.0
 30
0.0
  9
$EXTMAX
 10
3599.916241049776
 20
4149.072770875116
 30
0.0
  9
$LIMMIN
 10
0.0
 20
0.0
  9
$LIMMAX
 10
420.0
 20
297.0
  9
$ORTHOMODE
 70
     1
  9
$REGENMODE
 70
     1
  9
$FILLMODE
 70
     1
  9
$QTEXTMODE
 70
     0
  9
$MIRRTEXT
 70
     0
  9
$LTSCALE
 40
1.0
  9
$ATTMODE
 70
     1
  9
$TEXTSIZE
 40
20.0
  9
$TRACEWID
 40
1.0
  9
$TEXTSTYLE
  7
Standard
  9
$CLAYER
  8
DM-10kV-Wire
  9
$CELTYPE
  6
ByLayer
  9
$CECOLOR
 62
   256
  9
$CELTSCALE
 40
1.0
  9
$DISPSILH
 70
     0
  9
$DIMSCALE
 40
1.0
  9
$DIMASZ
 40
2.5
  9
$DIMEXO
 40
0.625
  9
$DIMDLI
 40
3.75
  9
$DIMRND
 40
0.0
  9
$DIMDLE
 40
0.0
  9
$DIMEXE
 40
1.25
  9
$DIMTP
 40
0.0
  9
$DIMTM
 40
0.0
  9
$DIMTXT
 40
2.5
  9
$DIMCEN
 40
2.5
  9
$DIMTSZ
 40
0.0
  9
$DIMTOL
 70
     0
  9
$DIMLIM
 70
     0
  9
$DIMTIH
 70
     0
  9
$DIMTOH
 70
     0
  9
$DIMSE1
 70
     0
  9
$DIMSE2
 70
     0
  9
$DIMTAD
 70
     1
  9
$DIMZIN
 70
     8
  9
$DIMBLK
  1

  9
$DIMASO
 70
     1
  9
$DIMSHO
 70
     1
  9
$DIMPOST
  1

  9
$DIMAPOST
  1

  9
$DIMALT
 70
     0
  9
$DIMALTD
 70
     3
  9
$DIMALTF
 40
0.03937007874016
  9
$DIMLFAC
 40
1.0
  9
$DIMTOFL
 70
     1
  9
$DIMTVP
 40
0.0
  9
$DIMTIX
 70
     0
  9
$DIMSOXD
 70
     0
  9
$DIMSAH
 70
     0
  9
$DIMBLK1
  1

  9
$DIMBLK2
  1

  9
$DIMSTYLE
  2
ISO-25
  9
$DIMCLRD
 70
     0
  9
$DIMCLRE
 70
     0
  9
$DIMCLRT
 70
     0
  9
$DIMTFAC
 40
1.0
  9
$DIMGAP
 40
0.625
  9
$DIMJUST
 70
     0
  9
$DIMSD1
 70
     0
  9
$DIMSD2
 70
     0
  9
$DIMTOLJ
 70
     0
  9
$DIMTZIN
 70
     8
  9
$DIMALTZ
 70
     0
  9
$DIMALTTZ
 70
     0
  9
$DIMUPT
 70
     0
  9
$DIMDEC
 70
     2
  9
$DIMTDEC
 70
     2
  9
$DIMALTU
 70
     2
  9
$DIMALTTD
 70
     3
  9
$DIMTXSTY
  7
Standard
  9
$DIMAUNIT
 70
     0
  9
$DIMADEC
 70
     0
  9
$DIMALTRND
 40
0.0
  9
$DIMAZIN
 70
     0
  9
$DIMDSEP
 70
    44
  9
$DIMATFIT
 70
     3
  9
$DIMFRAC
 70
     0
  9
$DIMLDRBLK
  1

  9
$DIMLUNIT
 70
     2
  9
$DIMLWD
 70
    -2
  9
$DIMLWE
 70
    -2
  9
$DIMTMOVE
 70
     0
  9
$DIMFXL
 40
1.0
  9
$DIMFXLON
 70
     0
  9
$DIMJOGANG
 40
0.7853981633974483
  9
$DIMTFILL
 70
     0
  9
$DIMTFILLCLR
 70
     0
  9
$DIMARCSYM
 70
     0
  9
$DIMLTYPE
  6

  9
$DIMLTEX1
  6

  9
$DIMLTEX2
  6

  9
$DIMTXTDIRECTION
 70
     0
  9
$LUNITS
 70
     2
  9
$LUPREC
 70
     4
  9
$SKETCHINC
 40
1.0
  9
$FILLETRAD
 40
0.0
  9
$AUNITS
 70
     0
  9
$AUPREC
 70
     0
  9
$MENU
  1
.
  9
$ELEVATION
 40
0.0
  9
$PELEVATION
 40
0.0
  9
$THICKNESS
 40
0.0
  9
$LIMCHECK
 70
     0
  9
$CHAMFERA
 40
0.0
  9
$CHAMFERB
 40
0.0
  9
$CHAMFERC
 40
0.0
  9
$CHAMFERD
 40
0.0
  9
$SKPOLY
 70
     0
  9
$TDCREATE
 40
2457724.731902708
  9
$TDUCREATE
 40
2457724.398569375
  9
$TDUPDATE
 40
2457758.411198565
  9
$TDUUPDATE
 40
2457758.077865231
  9
$TDINDWG
 40
0.4444371991
  9
$TDUSRTIMER
 40
0.4444371644
  9
$USRTIMER
 70
     1
  9
$ANGBASE
 50
0.0
  9
$ANGDIR
 70
     0
  9
$PDMODE
 70
     0
  9
$PDSIZE
 40
0.0
  9
$PLINEWID
 40
0.0
  9
$SPLFRAME
 70
     0
  9
$SPLINETYPE
 70
     6
  9
$SPLINESEGS
 70
     8
  9
$HANDSEED
  5
7919
  9
$SURFTAB1
 70
     6
  9
$SURFTAB2
 70
     6
  9
$SURFTYPE
 70
     6
  9
$SURFU
 70
     6
  9
$SURFV
 70
     6
  9
$UCSBASE
  2

  9
$UCSNAME
  2

  9
$UCSORG
 10
0.0
 20
0.0
 30
0.0
  9
$UCSXDIR
 10
1.0
 20
0.0
 30
0.0
  9
$UCSYDIR
 10
0.0
 20
1.0
 30
0.0
  9
$UCSORTHOREF
  2

  9
$UCSORTHOVIEW
 70
     0
  9
$UCSORGTOP
 10
0.0
 20
0.0
 30
0.0
  9
$UCSORGBOTTOM
 10
0.0
 20
0.0
 30
0.0
  9
$UCSORGLEFT
 10
0.0
 20
0.0
 30
0.0
  9
$UCSORGRIGHT
 10
0.0
 20
0.0
 30
0.0
  9
$UCSORGFRONT
 10
0.0
 20
0.0
 30
0.0
  9
$UCSORGBACK
 10
0.0
 20
0.0
 30
0.0
  9
$PUCSBASE
  2

  9
$PUCSNAME
  2

  9
$PUCSORG
 10
0.0
 20
0.0
 30
0.0
  9
$PUCSXDIR
 10
1.0
 20
0.0
 30
0.0
  9
$PUCSYDIR
 10
0.0
 20
1.0
 30
0.0
  9
$PUCSORTHOREF
  2

  9
$PUCSORTHOVIEW
 70
     0
  9
$PUCSORGTOP
 10
0.0
 20
0.0
 30
0.0
  9
$PUCSORGBOTTOM
 10
0.0
 20
0.0
 30
0.0
  9
$PUCSORGLEFT
 10
0.0
 20
0.0
 30
0.0
  9
$PUCSORGRIGHT
 10
0.0
 20
0.0
 30
0.0
  9
$PUCSORGFRONT
 10
0.0
 20
0.0
 30
0.0
  9
$PUCSORGBACK
 10
0.0
 20
0.0
 30
0.0
  9
$USERI1
 70
     0
  9
$USERI2
 70
     0
  9
$USERI3
 70
     0
  9
$USERI4
 70
     0
  9
$USERI5
 70
     0
  9
$USERR1
 40
0.0
  9
$USERR2
 40
0.0
  9
$USERR3
 40
0.0
  9
$USERR4
 40
0.0
  9
$USERR5
 40
0.0
  9
$WORLDVIEW
 70
     1
  9
$SHADEDGE
 70
     3
  9
$SHADEDIF
 70
    70
  9
$TILEMODE
 70
     1
  9
$MAXACTVP
 70
    64
  9
$PINSBASE
 10
0.0
 20
0.0
 30
0.0
  9
$PLIMCHECK
 70
     0
  9
$PEXTMIN
 10
0.0
 20
0.0
 30
0.0
  9
$PEXTMAX
 10
0.0
 20
0.0
 30
0.0
  9
$PLIMMIN
 10
0.0
 20
0.0
  9
$PLIMMAX
 10
12.0
 20
9.0
  9
$UNITMODE
 70
     0
  9
$VISRETAIN
 70
     1
  9
$PLINEGEN
 70
     0
  9
$PSLTSCALE
 70
     1
  9
$TREEDEPTH
 70
  3020
  9
$CMLSTYLE
  2
Standard
  9
$CMLJUST
 70
     0
  9
$CMLSCALE
 40
20.0
  9
$PROXYGRAPHICS
 70
     1
  9
$MEASUREMENT
 70
     1
  9
$CELWEIGHT
370
    -1
  9
$ENDCAPS
280
     0
  9
$JOINSTYLE
280
     0
  9
$LWDISPLAY
290
     1
  9
$INSUNITS
 70
     4
  9
$HYPERLINKBASE
  1

  9
$STYLESHEET
  1

  9
$XEDIT
290
     1
  9
$CEPSNTYPE
380
     0
  9
$PSTYLEMODE
290
     1
  9
$FINGERPRINTGUID
  2
{653EACD8-77A6-4CF1-BA8B-00A6C84D356E}
  9
$VERSIONGUID
  2
{B19FD14D-0CAD-4148-8DD4-E643F02E07A3}
  9
$EXTNAMES
290
     1
  9
$PSVPSCALE
 40
0.0
  9
$OLESTARTUP
290
     0
  9
$SORTENTS
280
   127
  9
$INDEXCTL
280
     0
  9
$HIDETEXT
280
     1
  9
$XCLIPFRAME
280
     2
  9
$HALOGAP
280
     0
  9
$OBSCOLOR
 70
   257
  9
$OBSLTYPE
280
     0
  9
$INTERSECTIONDISPLAY
280
     0
  9
$INTERSECTIONCOLOR
 70
   257
  9
$DIMASSOC
280
     2
  9
$PROJECTNAME
  1

  9
$CAMERADISPLAY
290
     0
  9
$LENSLENGTH
 40
50.0
  9
$CAMERAHEIGHT
 40
0.0
  9
$STEPSPERSEC
 40
2.0
  9
$STEPSIZE
 40
6.0
  9
$3DDWFPREC
 40
2.0
  9
$PSOLWIDTH
 40
5.0
  9
$PSOLHEIGHT
 40
80.0
  9
$LOFTANG1
 40
1.570796326794896
  9
$LOFTANG2
 40
1.570796326794896
  9
$LOFTMAG1
 40
0.0
  9
$LOFTMAG2
 40
0.0
  9
$LOFTPARAM
 70
     7
  9
$LOFTNORMALS
280
     1
  9
$LATITUDE
 40
37.795
  9
$LONGITUDE
 40
-122.394
  9
$NORTHDIRECTION
 40
0.0
  9
$TIMEZONE
 70
 -8000
  9
$LIGHTGLYPHDISPLAY
280
     1
  9
$TILEMODELIGHTSYNCH
280
     1
  9
$CMATERIAL
347
EC
  9
$SOLIDHIST
280
     0
  9
$SHOWHIST
280
     1
  9
$DWFFRAME
280
     2
  9
$DGNFRAME
280
     0
  9
$REALWORLDSCALE
290
     1
  9
$INTERFERECOLOR
 62
     1
  9
$INTERFEREOBJVS
345
F9
  9
$INTERFEREVPVS
346
F6
  9
$CSHADOW
280
     0
  9
$SHADOWPLANELOCATION
 40
0.0
  0
ENDSEC
  0
SECTION
  2
CLASSES
  0
CLASS
  1
ACDBDICTIONARYWDFLT
  2
AcDbDictionaryWithDefault
  3
ObjectDBX Classes
 90
        0
 91
        1
280
     0
281
     0
  0
CLASS
  1
DICTIONARYVAR
  2
AcDbDictionaryVar
  3
ObjectDBX Classes
 90
        0
 91
       12
280
     0
281
     0
  0
CLASS
  1
TABLESTYLE
  2
AcDbTableStyle
  3
ObjectDBX Classes
 90
     4095
 91
        1
280
     0
281
     0
  0
CLASS
  1
MATERIAL
  2
AcDbMaterial
  3
ObjectDBX Classes
 90
     1153
 91
        3
280
     0
281
     0
  0
CLASS
  1
VISUALSTYLE
  2
AcDbVisualStyle
  3
ObjectDBX Classes
 90
     4095
 91
       26
280
     0
281
     0
  0
CLASS
  1
SCALE
  2
AcDbScale
  3
ObjectDBX Classes
 90
     1153
 91
       17
280
     0
281
     0
  0
CLASS
  1
MLEADERSTYLE
  2
AcDbMLeaderStyle
  3
ACDB_MLEADERSTYLE_CLASS
 90
     4095
 91
        2
280
     0
281
     0
  0
CLASS
  1
CELLSTYLEMAP
  2
AcDbCellStyleMap
  3
ObjectDBX Classes
 90
     1152
 91
        3
280
     0
281
     0
  0
CLASS
  1
EXACXREFPANELOBJECT
  2
ExAcXREFPanelObject
  3
EXAC_ESW
 90
     1025
 91
        0
280
     0
281
     0
  0
CLASS
  1
NPOCOLLECTION
  2
AcDbImpNonPersistentObjectsCollection
  3
ObjectDBX Classes
 90
     1153
 91
        0
280
     0
281
     0
  0
CLASS
  1
LAYER_INDEX
  2
AcDbLayerIndex
  3
ObjectDBX Classes
 90
        0
 91
        0
280
     0
281
     0
  0
CLASS
  1
SPATIAL_INDEX
  2
AcDbSpatialIndex
  3
ObjectDBX Classes
 90
        0
 91
        0
280
     0
281
     0
  0
CLASS
  1
IDBUFFER
  2
AcDbIdBuffer
  3
ObjectDBX Classes
 90
        0
 91
        0
280
     0
281
     0
  0
CLASS
  1
ACDBSECTIONVIEWSTYLE
  2
AcDbSectionViewStyle
  3
ObjectDBX Classes
 90
     1025
 91
        1
280
     0
281
     0
  0
CLASS
  1
ACDBDETAILVIEWSTYLE
  2
AcDbDetailViewStyle
  3
ObjectDBX Classes
 90
     1025
 91
        1
280
     0
281
     0
  0
CLASS
  1
ACAD_EVALUATION_GRAPH
  2
AcDbEvalGraph
  3
ObjectDBX Classes
 90
     1153
 91
       12
280
     0
281
     0
  0
CLASS
  1
BLOCKBASEPOINTPARAMETER
  2
AcDbBlockBasepointParameter
  3
ObjectDBX Classes
 90
     1153
 91
       12
280
     0
281
     0
  0
CLASS
  1
ACDB_DYNAMICBLOCKPURGEPREVENTER_VERSION
  2
AcDbDynamicBlockPurgePreventer
  3
ObjectDBX Classes
 90
     1153
 91
       12
280
     0
281
     0
  0
CLASS
  1
SORTENTSTABLE
  2
AcDbSortentsTable
  3
ObjectDBX Classes
 90
        0
 91
        3
280
     0
281
     0
  0
CLASS
  1
ACDB_BLOCKREPRESENTATION_DATA
  2
AcDbBlockRepresentationData
  3
ObjectDBX Classes
 90
     1153
 91
       35
280
     0
281
     0
  0
CLASS
  1
ACDBASSOCPERSSUBENTMANAGER
  2
AcDbAssocPersSubentManager
  3
ObjectDBX Classes
 90
     1024
 91
        1
280
     0
281
     0
  0
CLASS
  1
ACDBPERSSUBENTMANAGER
  2
AcDbPersSubentManager
  3
AcDbPersSubentManager
 90
     1024
 91
        1
280
     0
281
     0
  0
CLASS
  1
ACAECUSTOBJ
  2
AcAeEditorObj
  3
AcAeEditorObj
 90
     1024
 91
        0
280
     0
281
     0
  0
CLASS
  1
BASEPOINTPARAMETERENTITY
  2
AcDbBlockBasepointParameterEntity
  3
ObjectDBX Classes
 90
     1025
 91
        0
280
     0
281
     1
  0
CLASS
  1
ACAEEEMGROBJ
  2
AcAeEEMgrObj
  3
AcAeEEMgrObj
 90
     1024
 91
        0
280
     0
281
     0
  0
ENDSEC
  0
SECTION
  2
TABLES
  0
TABLE
  2
VPORT
  5
8
102
{ACAD_XDICTIONARY
360
4F8F
102
}
330
0
100
AcDbSymbolTable
 70
     1
  0
VPORT
  5
EA
330
8
100
AcDbSymbolTableRecord
100
AcDbViewportTableRecord
  2
*Active
 70
     0
 10
0.0
 20
0.0
 11
1.0
 21
1.0
 12
4968.904215155469
 22
579.9794578644532
 13
0.0
 23
0.0
 14
10.0
 24
10.0
 15
10.0
 25
10.0
 16
0.0
 26
0.0
 36
1.0
 17
0.0
 27
0.0
 37
0.0
 40
10723.13623393839
 41
2.444302176696542
 42
50.0
 43
0.0
 44
0.0
 50
0.0
 51
0.0
 71
     0
 72
  1000
 73
     1
 74
     3
 75
     0
 76
     1
 77
     0
 78
     0
281
     0
 65
     1
110
0.0
120
0.0
130
0.0
111
1.0
121
0.0
131
0.0
112
0.0
122
1.0
132
0.0
 79
     0
146
0.0
348
F5
 60
     3
 61
     5
292
     1
282
     1
141
0.0
142
0.0
 63
   250
421
  3355443
1001
ACAD_NAV_VCDISPLAY
1070
     3
  0
ENDTAB
  0
TABLE
  2
LTYPE
  5
5
330
0
100
AcDbSymbolTable
 70
     5
  0
LTYPE
  5
14
330
5
100
AcDbSymbolTableRecord
100
AcDbLinetypeTableRecord
  2
ByBlock
 70
     0
  3

 72
    65
 73
     0
 40
0.0
  0
LTYPE
  5
15
330
5
100
AcDbSymbolTableRecord
100
AcDbLinetypeTableRecord
  2
ByLayer
 70
     0
  3

 72
    65
 73
     0
 40
0.0
  0
LTYPE
  5
16
330
5
100
AcDbSymbolTableRecord
100
AcDbLinetypeTableRecord
  2
Continuous
 70
     0
  3
Solid line
 72
    65
 73
     0
 40
0.0
  0
LTYPE
  5
532
330
5
100
AcDbSymbolTableRecord
100
AcDbLinetypeTableRecord
  2
ACAD_ISO03W100
 70
     0
  3
ISO dash space __    __    __    __    __    __
 72
    65
 73
     2
 40
30.0
 49
12.0
 74
     0
 49
-18.0
 74
     0
  0
LTYPE
  5
533
330
5
100
AcDbSymbolTableRecord
100
AcDbLinetypeTableRecord
  2
DASHED2
 70
     0
  3
Dashed (.5x) _ _ _ _ _ _ _ _ _ _ _ _ _ _ _ _ _
 72
    65
 73
     2
 40
9.524999999999998
 49
6.349999999999999
 74
     0
 49
-3.174999999999999
 74
     0
  0
LTYPE
  5
3C52
330
5
100
AcDbSymbolTableRecord
100
AcDbLinetypeTableRecord
  2
DASHED
 70
     0
  3
__ __ __ __ __ __ __ __ __ __ __ __ __ __ __ __
 72
    65
 73
     2
 40
0.75
 49
0.5
 74
     0
 49
-0.25
 74
     0
  0
ENDTAB
  0
TABLE
  2
LAYER
  5
2
102
{ACAD_XDICTIONARY
360
1FF
102
}
330
0
100
AcDbSymbolTable
 70
    36
  0
LAYER
  5
10
102
{ACAD_XDICTIONARY
360
13C
102
}
330
2
100
AcDbSymbolTableRecord
100
AcDbLayerTableRecord
  2
0
 70
     0
 62
     7
  6
Continuous
370
    -3
390
F
347
EE
  0
LAYER
  5
534
330
2
100
AcDbSymbolTableRecord
100
AcDbLayerTableRecord
  2
DM-ZCT
 70
     0
 62
     7
  6
Continuous
370
    -3
390
F
347
EE
1001
AcAecLayerStandard
1000

1000

  0
LAYER
  5
535
330
2
100
AcDbSymbolTableRecord
100
AcDbLayerTableRecord
  2
DM-GND
 70
     0
 62
     7
  6
Continuous
370
    -3
390
F
347
EE
1001
AcAecLayerStandard
1000

1000

  0
LAYER
  5
536
330
2
100
AcDbSymbolTableRecord
100
AcDbLayerTableRecord
  2
DM-Earthing Switch
 70
     0
 62
     7
  6
Continuous
370
    -3
390
F
347
EE
1001
AcAecLayerStandard
1000

1000

  0
LAYER
  5
537
330
2
100
AcDbSymbolTableRecord
100
AcDbLayerTableRecord
  2
DM-Outgoing Line
 70
     0
 62
     7
  6
Continuous
370
    -3
390
F
347
EE
1001
AcAecLayerStandard
1000

1000

  0
LAYER
  5
538
330
2
100
AcDbSymbolTableRecord
100
AcDbLayerTableRecord
  2
DM-Arrester
 70
     0
 62
     7
  6
Continuous
370
    -3
390
F
347
EE
1001
AcAecLayerStandard
1000

1000

  0
LAYER
  5
539
330
2
100
AcDbSymbolTableRecord
100
AcDbLayerTableRecord
  2
DM-VCB
 70
     0
 62
     7
  6
Continuous
370
    -3
390
F
347
EE
1001
AcAecLayerStandard
1000

1000

  0
LAYER
  5
53A
330
2
100
AcDbSymbolTableRecord
100
AcDbLayerTableRecord
  2
DM-DXN-T
 70
     0
 62
     7
  6
Continuous
370
    -3
390
F
347
EE
1001
AcAecLayerStandard
1000

1000

  0
LAYER
  5
53B
330
2
100
AcDbSymbolTableRecord
100
AcDbLayerTableRecord
  2
DM-CT
 70
     0
 62
     7
  6
Continuous
370
    -3
390
F
347
EE
1001
AcAecLayerStandard
1000

1000

  0
LAYER
  5
53C
330
2
100
AcDbSymbolTableRecord
100
AcDbLayerTableRecord
  2
DM-10kV-Wire
 70
     0
 62
     1
  6
Continuous
370
    -3
390
F
347
EE
1001
AcAecLayerStandard
1000

1000

  0
LAYER
  5
53D
330
2
100
AcDbSymbolTableRecord
100
AcDbLayerTableRecord
  2
DM-HPT-180
 70
     0
 62
     7
  6
Continuous
370
    -3
390
F
347
EE
1001
AcAecLayerStandard
1000

1000

  0
LAYER
  5
53E
330
2
100
AcDbSymbolTableRecord
100
AcDbLayerTableRecord
  2
DM-Handcart-180
 70
     0
 62
     7
  6
Continuous
370
    -3
390
F
347
EE
1001
AcAecLayerStandard
1000

1000

  0
LAYER
  5
53F
330
2
100
AcDbSymbolTableRecord
100
AcDbLayerTableRecord
  2
DM-Outgoing Line-180
 70
     0
 62
     7
  6
Continuous
370
    -3
390
F
347
EE
1001
AcAecLayerStandard
1000

1000

  0
LAYER
  5
540
330
2
100
AcDbSymbolTableRecord
100
AcDbLayerTableRecord
  2
DM-Wireframe
 70
     0
 62
     7
  6
Continuous
370
    -3
390
F
347
EE
1001
AcAecLayerStandard
1000

1000

  0
LAYER
  5
541
330
2
100
AcDbSymbolTableRecord
100
AcDbLayerTableRecord
  2
DM-Text
 70
     0
 62
     7
  6
Continuous
370
    -3
390
F
347
EE
1001
AcAecLayerStandard
1000

1000

  0
LAYER
  5
542
330
2
100
AcDbSymbolTableRecord
100
AcDbLayerTableRecord
  2
DM-HPT
 70
     0
 62
     7
  6
Continuous
370
    -3
390
F
347
EE
1001
AcAecLayerStandard
1000

1000

  0
LAYER
  5
543
330
2
100
AcDbSymbolTableRecord
100
AcDbLayerTableRecord
  2
DM-Handcart
 70
     0
 62
     7
  6
Continuous
370
    -3
390
F
347
EE
1001
AcAecLayerStandard
1000

1000

  0
LAYER
  5
1B7C
330
2
100
AcDbSymbolTableRecord
100
AcDbLayerTableRecord
  2
标注图层（高压）
 70
     0
 62
   220
  6
Continuous
370
    -3
390
F
347
EE
1001
AcAecLayerStandard
1000

1000

1001
AcCmTransparency
1071
        0
  0
LAYER
  5
1C25
330
2
100
AcDbSymbolTableRecord
100
AcDbLayerTableRecord
  2
DM-0.4kV-Wire
 70
     0
 62
     3
  6
Continuous
370
    -3
390
F
347
EE
1001
AcAecLayerStandard
1000

1000

  0
LAYER
  5
1C26
330
2
100
AcDbSymbolTableRecord
100
AcDbLayerTableRecord
  2
DM-DblClmnTrans
 70
     0
 62
     7
  6
Continuous
370
    -3
390
F
347
EE
1001
AcAecLayerStandard
1000

1000

  0
LAYER
  5
214B
330
2
100
AcDbSymbolTableRecord
100
AcDbLayerTableRecord
  2
标注图层（低压）
 70
     0
 62
   100
  6
Continuous
370
    -3
390
F
347
EE
1001
AcAecLayerStandard
1000

1000

1001
AcCmTransparency
1071
        0
  0
LAYER
  5
27E9
330
2
100
AcDbSymbolTableRecord
100
AcDbLayerTableRecord
  2
DM-GND-270
 70
     0
 62
     7
  6
Continuous
370
    -3
390
F
347
EE
1001
AcAecLayerStandard
1000

1000

  0
LAYER
  5
27EA
330
2
100
AcDbSymbolTableRecord
100
AcDbLayerTableRecord
  2
DM-Arrester-270
 70
     0
 62
     7
  6
Continuous
370
    -3
390
F
347
EE
1001
AcAecLayerStandard
1000

1000

  0
LAYER
  5
27EB
330
2
100
AcDbSymbolTableRecord
100
AcDbLayerTableRecord
  2
DM-DXN-T-270
 70
     0
 62
     7
  6
Continuous
370
    -3
390
F
347
EE
1001
AcAecLayerStandard
1000

1000

1001
AcCmTransparency
1071
        0
  0
LAYER
  5
27EC
330
2
100
AcDbSymbolTableRecord
100
AcDbLayerTableRecord
  2
DM-Earthing Switch-90
 70
     0
 62
     7
  6
Continuous
370
    -3
390
F
347
EE
1001
AcAecLayerStandard
1000

1000

1001
AcCmTransparency
1071
        0
  0
LAYER
  5
27ED
330
2
100
AcDbSymbolTableRecord
100
AcDbLayerTableRecord
  2
DM-DXN-T-90
 70
     0
 62
     7
  6
Continuous
370
    -3
390
F
347
EE
1001
AcAecLayerStandard
1000

1000

1001
AcCmTransparency
1071
        0
  0
LAYER
  5
3C53
330
2
100
AcDbSymbolTableRecord
100
AcDbLayerTableRecord
  2
DM-10kV-Cable
 70
     0
 62
     1
  6
Continuous
370
    30
390
F
347
EE
1001
AcAecLayerStandard
1000

1000

  0
LAYER
  5
3C54
330
2
100
AcDbSymbolTableRecord
100
AcDbLayerTableRecord
  2
DM-Knife Switch
 70
     0
 62
     7
  6
Continuous
370
    -3
390
F
347
EE
1001
AcAecLayerStandard
1000

1000

  0
LAYER
  5
3C55
330
2
100
AcDbSymbolTableRecord
100
AcDbLayerTableRecord
  2
DM-HV FUSE
 70
     0
 62
     7
  6
Continuous
370
    -3
390
F
347
EE
1001
AcAecLayerStandard
1000

1000

  0
LAYER
  5
3C56
330
2
100
AcDbSymbolTableRecord
100
AcDbLayerTableRecord
  2
DM-Ctrl-Wire
 70
     0
 62
     5
  6
Continuous
370
    -3
390
F
347
EE
1001
AcAecLayerStandard
1000

1000

  0
LAYER
  5
3C57
330
2
100
AcDbSymbolTableRecord
100
AcDbLayerTableRecord
  2
DM-GND-180
 70
     0
 62
     7
  6
Continuous
370
    -3
390
F
347
EE
1001
AcAecLayerStandard
1000

1000

1001
AcCmTransparency
1071
        0
  0
LAYER
  5
3C58
330
2
100
AcDbSymbolTableRecord
100
AcDbLayerTableRecord
  2
DM-DXN-T-180
 70
     0
 62
     7
  6
Continuous
370
    -3
390
F
347
EE
1001
AcAecLayerStandard
1000

1000

1001
AcCmTransparency
1071
        0
  0
LAYER
  5
4075
330
2
100
AcDbSymbolTableRecord
100
AcDbLayerTableRecord
  2
DM-Arrester-180
 70
     0
 62
     7
  6
Continuous
370
    -3
390
F
347
EE
1001
AcAecLayerStandard
1000

1000

1001
AcCmTransparency
1071
        0
  0
LAYER
  5
4CC9
330
2
100
AcDbSymbolTableRecord
100
AcDbLayerTableRecord
  2
DM-GND-90
 70
     0
 62
     7
  6
Continuous
370
    -3
390
F
347
EE
1001
AcAecLayerStandard
1000

1000

1001
AcCmTransparency
1071
        0
  0
LAYER
  5
4D26
330
2
100
AcDbSymbolTableRecord
100
AcDbLayerTableRecord
  2
DM-0.4kV-Cable
 70
     0
 62
     3
  6
Continuous
370
    30
390
F
347
EE
1001
AcAecLayerStandard
1000

1000

1001
AcCmTransparency
1071
        0
  0
LAYER
  5
4E21
330
2
100
AcDbSymbolTableRecord
100
AcDbLayerTableRecord
  2
Defpoints
 70
     0
 62
     7
  6
Continuous
290
     0
370
    -3
390
F
347
EE
  0
ENDTAB
  0
TABLE
  2
STYLE
  5
3
330
0
100
AcDbSymbolTable
 70
     2
  0
STYLE
  5
11
330
3
100
AcDbSymbolTableRecord
100
AcDbTextStyleTableRecord
  2
Standard
 70
     0
 40
0.0
 41
1.0
 50
0.0
 71
     0
 42
20.0
  3
arial.ttf
  4

1001
ACAD
1000
Arial
1071
       34
  0
STYLE
  5
132
330
3
100
AcDbSymbolTableRecord
100
AcDbTextStyleTableRecord
  2
Annotative
 70
     0
 40
0.0
 41
1.0
 50
0.0
 71
     0
 42
2.5
  3
arial.ttf
  4

1001
AcadAnnotative
1000
AnnotativeData
1002
{
1070
     1
1070
     1
1002
}
1001
ACAD
1000
Arial
1071
       34
  0
ENDTAB
  0
TABLE
  2
VIEW
  5
6
330
0
100
AcDbSymbolTable
 70
     1
  0
ENDTAB
  0
TABLE
  2
UCS
  5
7
330
0
100
AcDbSymbolTable
 70
     0
  0
ENDTAB
  0
TABLE
  2
APPID
  5
9
330
0
100
AcDbSymbolTable
 70
    16
  0
APPID
  5
12
330
9
100
AcDbSymbolTableRecord
100
AcDbRegAppTableRecord
  2
ACAD
 70
     0
  0
APPID
  5
9E
330
9
100
AcDbSymbolTableRecord
100
AcDbRegAppTableRecord
  2
ACAD_PSEXT
 70
     0
  0
APPID
  5
133
330
9
100
AcDbSymbolTableRecord
100
AcDbRegAppTableRecord
  2
AcadAnnoPO
 70
     0
  0
APPID
  5
134
330
9
100
AcDbSymbolTableRecord
100
AcDbRegAppTableRecord
  2
AcadAnnotative
 70
     0
  0
APPID
  5
135
330
9
100
AcDbSymbolTableRecord
100
AcDbRegAppTableRecord
  2
ACAD_DSTYLE_DIMJAG
 70
     0
  0
APPID
  5
136
330
9
100
AcDbSymbolTableRecord
100
AcDbRegAppTableRecord
  2
ACAD_DSTYLE_DIMTALN
 70
     0
  0
APPID
  5
165
330
9
100
AcDbSymbolTableRecord
100
AcDbRegAppTableRecord
  2
ACAD_MLEADERVER
 70
     0
  0
APPID
  5
217
330
9
100
AcDbSymbolTableRecord
100
AcDbRegAppTableRecord
  2
ACAD_NAV_VCDISPLAY
 70
     0
  0
APPID
  5
544
330
9
100
AcDbSymbolTableRecord
100
AcDbRegAppTableRecord
  2
AcDbDynamicBlockGUID
 70
     0
  0
APPID
  5
545
330
9
100
AcDbSymbolTableRecord
100
AcDbRegAppTableRecord
  2
AcDbDynamicBlockTrueName
 70
     0
  0
APPID
  5
546
330
9
100
AcDbSymbolTableRecord
100
AcDbRegAppTableRecord
  2
AcDbBlockRepETag
 70
     0
  0
APPID
  5
547
330
9
100
AcDbSymbolTableRecord
100
AcDbRegAppTableRecord
  2
AcDbBlockRepBTag
 70
     0
  0
APPID
  5
548
330
9
100
AcDbSymbolTableRecord
100
AcDbRegAppTableRecord
  2
AcAecLayerStandard
 70
     0
  0
APPID
  5
1B72
330
9
100
AcDbSymbolTableRecord
100
AcDbRegAppTableRecord
  2
ACAD_EXEMPT_FROM_CAD_STANDARDS
 70
     0
  0
APPID
  5
1B7D
330
9
100
AcDbSymbolTableRecord
100
AcDbRegAppTableRecord
  2
AcCmTransparency
 70
     0
  0
APPID
  5
4AB7
330
9
100
AcDbSymbolTableRecord
100
AcDbRegAppTableRecord
  2
ACAUTHENVIRON
 70
     0
  0
ENDTAB
  0
TABLE
  2
DIMSTYLE
  5
A
330
0
100
AcDbSymbolTable
 70
     4
100
AcDbDimStyleTable
 71
     2
340
27
340
137
  0
DIMSTYLE
105
1B0
330
A
100
AcDbSymbolTableRecord
100
AcDbDimStyleTableRecord
  2
Standard
 70
     0
340
11
  0
DIMSTYLE
105
137
330
A
100
AcDbSymbolTableRecord
100
AcDbDimStyleTableRecord
  2
Annotative
 70
     0
 40
0.0
 41
2.5
 42
0.625
 43
3.75
 44
1.25
 73
     0
 74
     0
 77
     1
 78
     8
140
2.5
141
2.5
143
0.03937007874016
147
0.625
171
     3
172
     1
271
     2
272
     2
274
     3
278
    44
283
     0
284
     8
340
11
1001
AcadAnnotative
1000
AnnotativeData
1002
{
1070
     1
1070
     1
1002
}
1001
ACAD_DSTYLE_DIMJAG
1070
   388
1040
1.5
1001
ACAD_DSTYLE_DIMTALN
1070
   392
1070
     0
  0
DIMSTYLE
105
27
330
A
100
AcDbSymbolTableRecord
100
AcDbDimStyleTableRecord
  2
ISO-25
 70
     0
 41
2.5
 42
0.625
 43
3.75
 44
1.25
 73
     0
 74
     0
 77
     1
 78
     8
140
2.5
141
2.5
143
0.03937007874016
147
0.625
171
     3
172
     1
271
     2
272
     2
274
     3
278
    44
283
     0
284
     8
340
11
  0
ENDTAB
  0
TABLE
  2
BLOCK_RECORD
  5
1
330
0
100
AcDbSymbolTable
 70
    51
  0
BLOCK_RECORD
  5
1F
102
{ACAD_XDICTIONARY
360
1CE
102
}
330
1
100
AcDbSymbolTableRecord
100
AcDbBlockTableRecord
  2
*Model_Space
340
22
 70
     0
280
     1
281
     0
  0
BLOCK_RECORD
  5
D2
330
1
100
AcDbSymbolTableRecord
100
AcDbBlockTableRecord
  2
*Paper_Space
340
D3
 70
     0
280
     1
281
     0
  0
BLOCK_RECORD
  5
D6
330
1
100
AcDbSymbolTableRecord
100
AcDbBlockTableRecord
  2
*Paper_Space0
340
D7
 70
     0
280
     1
281
     0
  0
BLOCK_RECORD
  5
25F
102
{ACAD_XDICTIONARY
360
260
102
}
330
1
100
AcDbSymbolTableRecord
100
AcDbBlockTableRecord
  2
DM-ZCT
340
0
 70
     4
280
     1
281
     0
1001
AcDbBlockRepETag
1070
     1
1071
        7
1001
AcDbDynamicBlockTrueName
1000
DM-ZCT
1001
AcDbDynamicBlockGUID
1000
{97AD1043-4EF4-41A1-A82D-1051E69004B3}
  0
BLOCK_RECORD
  5
26D
102
{ACAD_XDICTIONARY
360
4AB4
102
}
330
1
100
AcDbSymbolTableRecord
100
AcDbBlockTableRecord
  2
DM-GND
340
0
310
2800000020000000200000000100080000000000000400000000000000000000000000000000000000000000000080000080000000808000800000008000800080800000C0C0C000C0DCC000F0CAA6000020400000206000002080000020A0000020C0000020E00000400000004020000040400000406000004080000040A0
310
000040C0000040E00000600000006020000060400000606000006080000060A0000060C0000060E00000800000008020000080400000806000008080000080A0000080C0000080E00000A0000000A0200000A0400000A0600000A0800000A0A00000A0C00000A0E00000C0000000C0200000C0400000C0600000C0800000C0
310
A00000C0C00000C0E00000E0000000E0200000E0400000E0600000E0800000E0A00000E0C00000E0E00040000000400020004000400040006000400080004000A0004000C0004000E00040200000402020004020400040206000402080004020A0004020C0004020E000404000004040200040404000404060004040800040
310
40A0004040C0004040E00040600000406020004060400040606000406080004060A0004060C0004060E00040800000408020004080400040806000408080004080A0004080C0004080E00040A0000040A0200040A0400040A0600040A0800040A0A00040A0C00040A0E00040C0000040C0200040C0400040C0600040C08000
310
40C0A00040C0C00040C0E00040E0000040E0200040E0400040E0600040E0800040E0A00040E0C00040E0E00080000000800020008000400080006000800080008000A0008000C0008000E00080200000802020008020400080206000802080008020A0008020C0008020E00080400000804020008040400080406000804080
310
008040A0008040C0008040E00080600000806020008060400080606000806080008060A0008060C0008060E00080800000808020008080400080806000808080008080A0008080C0008080E00080A0000080A0200080A0400080A0600080A0800080A0A00080A0C00080A0E00080C0000080C0200080C0400080C0600080C0
310
800080C0A00080C0C00080C0E00080E0000080E0200080E0400080E0600080E0800080E0A00080E0C00080E0E000C0000000C0002000C0004000C0006000C0008000C000A000C000C000C000E000C0200000C0202000C0204000C0206000C0208000C020A000C020C000C020E000C0400000C0402000C0404000C0406000C0
310
408000C040A000C040C000C040E000C0600000C0602000C0604000C0606000C0608000C060A000C060C000C060E000C0800000C0802000C0804000C0806000C0808000C080A000C080C000C080E000C0A00000C0A02000C0A04000C0A06000C0A08000C0A0A000C0A0C000C0A0E000C0C00000C0C02000C0C04000C0C06000
310
C0C08000C0C0A000F0FBFF00A4A0A000808080000000FF0000FF000000FFFF00FF000000FF00FF00FFFF0000FFFFFF00000000000000000000000000000000000000000000000000000000000000000000000000000000000000000000FFFFFFFFFFFF00000000000000000000000000000000000000000000000000000000
310
00000000000000000000000000000000000000000000000000000000000000000000000000000000000000000000000000000000000000000000000000000000000000000000000000000000000000000000000000000000000000000000000000000000000000000000000000000000000000000000000000000000FFFFFF
310
FFFFFFFFFFFFFF000000000000000000000000000000000000000000000000000000000000000000000000000000000000000000000000000000000000000000000000000000000000000000000000000000000000000000000000000000000000000000000000000000000000000000000000000000000000000000000000
310
00000000000000000000000000000000000000000000000000FFFFFFFFFFFFFFFFFFFFFFFFFFFFFFFFFFFFFFFF00000000000000000000000000000000000000000000FF00000000000000000000000000000000000000000000000000000000000000FF000000000000000000000000000000000000000000000000000000
310
00000000FF00000000000000000000000000000000000000000000000000000000000000FF00000000000000000000000000000000000000000000000000000000000000FF00000000000000000000000000000000000000000000000000000000000000FF0000000000000000000000000000000000000000000000000000
310
0000000000FF00000000000000000000000000000000000000000000000000000000000000FF00000000000000000000000000000000000000000000000000000000000000FF00000000000000000000000000000000000000000000000000000000000000FF00000000000000000000000000000000000000000000000000
310
000000000000FF00000000000000000000000000000000000000000000000000000000000000FF00000000000000000000000000000000000000000000000000000000000000FF00000000000000000000000000000000000000000000000000000000000000FF000000000000000000000000000000000000000000000000
310
00000000000000FF00000000000000000000000000000000000000000000000000000000000000FF00000000000000000000000000000000000000000000000000000000000000FF00000000000000000000000000000000000000000000000000000000000000FF0000000000000000000000000000000000000000000000
310
0000000000000000FF0000000000000000000000000000000000000000000000000000000000000000000000000000000000000000000000
 70
     4
280
     1
281
     0
1001
AcDbBlockRepETag
1070
     1
1071
        5
1001
AcDbDynamicBlockTrueName
1000
DM-GND
1001
AcDbDynamicBlockGUID
1000
{AB5ECCF8-E5FD-46A6-8ADE-214AC73CF536}
  0
BLOCK_RECORD
  5
279
102
{ACAD_XDICTIONARY
360
4C05
102
}
330
1
100
AcDbSymbolTableRecord
100
AcDbBlockTableRecord
  2
DM-Earthing Switch
340
0
310
2800000020000000200000000100080000000000000400000000000000000000000000000000000000000000000080000080000000808000800000008000800080800000C0C0C000C0DCC000F0CAA6000020400000206000002080000020A0000020C0000020E00000400000004020000040400000406000004080000040A0
310
000040C0000040E00000600000006020000060400000606000006080000060A0000060C0000060E00000800000008020000080400000806000008080000080A0000080C0000080E00000A0000000A0200000A0400000A0600000A0800000A0A00000A0C00000A0E00000C0000000C0200000C0400000C0600000C0800000C0
310
A00000C0C00000C0E00000E0000000E0200000E0400000E0600000E0800000E0A00000E0C00000E0E00040000000400020004000400040006000400080004000A0004000C0004000E00040200000402020004020400040206000402080004020A0004020C0004020E000404000004040200040404000404060004040800040
310
40A0004040C0004040E00040600000406020004060400040606000406080004060A0004060C0004060E00040800000408020004080400040806000408080004080A0004080C0004080E00040A0000040A0200040A0400040A0600040A0800040A0A00040A0C00040A0E00040C0000040C0200040C0400040C0600040C08000
310
40C0A00040C0C00040C0E00040E0000040E0200040E0400040E0600040E0800040E0A00040E0C00040E0E00080000000800020008000400080006000800080008000A0008000C0008000E00080200000802020008020400080206000802080008020A0008020C0008020E00080400000804020008040400080406000804080
310
008040A0008040C0008040E00080600000806020008060400080606000806080008060A0008060C0008060E00080800000808020008080400080806000808080008080A0008080C0008080E00080A0000080A0200080A0400080A0600080A0800080A0A00080A0C00080A0E00080C0000080C0200080C0400080C0600080C0
310
800080C0A00080C0C00080C0E00080E0000080E0200080E0400080E0600080E0800080E0A00080E0C00080E0E000C0000000C0002000C0004000C0006000C0008000C000A000C000C000C000E000C0200000C0202000C0204000C0206000C0208000C020A000C020C000C020E000C0400000C0402000C0404000C0406000C0
310
408000C040A000C040C000C040E000C0600000C0602000C0604000C0606000C0608000C060A000C060C000C060E000C0800000C0802000C0804000C0806000C0808000C080A000C080C000C080E000C0A00000C0A02000C0A04000C0A06000C0A08000C0A0A000C0A0C000C0A0E000C0C00000C0C02000C0C04000C0C06000
310
C0C08000C0C0A000F0FBFF00A4A0A000808080000000FF0000FF000000FFFF00FF000000FF00FF00FFFF0000FFFFFF00000000000000000000000000000000000000000000000000000000000000000000000000000000000000000000000000FFFFFF00000000000000000000000000000000000000000000000000000000
310
000000000000000000000000000000000000000000000000000000000000000000FFFFFFFF00000000000000000000000000000000000000000000000000000000000000000000000000000000000000000000000000000000000000000000FFFFFFFFFFFFFFFF000000000000000000000000000000000000000000000000
310
000000FF00000000000000000000000000000000000000000000000000000000000000FF00000000000000000000000000000000000000000000000000000000000000FF00000000000000000000000000000000000000000000000000000000000000FF000000000000000000000000000000000000000000000000000000
310
00000000FF00000000000000000000000000000000000000000000000000000000000000FF00000000000000000000000000000000000000000000000000000000000000FF000000000000000000000000000000000000000000000000000000000000FF000000000000000000000000000000000000000000000000000000
310
00000000FF000000000000000000000000000000000000000000000000000000000000FF00000000000000000000000000000000000000000000000000000000000000FF000000000000000000000000000000000000000000000000000000000000FF00000000000000000000000000000000000000000000000000000000
310
000000FF000000000000000000000000000000000000000000000000000000000000FF000000000000000000000000000000000000000000000000000000000000FF00000000000000000000000000000000000000000000000000000000000000FF0000000000000000000000000000000000000000000000000000000000
310
00FF00000000000000000000000000000000000000000000000000000000000000FF000000000000000000000000000000000000000000000000000000000000FF0000000000000000000000000000000000000000000000000000000000000000000000FFFFFFFFFFFFFFFF00000000000000000000000000000000000000
310
0000000000000000FF00000000000000000000000000000000000000000000000000000000000000FF00000000000000000000000000000000000000000000000000000000000000FF00000000000000000000000000000000000000000000000000000000000000FF00000000000000000000000000000000000000000000
310
000000000000000000FF00000000000000000000000000000000000000000000000000000000000000000000000000000000000000000000
 70
     4
280
     1
281
     0
1001
AcDbBlockRepETag
1070
     1
1071
        9
1001
AcDbDynamicBlockTrueName
1000
DM-Earthing Switch
1001
AcDbDynamicBlockGUID
1000
{4EE65A3F-29EC-4EAB-8198-3BFA730681C1}
  0
BLOCK_RECORD
  5
284
102
{ACAD_XDICTIONARY
360
285
102
}
330
1
100
AcDbSymbolTableRecord
100
AcDbBlockTableRecord
  2
DM-Outgoing Line
340
0
310
2800000020000000200000000100080000000000000400000000000000000000000000000000000000000000000080000080000000808000800000008000800080800000C0C0C000C0DCC000F0CAA6000020400000206000002080000020A0000020C0000020E00000400000004020000040400000406000004080000040A0
310
000040C0000040E00000600000006020000060400000606000006080000060A0000060C0000060E00000800000008020000080400000806000008080000080A0000080C0000080E00000A0000000A0200000A0400000A0600000A0800000A0A00000A0C00000A0E00000C0000000C0200000C0400000C0600000C0800000C0
310
A00000C0C00000C0E00000E0000000E0200000E0400000E0600000E0800000E0A00000E0C00000E0E00040000000400020004000400040006000400080004000A0004000C0004000E00040200000402020004020400040206000402080004020A0004020C0004020E000404000004040200040404000404060004040800040
310
40A0004040C0004040E00040600000406020004060400040606000406080004060A0004060C0004060E00040800000408020004080400040806000408080004080A0004080C0004080E00040A0000040A0200040A0400040A0600040A0800040A0A00040A0C00040A0E00040C0000040C0200040C0400040C0600040C08000
310
40C0A00040C0C00040C0E00040E0000040E0200040E0400040E0600040E0800040E0A00040E0C00040E0E00080000000800020008000400080006000800080008000A0008000C0008000E00080200000802020008020400080206000802080008020A0008020C0008020E00080400000804020008040400080406000804080
310
008040A0008040C0008040E00080600000806020008060400080606000806080008060A0008060C0008060E00080800000808020008080400080806000808080008080A0008080C0008080E00080A0000080A0200080A0400080A0600080A0800080A0A00080A0C00080A0E00080C0000080C0200080C0400080C0600080C0
310
800080C0A00080C0C00080C0E00080E0000080E0200080E0400080E0600080E0800080E0A00080E0C00080E0E000C0000000C0002000C0004000C0006000C0008000C000A000C000C000C000E000C0200000C0202000C0204000C0206000C0208000C020A000C020C000C020E000C0400000C0402000C0404000C0406000C0
310
408000C040A000C040C000C040E000C0600000C0602000C0604000C0606000C0608000C060A000C060C000C060E000C0800000C0802000C0804000C0806000C0808000C080A000C080C000C080E000C0A00000C0A02000C0A04000C0A06000C0A08000C0A0A000C0A0C000C0A0E000C0C00000C0C02000C0C04000C0C06000
310
C0C08000C0C0A000F0FBFF00A4A0A000808080000000FF0000FF000000FFFF00FF000000FF00FF00FFFF0000FFFFFF00000000000000000000000000000000000000000000000000000000000000000000000000000000000000000000000000FF000000000000000000000000000000000000000000000000000000000000
310
00FF00000000000000000000000000000000000000000000000000000000000000FF00000000000000000000000000000000000000000000000000000000000000FF00000000000000000000000000000000000000000000000000000000000000FF0000000000000000000000000000000000000000000000000000000000
310
0000FF00000000000000000000000000000000000000000000000000000000000000FF00000000000000000000000000000000000000000000000000000000000000FF00000000000000000000000000000000000000000000000000000000000000FF00000000000000000000000000000000000000000000000000000000
310
000000FF00000000000000000000000000000000000000000000000000000000000000FF00000000000000000000000000000000000000000000000000000000000000FF00000000000000000000000000000000000000000000000000000000000000FF000000000000000000000000000000000000000000000000000000
310
00000000FF00000000000000000000000000000000000000000000000000000000000000FF00000000000000000000000000000000000000000000000000000000000000FF00000000000000000000000000000000000000000000000000000000000000FF0000000000000000000000000000000000000000000000000000
310
0000000000FF00000000000000000000000000000000000000000000000000000000000000FF00000000000000000000000000000000000000000000000000000000000000FF00000000000000000000000000000000000000000000000000000000000000FF00000000000000000000000000000000000000000000000000
310
000000000000FF00000000000000000000000000000000000000000000000000000000000000FF00000000000000000000000000000000000000000000000000000000000000FF00000000000000000000000000000000000000000000000000000000000000FF000000000000000000000000000000000000000000000000
310
00000000000000FF0000000000000000000000000000000000000000000000000000000000FFFFFFFF0000000000000000000000000000000000000000000000000000000000FFFFFF0000000000000000000000000000000000000000000000000000000000FFFF0000000000000000000000000000000000000000000000
310
0000000000000000FF0000000000000000000000000000000000000000000000000000000000000000000000000000000000000000000000
 70
     4
280
     1
281
     0
1001
AcDbBlockRepETag
1070
     1
1071
        5
1001
AcDbDynamicBlockTrueName
1000
DM-Outgoing Line
1001
AcDbDynamicBlockGUID
1000
{D6D75D1D-D611-4F3C-9E18-12D3A1FF32A6}
  0
BLOCK_RECORD
  5
290
102
{ACAD_XDICTIONARY
360
291
102
}
330
1
100
AcDbSymbolTableRecord
100
AcDbBlockTableRecord
  2
DM-Arrester
340
0
310
2800000020000000200000000100080000000000000400000000000000000000000000000000000000000000000080000080000000808000800000008000800080800000C0C0C000C0DCC000F0CAA6000020400000206000002080000020A0000020C0000020E00000400000004020000040400000406000004080000040A0
310
000040C0000040E00000600000006020000060400000606000006080000060A0000060C0000060E00000800000008020000080400000806000008080000080A0000080C0000080E00000A0000000A0200000A0400000A0600000A0800000A0A00000A0C00000A0E00000C0000000C0200000C0400000C0600000C0800000C0
310
A00000C0C00000C0E00000E0000000E0200000E0400000E0600000E0800000E0A00000E0C00000E0E00040000000400020004000400040006000400080004000A0004000C0004000E00040200000402020004020400040206000402080004020A0004020C0004020E000404000004040200040404000404060004040800040
310
40A0004040C0004040E00040600000406020004060400040606000406080004060A0004060C0004060E00040800000408020004080400040806000408080004080A0004080C0004080E00040A0000040A0200040A0400040A0600040A0800040A0A00040A0C00040A0E00040C0000040C0200040C0400040C0600040C08000
310
40C0A00040C0C00040C0E00040E0000040E0200040E0400040E0600040E0800040E0A00040E0C00040E0E00080000000800020008000400080006000800080008000A0008000C0008000E00080200000802020008020400080206000802080008020A0008020C0008020E00080400000804020008040400080406000804080
310
008040A0008040C0008040E00080600000806020008060400080606000806080008060A0008060C0008060E00080800000808020008080400080806000808080008080A0008080C0008080E00080A0000080A0200080A0400080A0600080A0800080A0A00080A0C00080A0E00080C0000080C0200080C0400080C0600080C0
310
800080C0A00080C0C00080C0E00080E0000080E0200080E0400080E0600080E0800080E0A00080E0C00080E0E000C0000000C0002000C0004000C0006000C0008000C000A000C000C000C000E000C0200000C0202000C0204000C0206000C0208000C020A000C020C000C020E000C0400000C0402000C0404000C0406000C0
310
408000C040A000C040C000C040E000C0600000C0602000C0604000C0606000C0608000C060A000C060C000C060E000C0800000C0802000C0804000C0806000C0808000C080A000C080C000C080E000C0A00000C0A02000C0A04000C0A06000C0A08000C0A0A000C0A0C000C0A0E000C0C00000C0C02000C0C04000C0C06000
310
C0C08000C0C0A000F0FBFF00A4A0A000808080000000FF0000FF000000FFFF00FF000000FF00FF00FFFF0000FFFFFF00000000000000000000000000000000000000000000000000000000000000000000000000000000000000000000000000FF000000000000000000000000000000000000000000000000000000000000
310
00FF00000000000000000000000000000000000000000000000000000000000000FF00000000000000000000000000000000000000000000000000000000000000FF00000000000000000000000000000000000000000000000000000000000000FF0000000000000000000000000000000000000000000000000000000000
310
0000FF00000000000000000000000000000000000000000000000000000000000000FF000000000000000000000000000000000000000000000000000000FFFFFFFFFFFFFFFF000000000000000000000000000000000000000000000000FF000000000000FF000000000000000000000000000000000000000000000000FF
310
000000000000FF000000000000000000000000000000000000000000000000FF000000000000FF000000000000000000000000000000000000000000000000FF000000000000FF000000000000000000000000000000000000000000000000FF000000000000FF000000000000000000000000000000000000000000000000
310
FF000000000000FF000000000000000000000000000000000000000000000000FF000000000000FF000000000000000000000000000000000000000000000000FF000000FF0000FF000000000000000000000000000000000000000000000000FF000000FF0000FF0000000000000000000000000000000000000000000000
310
00FF0000FF00FF00FF000000000000000000000000000000000000000000000000FF0000FF00FF00FF000000000000000000000000000000000000000000000000FF00FF0000FF00FF000000000000000000000000000000000000000000000000FF00FF000000FFFF00000000000000000000000000000000000000000000
310
0000FFFFFFFFFFFFFFFF000000000000000000000000000000000000000000000000FFFFFFFFFFFFFFFF00000000000000000000000000000000000000000000000000000000FF00000000000000000000000000000000000000000000000000000000000000FF000000000000000000000000000000000000000000000000
310
00000000000000FF00000000000000000000000000000000000000000000000000000000000000FF00000000000000000000000000000000000000000000000000000000000000FF00000000000000000000000000000000000000000000000000000000000000FF0000000000000000000000000000000000000000000000
310
0000000000000000FF0000000000000000000000000000000000000000000000000000000000000000000000000000000000000000000000
 70
     4
280
     1
281
     0
1001
AcDbBlockRepETag
1070
     1
1071
       12
1001
AcDbDynamicBlockTrueName
1000
DM-Arrester
1001
AcDbDynamicBlockGUID
1000
{E9725F4D-6D52-4CFD-AED4-EA87FAF827BA}
  0
BLOCK_RECORD
  5
2A4
102
{ACAD_XDICTIONARY
360
2A5
102
}
330
1
100
AcDbSymbolTableRecord
100
AcDbBlockTableRecord
  2
DM-DXN-T
340
0
310
2800000020000000200000000100080000000000000400000000000000000000000000000000000000000000000080000080000000808000800000008000800080800000C0C0C000C0DCC000F0CAA6000020400000206000002080000020A0000020C0000020E00000400000004020000040400000406000004080000040A0
310
000040C0000040E00000600000006020000060400000606000006080000060A0000060C0000060E00000800000008020000080400000806000008080000080A0000080C0000080E00000A0000000A0200000A0400000A0600000A0800000A0A00000A0C00000A0E00000C0000000C0200000C0400000C0600000C0800000C0
310
A00000C0C00000C0E00000E0000000E0200000E0400000E0600000E0800000E0A00000E0C00000E0E00040000000400020004000400040006000400080004000A0004000C0004000E00040200000402020004020400040206000402080004020A0004020C0004020E000404000004040200040404000404060004040800040
310
40A0004040C0004040E00040600000406020004060400040606000406080004060A0004060C0004060E00040800000408020004080400040806000408080004080A0004080C0004080E00040A0000040A0200040A0400040A0600040A0800040A0A00040A0C00040A0E00040C0000040C0200040C0400040C0600040C08000
310
40C0A00040C0C00040C0E00040E0000040E0200040E0400040E0600040E0800040E0A00040E0C00040E0E00080000000800020008000400080006000800080008000A0008000C0008000E00080200000802020008020400080206000802080008020A0008020C0008020E00080400000804020008040400080406000804080
310
008040A0008040C0008040E00080600000806020008060400080606000806080008060A0008060C0008060E00080800000808020008080400080806000808080008080A0008080C0008080E00080A0000080A0200080A0400080A0600080A0800080A0A00080A0C00080A0E00080C0000080C0200080C0400080C0600080C0
310
800080C0A00080C0C00080C0E00080E0000080E0200080E0400080E0600080E0800080E0A00080E0C00080E0E000C0000000C0002000C0004000C0006000C0008000C000A000C000C000C000E000C0200000C0202000C0204000C0206000C0208000C020A000C020C000C020E000C0400000C0402000C0404000C0406000C0
310
408000C040A000C040C000C040E000C0600000C0602000C0604000C0606000C0608000C060A000C060C000C060E000C0800000C0802000C0804000C0806000C0808000C080A000C080C000C080E000C0A00000C0A02000C0A04000C0A06000C0A08000C0A0A000C0A0C000C0A0E000C0C00000C0C02000C0C04000C0C06000
310
C0C08000C0C0A000F0FBFF00A4A0A000808080000000FF0000FF000000FFFF00FF000000FF00FF00FFFF0000FFFFFF00000000000000000000000000000000000000000000000000000000000000000000000000000000000000000000000000FF000000000000000000000000000000000000000000000000000000000000
310
00FF00000000000000000000000000000000000000000000000000000000000000FF00000000000000000000000000000000000000000000000000000000000000FF00000000000000000000000000000000000000000000000000000000000000FF0000000000000000000000000000000000000000000000000000000000
310
0000FF00000000000000000000000000000000000000000000000000000000FFFFFFFFFFFF00000000000000000000000000000000000000000000000000FF000000000000FF0000000000000000000000000000000000000000000000FF00FF00000000FF00FF000000000000000000000000000000000000000000FFFF00
310
00FF000000FF00FF000000000000000000000000000000000000000000FF00000000FF00FF000000FF0000000000000000000000000000000000000000FF0000000000FF00000000FF0000000000000000000000000000000000000000FF00000000FF00FF000000FF000000000000000000000000000000000000000000FF
310
0000FF000000FF00FF00000000000000000000000000000000000000000000FF00FF00000000FF00FF0000000000000000000000000000000000000000000000FF000000000000FF00000000000000000000000000000000000000000000000000FFFFFFFFFFFF000000000000000000000000000000000000000000000000
310
0000000000FF00000000000000000000000000000000000000000000000000000000000000FF00000000000000000000000000000000000000000000000000000000000000FF000000000000000000000000000000000000000000000000000000FFFFFFFFFFFFFFFF00000000000000000000000000000000000000000000
310
000000000000000000000000000000000000000000000000000000000000000000000000000000000000000000000000000000000000000000000000000000000000FFFFFFFFFFFFFFFF00000000000000000000000000000000000000000000000000000000FF000000000000000000000000000000000000000000000000
310
00000000000000FF00000000000000000000000000000000000000000000000000000000000000FF00000000000000000000000000000000000000000000000000000000000000FF00000000000000000000000000000000000000000000000000000000000000FF0000000000000000000000000000000000000000000000
310
0000000000000000FF0000000000000000000000000000000000000000000000000000000000000000000000000000000000000000000000
 70
     4
280
     1
281
     0
1001
AcDbBlockRepETag
1070
     1
1071
       16
1001
AcDbDynamicBlockTrueName
1000
DM-DXN-T
1001
AcDbDynamicBlockGUID
1000
{421E5F55-A6A0-48EB-848D-77F38DCE5FF3}
  0
BLOCK_RECORD
  5
2BB
102
{ACAD_XDICTIONARY
360
2BC
102
}
330
1
100
AcDbSymbolTableRecord
100
AcDbBlockTableRecord
  2
DM-HPT
340
0
310
2800000020000000200000000100080000000000000400000000000000000000000000000000000000000000000080000080000000808000800000008000800080800000C0C0C000C0DCC000F0CAA6000020400000206000002080000020A0000020C0000020E00000400000004020000040400000406000004080000040A0
310
000040C0000040E00000600000006020000060400000606000006080000060A0000060C0000060E00000800000008020000080400000806000008080000080A0000080C0000080E00000A0000000A0200000A0400000A0600000A0800000A0A00000A0C00000A0E00000C0000000C0200000C0400000C0600000C0800000C0
310
A00000C0C00000C0E00000E0000000E0200000E0400000E0600000E0800000E0A00000E0C00000E0E00040000000400020004000400040006000400080004000A0004000C0004000E00040200000402020004020400040206000402080004020A0004020C0004020E000404000004040200040404000404060004040800040
310
40A0004040C0004040E00040600000406020004060400040606000406080004060A0004060C0004060E00040800000408020004080400040806000408080004080A0004080C0004080E00040A0000040A0200040A0400040A0600040A0800040A0A00040A0C00040A0E00040C0000040C0200040C0400040C0600040C08000
310
40C0A00040C0C00040C0E00040E0000040E0200040E0400040E0600040E0800040E0A00040E0C00040E0E00080000000800020008000400080006000800080008000A0008000C0008000E00080200000802020008020400080206000802080008020A0008020C0008020E00080400000804020008040400080406000804080
310
008040A0008040C0008040E00080600000806020008060400080606000806080008060A0008060C0008060E00080800000808020008080400080806000808080008080A0008080C0008080E00080A0000080A0200080A0400080A0600080A0800080A0A00080A0C00080A0E00080C0000080C0200080C0400080C0600080C0
310
800080C0A00080C0C00080C0E00080E0000080E0200080E0400080E0600080E0800080E0A00080E0C00080E0E000C0000000C0002000C0004000C0006000C0008000C000A000C000C000C000E000C0200000C0202000C0204000C0206000C0208000C020A000C020C000C020E000C0400000C0402000C0404000C0406000C0
310
408000C040A000C040C000C040E000C0600000C0602000C0604000C0606000C0608000C060A000C060C000C060E000C0800000C0802000C0804000C0806000C0808000C080A000C080C000C080E000C0A00000C0A02000C0A04000C0A06000C0A08000C0A0A000C0A0C000C0A0E000C0C00000C0C02000C0C04000C0C06000
310
C0C08000C0C0A000F0FBFF00A4A0A000808080000000FF0000FF000000FFFF00FF000000FF00FF00FFFF0000FFFFFF00000000000000000000000000000000000000000000000000000000000000000000000000000000000000000000FFFF0000FF00000000000000000000000000000000000000000000000000FFFFFF00
310
FFFF00FFFF0000000000000000000000000000000000000000000000FF0000FF00FFFF0000FF000000000000000000000000000000000000000000FF000000FF0000FF000000FF0000000000000000000000000000000000000000FF000000FFFFFFFF000000FF0000000000000000000000000000000000000000FF0000FF
310
FF0000FFFF0000FF000000000000000000000000000000000000000000FFFF00FF00FFFFFFFFFF00000000000000000000000000000000000000000000FFFFFFFFFFFFFFFFFF000000000000000000000000000000000000000000000000FF000000000000FF000000000000000000000000000000000000000000000000FF
310
0000000000FFFF00000000000000000000000000000000000000000000000000FF00000000FF000000000000000000000000000000000000000000000000000000FFFFFFFF0000000000000000000000000000000000000000000000000000000000FF00000000000000000000000000000000000000000000000000000000
310
000000FF00000000000000000000000000000000000000000000000000000000000000FF000000000000000000000000000000000000000000000000000000000000FFFFFFFF00000000000000000000000000000000000000000000000000000000FFFF00FF00000000000000000000000000000000000000000000000000
310
000000FFFF00FF00000000000000000000000000000000000000000000000000000000FFFF00FF00000000000000000000000000000000000000000000000000000000FFFF00FF00000000000000000000000000000000000000000000000000000000FFFF00FF000000000000000000000000000000000000000000000000
310
00000000FFFF00FF00000000000000000000000000000000000000000000000000000000FFFFFFFF0000000000000000000000000000000000000000000000000000000000FF00000000000000000000000000000000000000000000000000000000000000FF00000000000000000000000000000000000000000000000000
310
0000000000FFFF00FF0000000000000000000000000000000000000000000000000000000000FFFF0000000000000000000000000000000000000000000000000000000000FFFF00FF0000000000000000000000000000000000000000000000000000000000FFFF0000000000000000000000000000000000000000000000
310
00000000000000FF000000000000000000000000000000000000000000000000000000000000000000000000000000000000000000000000
 70
     4
280
     1
281
     0
1001
AcDbBlockRepETag
1070
     1
1071
       15
1001
AcDbDynamicBlockTrueName
1000
DM-HPT
1001
AcDbDynamicBlockGUID
1000
{E7CE0652-65E0-4F6C-AC53-04987296D232}
  0
BLOCK_RECORD
  5
2CD
102
{ACAD_XDICTIONARY
360
2CE
102
}
330
1
100
AcDbSymbolTableRecord
100
AcDbBlockTableRecord
  2
DM-VCB
340
0
 70
     4
280
     1
281
     0
1001
AcDbBlockRepETag
1070
     1
1071
       16
1001
AcDbDynamicBlockTrueName
1000
DM-VCB
1001
AcDbDynamicBlockGUID
1000
{03D2C757-E80F-44D5-8724-8552D7EC6A58}
  0
BLOCK_RECORD
  5
2E4
102
{ACAD_XDICTIONARY
360
2E5
102
}
330
1
100
AcDbSymbolTableRecord
100
AcDbBlockTableRecord
  2
DM-CT
340
0
 70
     4
280
     1
281
     0
1001
AcDbBlockRepETag
1070
     1
1071
        2
1001
AcDbDynamicBlockTrueName
1000
DM-CT
1001
AcDbDynamicBlockGUID
1000
{F3F0BCD9-24CF-4C89-AC64-FD335337467A}
  0
BLOCK_RECORD
  5
2F0
102
{ACAD_XDICTIONARY
360
2F1
102
}
330
1
100
AcDbSymbolTableRecord
100
AcDbBlockTableRecord
  2
DM-Handcart
340
0
310
2800000020000000200000000100080000000000000400000000000000000000000000000000000000000000000080000080000000808000800000008000800080800000C0C0C000C0DCC000F0CAA6000020400000206000002080000020A0000020C0000020E00000400000004020000040400000406000004080000040A0
310
000040C0000040E00000600000006020000060400000606000006080000060A0000060C0000060E00000800000008020000080400000806000008080000080A0000080C0000080E00000A0000000A0200000A0400000A0600000A0800000A0A00000A0C00000A0E00000C0000000C0200000C0400000C0600000C0800000C0
310
A00000C0C00000C0E00000E0000000E0200000E0400000E0600000E0800000E0A00000E0C00000E0E00040000000400020004000400040006000400080004000A0004000C0004000E00040200000402020004020400040206000402080004020A0004020C0004020E000404000004040200040404000404060004040800040
310
40A0004040C0004040E00040600000406020004060400040606000406080004060A0004060C0004060E00040800000408020004080400040806000408080004080A0004080C0004080E00040A0000040A0200040A0400040A0600040A0800040A0A00040A0C00040A0E00040C0000040C0200040C0400040C0600040C08000
310
40C0A00040C0C00040C0E00040E0000040E0200040E0400040E0600040E0800040E0A00040E0C00040E0E00080000000800020008000400080006000800080008000A0008000C0008000E00080200000802020008020400080206000802080008020A0008020C0008020E00080400000804020008040400080406000804080
310
008040A0008040C0008040E00080600000806020008060400080606000806080008060A0008060C0008060E00080800000808020008080400080806000808080008080A0008080C0008080E00080A0000080A0200080A0400080A0600080A0800080A0A00080A0C00080A0E00080C0000080C0200080C0400080C0600080C0
310
800080C0A00080C0C00080C0E00080E0000080E0200080E0400080E0600080E0800080E0A00080E0C00080E0E000C0000000C0002000C0004000C0006000C0008000C000A000C000C000C000E000C0200000C0202000C0204000C0206000C0208000C020A000C020C000C020E000C0400000C0402000C0404000C0406000C0
310
408000C040A000C040C000C040E000C0600000C0602000C0604000C0606000C0608000C060A000C060C000C060E000C0800000C0802000C0804000C0806000C0808000C080A000C080C000C080E000C0A00000C0A02000C0A04000C0A06000C0A08000C0A0A000C0A0C000C0A0E000C0C00000C0C02000C0C04000C0C06000
310
C0C08000C0C0A000F0FBFF00A4A0A000808080000000FF0000FF000000FFFF00FF000000FF00FF00FFFF0000FFFFFF000000000000000000000000000000000000000000000000000000000000000000000000000000000000000000000000FF00000000000000000000000000000000000000000000000000000000000000
310
FF00000000000000000000000000000000000000000000000000000000000000FF00000000000000000000000000000000000000000000000000000000000000FF00000000000000000000000000000000000000000000000000000000000000FF000000000000000000000000000000000000000000000000000000000000
310
00FF0000000000000000000000000000000000000000FF00000000000000000000FF0000000000000000000000FF000000000000000000FF000000000000000000FF00000000000000000000FF0000000000000000000000FF0000000000000000FF000000000000000000FF00000000000000000000000000FF0000000000
310
0000FF0000000000000000FF000000000000000000000000000000FF000000000000FF00000000000000FF0000000000000000000000000000000000FF0000000000FF0000000000FFFF00000000000000000000000000000000000000FF00000000FF00000000FF00000000000000000000000000000000000000000000FF
310
000000FF000000FF000000000000000000000000000000000000000000000000FF0000FF0000FF0000000000000000000000000000000000000000000000000000FF00FF00FF00000000000000000000000000000000000000000000000000000000FFFFFF00000000000000000000000000000000000000FF000000000000
310
00000000FF0000000000000000000000FF000000000000000000FF000000000000000000FF00000000000000000000FF0000000000000000000000FF0000000000000000FF000000000000000000FF00000000000000000000000000FF00000000000000FF0000000000000000FF000000000000000000000000000000FF00
310
0000000000FF00000000000000FF0000000000000000000000000000000000FF0000000000FF000000000000FF000000000000000000000000000000000000FF0000000000FF0000000000FF0000000000000000000000000000000000000000FF00000000FF00000000FF0000000000000000000000000000000000000000
310
0000FF000000FF000000FF000000000000000000000000000000000000000000000000FF0000FF0000FF0000000000000000000000000000000000000000000000000000FF00FF00FF00000000000000000000000000000000000000000000000000000000FFFFFF0000000000000000000000000000000000000000000000
310
00000000000000FF000000000000000000000000000000000000000000000000000000000000000000000000000000000000000000000000
 70
     4
280
     1
281
     0
1001
AcDbBlockRepETag
1070
     1
1071
        5
1001
AcDbDynamicBlockTrueName
1000
DM-Handcart
1001
AcDbDynamicBlockGUID
1000
{7A648FBC-583C-4FB7-8DDF-AB8A4B81AF8B}
  0
BLOCK_RECORD
  5
1B9D
102
{ACAD_XDICTIONARY
360
1B9E
102
}
330
1
100
AcDbSymbolTableRecord
100
AcDbBlockTableRecord
  2
DM-DblClmnTrans
340
0
310
2800000020000000200000000100080000000000000400000000000000000000000000000000000000000000000080000080000000808000800000008000800080800000C0C0C000C0DCC000F0CAA6000020400000206000002080000020A0000020C0000020E00000400000004020000040400000406000004080000040A0
310
000040C0000040E00000600000006020000060400000606000006080000060A0000060C0000060E00000800000008020000080400000806000008080000080A0000080C0000080E00000A0000000A0200000A0400000A0600000A0800000A0A00000A0C00000A0E00000C0000000C0200000C0400000C0600000C0800000C0
310
A00000C0C00000C0E00000E0000000E0200000E0400000E0600000E0800000E0A00000E0C00000E0E00040000000400020004000400040006000400080004000A0004000C0004000E00040200000402020004020400040206000402080004020A0004020C0004020E000404000004040200040404000404060004040800040
310
40A0004040C0004040E00040600000406020004060400040606000406080004060A0004060C0004060E00040800000408020004080400040806000408080004080A0004080C0004080E00040A0000040A0200040A0400040A0600040A0800040A0A00040A0C00040A0E00040C0000040C0200040C0400040C0600040C08000
310
40C0A00040C0C00040C0E00040E0000040E0200040E0400040E0600040E0800040E0A00040E0C00040E0E00080000000800020008000400080006000800080008000A0008000C0008000E00080200000802020008020400080206000802080008020A0008020C0008020E00080400000804020008040400080406000804080
310
008040A0008040C0008040E00080600000806020008060400080606000806080008060A0008060C0008060E00080800000808020008080400080806000808080008080A0008080C0008080E00080A0000080A0200080A0400080A0600080A0800080A0A00080A0C00080A0E00080C0000080C0200080C0400080C0600080C0
310
800080C0A00080C0C00080C0E00080E0000080E0200080E0400080E0600080E0800080E0A00080E0C00080E0E000C0000000C0002000C0004000C0006000C0008000C000A000C000C000C000E000C0200000C0202000C0204000C0206000C0208000C020A000C020C000C020E000C0400000C0402000C0404000C0406000C0
310
408000C040A000C040C000C040E000C0600000C0602000C0604000C0606000C0608000C060A000C060C000C060E000C0800000C0802000C0804000C0806000C0808000C080A000C080C000C080E000C0A00000C0A02000C0A04000C0A06000C0A08000C0A0A000C0A0C000C0A0E000C0C00000C0C02000C0C04000C0C06000
310
C0C08000C0C0A000F0FBFF00A4A0A000808080000000FF0000FF000000FFFF00FF000000FF00FF00FFFF0000FFFFFF0000000000000000000000000000000000000000000000000000000000000000000000000000000000000000000000FFFFFF00000000000000000000000000000000000000000000000000000000FF00
310
0000FFFFFF00000000000000000000000000000000000000000000FFFFFF00000000000000FF000000000000000000000000000000000000000000FF00000000000000000000FFFF000000000000000000000000000000000000FF00000000000000000000000000FF00000000000000000000000000000000FF0000000000
310
000000000000000000FF000000000000000000000000000000FF000000000000000000000000000000FF000000000000000000000000000000FF00000000000000000000000000000000FF0000000000000000000000000000FF00000000000000000000000000000000FF0000000000000000000000000000FF0000000000
310
0000000000000000000000FF0000000000000000000000000000FF00000000000000000000000000000000FF0000000000000000000000000000FF00000000000000000000000000000000FF000000000000000000000000000000FF00000000FFFFFFFFFFFFFF000000FF00000000000000000000000000000000FF0000FF
310
FF00000000000000FF0000FF0000000000000000000000000000000000FFFF00000000000000000000FFFFFF0000000000000000000000000000000000FFFF0000000000000000000000FFFF00000000000000000000000000000000FF0000FF0000000000000000FFFF00FF00000000000000000000000000000000FF0000
310
00FFFFFFFFFFFFFFFF000000FF000000000000000000000000000000FF00000000000000000000000000000000FF0000000000000000000000000000FF00000000000000000000000000000000FF0000000000000000000000000000FF00000000000000000000000000000000FF0000000000000000000000000000FF0000
310
0000000000000000000000000000FF0000000000000000000000000000FF00000000000000000000000000000000FF0000000000000000000000000000FF000000000000000000000000000000FF00000000000000000000000000000000FF0000000000000000000000000000FF0000000000000000000000000000000000
310
FF00000000000000000000000000FF000000000000000000000000000000000000FF0000000000000000000000FF00000000000000000000000000000000000000FFFF0000000000000000FFFF00000000000000000000000000000000000000000000FFFF000000FFFFFF0000000000000000000000000000000000000000
310
000000000000FFFFFF0000000000000000000000000000000000000000000000000000000000000000000000000000000000000000000000
 70
     4
280
     1
281
     0
1001
AcDbBlockRepETag
1070
     1
1071
       11
1001
AcDbDynamicBlockTrueName
1000
DM-DblClmnTrans
1001
AcDbDynamicBlockGUID
1000
{585CA2F5-5F5C-4B0E-B6BA-E76099FE75DF}
  0
BLOCK_RECORD
  5
3B26
102
{ACAD_XDICTIONARY
360
3B27
102
}
330
1
100
AcDbSymbolTableRecord
100
AcDbBlockTableRecord
  2
DM-Knife Switch
340
0
102
{BLKREFS
331
77F4
102
}
 70
     4
280
     1
281
     0
1001
AcDbDynamicBlockGUID
1000
{1208EE2A-AA7C-4F17-ABFF-748ED99B0445}
  0
BLOCK_RECORD
  5
3B2F
102
{ACAD_XDICTIONARY
360
3B30
102
}
330
1
100
AcDbSymbolTableRecord
100
AcDbBlockTableRecord
  2
DM-HV FUSE
340
0
310
2800000020000000200000000100080000000000000400000000000000000000000000000000000000000000000080000080000000808000800000008000800080800000C0C0C000C0DCC000F0CAA6000020400000206000002080000020A0000020C0000020E00000400000004020000040400000406000004080000040A0
310
000040C0000040E00000600000006020000060400000606000006080000060A0000060C0000060E00000800000008020000080400000806000008080000080A0000080C0000080E00000A0000000A0200000A0400000A0600000A0800000A0A00000A0C00000A0E00000C0000000C0200000C0400000C0600000C0800000C0
310
A00000C0C00000C0E00000E0000000E0200000E0400000E0600000E0800000E0A00000E0C00000E0E00040000000400020004000400040006000400080004000A0004000C0004000E00040200000402020004020400040206000402080004020A0004020C0004020E000404000004040200040404000404060004040800040
310
40A0004040C0004040E00040600000406020004060400040606000406080004060A0004060C0004060E00040800000408020004080400040806000408080004080A0004080C0004080E00040A0000040A0200040A0400040A0600040A0800040A0A00040A0C00040A0E00040C0000040C0200040C0400040C0600040C08000
310
40C0A00040C0C00040C0E00040E0000040E0200040E0400040E0600040E0800040E0A00040E0C00040E0E00080000000800020008000400080006000800080008000A0008000C0008000E00080200000802020008020400080206000802080008020A0008020C0008020E00080400000804020008040400080406000804080
310
008040A0008040C0008040E00080600000806020008060400080606000806080008060A0008060C0008060E00080800000808020008080400080806000808080008080A0008080C0008080E00080A0000080A0200080A0400080A0600080A0800080A0A00080A0C00080A0E00080C0000080C0200080C0400080C0600080C0
310
800080C0A00080C0C00080C0E00080E0000080E0200080E0400080E0600080E0800080E0A00080E0C00080E0E000C0000000C0002000C0004000C0006000C0008000C000A000C000C000C000E000C0200000C0202000C0204000C0206000C0208000C020A000C020C000C020E000C0400000C0402000C0404000C0406000C0
310
408000C040A000C040C000C040E000C0600000C0602000C0604000C0606000C0608000C060A000C060C000C060E000C0800000C0802000C0804000C0806000C0808000C080A000C080C000C080E000C0A00000C0A02000C0A04000C0A06000C0A08000C0A0A000C0A0C000C0A0E000C0C00000C0C02000C0C04000C0C06000
310
C0C08000C0C0A000F0FBFF00A4A0A000808080000000FF0000FF000000FFFF00FF000000FF00FF00FFFF0000FFFFFF000000000000000000000000000000000000000000000000000000000000000000000000000000000000000000000000FF00000000000000000000000000000000000000000000000000000000000000
310
FF00000000000000000000000000000000000000000000000000000000000000FF00000000000000000000000000000000000000000000000000000000000000FF00000000000000000000000000000000000000000000000000000000000000FF000000000000000000000000000000000000000000000000000000FFFFFF
310
FFFFFFFFFFFFFF00000000000000000000000000000000000000000000FF000000FF00000000FF00000000000000000000000000000000000000000000FF000000FF00000000FF00000000000000000000000000000000000000000000FF000000FF00000000FF00000000000000000000000000000000000000000000FF00
310
0000FF00000000FF00000000000000000000000000000000000000000000FF000000FF00000000FF00000000000000000000000000000000000000000000FF000000FF00000000FF00000000000000000000000000000000000000000000FF000000FF00000000FF00000000000000000000000000000000000000000000FF
310
000000FF00000000FF00000000000000000000000000000000000000000000FF000000FF00000000FF00000000000000000000000000000000000000000000FF000000FF00000000FF00000000000000000000000000000000000000000000FF000000FF00000000FF00000000000000000000000000000000000000000000
310
FF000000FF00000000FF00000000000000000000000000000000000000000000FF000000FF00000000FF00000000000000000000000000000000000000000000FF000000FF00000000FF00000000000000000000000000000000000000000000FF000000FF00000000FF000000000000000000000000000000000000000000
310
00FF000000FF00000000FF00000000000000000000000000000000000000000000FF000000FF00000000FF00000000000000000000000000000000000000000000FF000000FF00000000FF00000000000000000000000000000000000000000000FFFFFFFFFFFFFFFFFFFF0000000000000000000000000000000000000000
310
000000000000FF00000000000000000000000000000000000000000000000000000000000000FF00000000000000000000000000000000000000000000000000000000000000FF00000000000000000000000000000000000000000000000000000000000000FF000000000000000000000000000000000000000000000000
310
00000000000000FF000000000000000000000000000000000000000000000000000000000000000000000000000000000000000000000000
 70
     4
280
     1
281
     0
1001
AcDbBlockRepETag
1070
     1
1071
        4
1001
AcDbDynamicBlockTrueName
1000
DM-HV FUSE
1001
AcDbDynamicBlockGUID
1000
{14075765-B0C7-4E08-8F12-60C3B668D0F1}
  0
BLOCK_RECORD
  5
6A44
102
{ACAD_XDICTIONARY
360
6AA2
102
}
330
1
100
AcDbSymbolTableRecord
100
AcDbBlockTableRecord
  2
A$C3A216533
340
0
 70
     4
280
     1
281
     0
  0
BLOCK_RECORD
  5
6AA5
102
{ACAD_XDICTIONARY
360
6AAD
102
}
330
1
100
AcDbSymbolTableRecord
100
AcDbBlockTableRecord
  2
*U15
340
0
102
{BLKREFS
331
6A4C
102
}
 70
     0
280
     1
281
     0
1001
AcDbBlockRepBTag
1070
     1
1005
284
  0
BLOCK_RECORD
  5
6AB0
102
{ACAD_XDICTIONARY
360
6ABC
102
}
330
1
100
AcDbSymbolTableRecord
100
AcDbBlockTableRecord
  2
*U16
340
0
102
{BLKREFS
331
6A59
102
}
 70
     0
280
     1
281
     0
1001
AcDbBlockRepBTag
1070
     1
1005
279
  0
BLOCK_RECORD
  5
6ABF
102
{ACAD_XDICTIONARY
360
6ACE
102
}
330
1
100
AcDbSymbolTableRecord
100
AcDbBlockTableRecord
  2
*U17
340
0
102
{BLKREFS
331
6A60
102
}
 70
     0
280
     1
281
     0
1001
AcDbBlockRepBTag
1070
     1
1005
290
  0
BLOCK_RECORD
  5
6AD2
102
{ACAD_XDICTIONARY
360
6ADA
102
}
330
1
100
AcDbSymbolTableRecord
100
AcDbBlockTableRecord
  2
*U18
340
0
102
{BLKREFS
331
6A67
102
}
 70
     0
280
     1
281
     0
1001
AcDbBlockRepBTag
1070
     1
1005
26D
  0
BLOCK_RECORD
  5
6ADD
102
{ACAD_XDICTIONARY
360
6AF0
102
}
330
1
100
AcDbSymbolTableRecord
100
AcDbBlockTableRecord
  2
*U19
340
0
102
{BLKREFS
331
6A70
102
}
 70
     0
280
     1
281
     0
1001
AcDbBlockRepBTag
1070
     1
1005
2A4
  0
BLOCK_RECORD
  5
6AF3
102
{ACAD_XDICTIONARY
360
6AFB
102
}
330
1
100
AcDbSymbolTableRecord
100
AcDbBlockTableRecord
  2
*U20
340
0
102
{BLKREFS
331
6A77
102
}
 70
     0
280
     1
281
     0
1001
AcDbBlockRepBTag
1070
     1
1005
26D
  0
BLOCK_RECORD
  5
6AFE
102
{ACAD_XDICTIONARY
360
6B06
102
}
330
1
100
AcDbSymbolTableRecord
100
AcDbBlockTableRecord
  2
*U21
340
0
102
{BLKREFS
331
6A7E
102
}
 70
     0
280
     1
281
     0
1001
AcDbBlockRepBTag
1070
     1
1005
2E4
  0
BLOCK_RECORD
  5
6B09
102
{ACAD_XDICTIONARY
360
6B11
102
}
330
1
100
AcDbSymbolTableRecord
100
AcDbBlockTableRecord
  2
*U22
340
0
102
{BLKREFS
331
6A85
102
}
 70
     0
280
     1
281
     0
1001
AcDbBlockRepBTag
1070
     1
1005
2E4
  0
BLOCK_RECORD
  5
6B14
102
{ACAD_XDICTIONARY
360
6B1C
102
}
330
1
100
AcDbSymbolTableRecord
100
AcDbBlockTableRecord
  2
*U23
340
0
102
{BLKREFS
331
6A8C
102
}
 70
     0
280
     1
281
     0
1001
AcDbBlockRepBTag
1070
     1
1005
2E4
  0
BLOCK_RECORD
  5
6B1F
102
{ACAD_XDICTIONARY
360
6B27
102
}
330
1
100
AcDbSymbolTableRecord
100
AcDbBlockTableRecord
  2
*U24
340
0
102
{BLKREFS
331
6A93
102
}
 70
     0
280
     1
281
     0
1001
AcDbBlockRepBTag
1070
     1
1005
2E4
  0
BLOCK_RECORD
  5
6B2A
102
{ACAD_XDICTIONARY
360
6B3D
102
}
330
1
100
AcDbSymbolTableRecord
100
AcDbBlockTableRecord
  2
*U25
340
0
102
{BLKREFS
331
6A9A
102
}
 70
     0
280
     1
281
     0
1001
AcDbBlockRepBTag
1070
     1
1005
2CD
  0
BLOCK_RECORD
  5
6B40
102
{ACAD_XDICTIONARY
360
6B4A
102
}
330
1
100
AcDbSymbolTableRecord
100
AcDbBlockTableRecord
  2
*U26
340
0
102
{BLKREFS
331
6A45
102
}
 70
     0
280
     1
281
     0
1001
AcDbBlockRepBTag
1070
     1
1005
25F
  0
BLOCK_RECORD
  5
73E5
102
{ACAD_XDICTIONARY
360
73F0
102
}
330
1
100
AcDbSymbolTableRecord
100
AcDbBlockTableRecord
  2
*U27
340
0
102
{BLKREFS
331
740A
102
}
 70
     0
280
     1
281
     0
1001
AcDbBlockRepBTag
1070
     1
1005
1B9D
  0
BLOCK_RECORD
  5
73F3
102
{ACAD_XDICTIONARY
360
73FB
102
}
330
1
100
AcDbSymbolTableRecord
100
AcDbBlockTableRecord
  2
*U28
340
0
102
{BLKREFS
331
7411
102
}
 70
     0
280
     1
281
     0
1001
AcDbBlockRepBTag
1070
     1
1005
284
  0
BLOCK_RECORD
  5
73FE
102
{ACAD_XDICTIONARY
360
7406
102
}
330
1
100
AcDbSymbolTableRecord
100
AcDbBlockTableRecord
  2
*U29
340
0
102
{BLKREFS
331
7419
102
}
 70
     0
280
     1
281
     0
1001
AcDbBlockRepBTag
1070
     1
1005
284
  0
BLOCK_RECORD
  5
74C0
102
{ACAD_XDICTIONARY
360
74D3
102
}
330
1
100
AcDbSymbolTableRecord
100
AcDbBlockTableRecord
  2
*U30
340
0
102
{BLKREFS
331
752C
102
}
 70
     0
280
     1
281
     0
1001
AcDbBlockRepBTag
1070
     1
1005
2CD
  0
BLOCK_RECORD
  5
74D6
102
{ACAD_XDICTIONARY
360
74DE
102
}
330
1
100
AcDbSymbolTableRecord
100
AcDbBlockTableRecord
  2
*U31
340
0
102
{BLKREFS
331
7534
102
}
 70
     0
280
     1
281
     0
1001
AcDbBlockRepBTag
1070
     1
1005
2E4
  0
BLOCK_RECORD
  5
74E1
102
{ACAD_XDICTIONARY
360
74E9
102
}
330
1
100
AcDbSymbolTableRecord
100
AcDbBlockTableRecord
  2
*U32
340
0
102
{BLKREFS
331
753B
102
}
 70
     0
280
     1
281
     0
1001
AcDbBlockRepBTag
1070
     1
1005
2E4
  0
BLOCK_RECORD
  5
74EC
102
{ACAD_XDICTIONARY
360
74F4
102
}
330
1
100
AcDbSymbolTableRecord
100
AcDbBlockTableRecord
  2
*U33
340
0
102
{BLKREFS
331
7542
102
}
 70
     0
280
     1
281
     0
1001
AcDbBlockRepBTag
1070
     1
1005
2E4
  0
BLOCK_RECORD
  5
74F7
102
{ACAD_XDICTIONARY
360
74FF
102
}
330
1
100
AcDbSymbolTableRecord
100
AcDbBlockTableRecord
  2
*U34
340
0
102
{BLKREFS
331
7549
102
}
 70
     0
280
     1
281
     0
1001
AcDbBlockRepBTag
1070
     1
1005
2E4
  0
BLOCK_RECORD
  5
7502
102
{ACAD_XDICTIONARY
360
7511
102
}
330
1
100
AcDbSymbolTableRecord
100
AcDbBlockTableRecord
  2
*U35
340
0
102
{BLKREFS
331
7551
102
}
 70
     0
280
     1
281
     0
1001
AcDbBlockRepBTag
1070
     1
1005
290
  0
BLOCK_RECORD
  5
7515
102
{ACAD_XDICTIONARY
360
751D
102
}
330
1
100
AcDbSymbolTableRecord
100
AcDbBlockTableRecord
  2
*U36
340
0
102
{BLKREFS
331
7558
102
}
 70
     0
280
     1
281
     0
1001
AcDbBlockRepBTag
1070
     1
1005
26D
  0
BLOCK_RECORD
  5
7520
102
{ACAD_XDICTIONARY
360
7528
102
}
330
1
100
AcDbSymbolTableRecord
100
AcDbBlockTableRecord
  2
*U37
340
0
102
{BLKREFS
331
7560
102
}
 70
     0
280
     1
281
     0
1001
AcDbBlockRepBTag
1070
     1
1005
284
  0
BLOCK_RECORD
  5
7620
102
{ACAD_XDICTIONARY
360
7628
102
}
330
1
100
AcDbSymbolTableRecord
100
AcDbBlockTableRecord
  2
*U38
340
0
102
{BLKREFS
331
7644
102
}
 70
     0
280
     1
281
     0
1001
AcDbBlockRepBTag
1070
     1
1005
284
  0
BLOCK_RECORD
  5
762B
102
{ACAD_XDICTIONARY
360
7633
102
}
330
1
100
AcDbSymbolTableRecord
100
AcDbBlockTableRecord
  2
*U39
340
0
102
{BLKREFS
331
764D
102
}
 70
     0
280
     1
281
     0
1001
AcDbBlockRepBTag
1070
     1
1005
284
  0
BLOCK_RECORD
  5
7636
102
{ACAD_XDICTIONARY
360
763E
102
}
330
1
100
AcDbSymbolTableRecord
100
AcDbBlockTableRecord
  2
*U40
340
0
102
{BLKREFS
331
7655
102
}
 70
     0
280
     1
281
     0
1001
AcDbBlockRepBTag
1070
     1
1005
284
  0
BLOCK_RECORD
  5
76DF
102
{ACAD_XDICTIONARY
360
76E7
102
}
330
1
100
AcDbSymbolTableRecord
100
AcDbBlockTableRecord
  2
*U41
340
0
102
{BLKREFS
331
771E
102
}
 70
     0
280
     1
281
     0
1001
AcDbBlockRepBTag
1070
     1
1005
2F0
  0
BLOCK_RECORD
  5
76EA
102
{ACAD_XDICTIONARY
360
76F8
102
}
330
1
100
AcDbSymbolTableRecord
100
AcDbBlockTableRecord
  2
*U42
340
0
102
{BLKREFS
331
7725
102
}
 70
     0
280
     1
281
     0
1001
AcDbBlockRepBTag
1070
     1
1005
2BB
  0
BLOCK_RECORD
  5
76FB
102
{ACAD_XDICTIONARY
360
7703
102
}
330
1
100
AcDbSymbolTableRecord
100
AcDbBlockTableRecord
  2
*U43
340
0
102
{BLKREFS
331
772D
102
}
 70
     0
280
     1
281
     0
1001
AcDbBlockRepBTag
1070
     1
1005
284
  0
BLOCK_RECORD
  5
7706
102
{ACAD_XDICTIONARY
360
770E
102
}
330
1
100
AcDbSymbolTableRecord
100
AcDbBlockTableRecord
  2
*U44
340
0
102
{BLKREFS
331
7735
102
}
 70
     0
280
     1
281
     0
1001
AcDbBlockRepBTag
1070
     1
1005
2E4
  0
BLOCK_RECORD
  5
7711
102
{ACAD_XDICTIONARY
360
7719
102
}
330
1
100
AcDbSymbolTableRecord
100
AcDbBlockTableRecord
  2
*U45
340
0
102
{BLKREFS
331
773C
102
}
 70
     0
280
     1
281
     0
1001
AcDbBlockRepBTag
1070
     1
1005
2E4
  0
BLOCK_RECORD
  5
77A3
102
{ACAD_XDICTIONARY
360
77B6
102
}
330
1
100
AcDbSymbolTableRecord
100
AcDbBlockTableRecord
  2
*U46
340
0
102
{BLKREFS
331
77E5
102
}
 70
     0
280
     1
281
     0
1001
AcDbBlockRepBTag
1070
     1
1005
2A4
  0
BLOCK_RECORD
  5
77B9
102
{ACAD_XDICTIONARY
360
77C1
102
}
330
1
100
AcDbSymbolTableRecord
100
AcDbBlockTableRecord
  2
*U47
340
0
102
{BLKREFS
331
77EC
102
}
 70
     0
280
     1
281
     0
1001
AcDbBlockRepBTag
1070
     1
1005
26D
  0
BLOCK_RECORD
  5
77C4
102
{ACAD_XDICTIONARY
360
77CC
102
}
330
1
100
AcDbSymbolTableRecord
100
AcDbBlockTableRecord
  2
*U48
340
0
102
{BLKREFS
331
77F5
102
}
 70
     0
280
     1
281
     0
1001
AcDbBlockRepBTag
1070
     1
1005
26D
  0
BLOCK_RECORD
  5
77CF
102
{ACAD_XDICTIONARY
360
77D7
102
}
330
1
100
AcDbSymbolTableRecord
100
AcDbBlockTableRecord
  2
*U49
340
0
102
{BLKREFS
331
77DD
102
}
 70
     0
280
     1
281
     0
1001
AcDbBlockRepBTag
1070
     1
1005
284
  0
ENDTAB
  0
ENDSEC
  0
SECTION
  2
BLOCKS
  0
BLOCK
  5
20
330
1F
100
AcDbEntity
  8
0
100
AcDbBlockBegin
  2
*Model_Space
 70
     0
 10
0.0
 20
0.0
 30
0.0
  3
*Model_Space
  1

  0
ENDBLK
  5
21
330
1F
100
AcDbEntity
  8
0
100
AcDbBlockEnd
  0
BLOCK
  5
D4
330
D2
100
AcDbEntity
 67
     1
  8
0
100
AcDbBlockBegin
  2
*Paper_Space
 70
     0
 10
0.0
 20
0.0
 30
0.0
  3
*Paper_Space
  1

  0
ENDBLK
  5
D5
330
D2
100
AcDbEntity
 67
     1
  8
0
100
AcDbBlockEnd
  0
BLOCK
  5
D8
330
D6
100
AcDbEntity
 67
     1
  8
0
100
AcDbBlockBegin
  2
*Paper_Space0
 70
     0
 10
0.0
 20
0.0
 30
0.0
  3
*Paper_Space0
  1

  0
ENDBLK
  5
D9
330
D6
100
AcDbEntity
 67
     1
  8
0
100
AcDbBlockEnd
  0
BLOCK
  5
264
330
25F
100
AcDbEntity
  8
0
 48
0.1
100
AcDbBlockBegin
  2
DM-ZCT
 70
     0
 10
0.0
 20
0.0
 30
0.0
  3
DM-ZCT
  1

  0
LINE
  5
265
330
25F
100
AcDbEntity
  8
0
  6
DASHED2
100
AcDbLine
 10
0.0
 20
0.0
 30
0.0
 11
0.0
 21
-24.0
 31
0.0
1001
AcDbBlockRepETag
1070
     1
1071
        0
1005
265
  0
CIRCLE
  5
266
330
25F
100
AcDbEntity
  8
0
100
AcDbCircle
 10
0.0
 20
-12.0
 30
0.0
 40
5.0
1001
AcDbBlockRepETag
1070
     1
1071
        1
1005
266
  0
LINE
  5
267
330
25F
100
AcDbEntity
  8
0
100
AcDbLine
 10
7.999999147599737
 20
-10.0
 30
0.0
 11
5.999999147599737
 21
-14.0
 31
0.0
1001
AcDbBlockRepETag
1070
     1
1071
        3
1005
267
  0
LINE
  5
268
330
25F
100
AcDbEntity
  8
0
100
AcDbLine
 10
9.999999147599737
 20
-10.0
 30
0.0
 11
7.999999147599737
 21
-14.0
 31
0.0
1001
AcDbBlockRepETag
1070
     1
1071
        4
1005
268
  0
LINE
  5
269
330
25F
100
AcDbEntity
  8
0
  6
DASHED2
100
AcDbLine
 10
-3.0
 20
-4.0
 30
0.0
 11
-3.0
 21
-20.0
 31
0.0
1001
AcDbBlockRepETag
1070
     1
1071
        2
1005
269
  0
LINE
  5
26A
330
25F
100
AcDbEntity
  8
0
  6
DASHED2
100
AcDbLine
 10
3.0
 20
-4.0
 30
0.0
 11
3.0
 21
-20.0
 31
0.0
1001
AcDbBlockRepETag
1070
     1
1071
        5
1005
26A
  0
LINE
  5
26B
330
25F
100
AcDbEntity
  8
0
100
AcDbLine
 10
5.0
 20
-11.99999999863691
 30
0.0
 11
11.0
 21
-11.99999999863691
 31
0.0
1001
AcDbBlockRepETag
1070
     1
1071
        6
1005
26B
  0
ENDBLK
  5
26C
330
25F
100
AcDbEntity
  8
0
 48
0.1
100
AcDbBlockEnd
  0
BLOCK
  5
272
330
26D
100
AcDbEntity
  8
0
100
AcDbBlockBegin
  2
DM-GND
 70
     0
 10
0.0
 20
0.0
 30
0.0
  3
DM-GND
  1

  0
LINE
  5
4AAF
330
26D
100
AcDbEntity
  8
0
100
AcDbLine
 10
0.0
 20
0.0
 30
0.0
 11
0.0
 21
-4.0
 31
0.0
1001
AcDbBlockRepETag
1070
     1
1071
        0
1005
4AAF
  0
LINE
  5
4AB0
330
26D
100
AcDbEntity
  8
0
100
AcDbLine
 10
-2.0
 20
-4.0
 30
0.0
 11
2.0
 21
-4.0
 31
0.0
1001
AcDbBlockRepETag
1070
     1
1071
        1
1005
4AB0
  0
LINE
  5
4AB1
330
26D
100
AcDbEntity
  8
0
100
AcDbLine
 10
-1.0
 20
-5.0
 30
0.0
 11
1.0
 21
-5.0
 31
0.0
1001
AcDbBlockRepETag
1070
     1
1071
        2
1005
4AB1
  0
LINE
  5
4AB2
330
26D
100
AcDbEntity
  8
0
100
AcDbLine
 10
0.0
 20
-6.0
 30
0.0
 11
0.0
 21
-6.0
 31
0.0
1001
AcDbBlockRepETag
1070
     1
1071
        3
1005
4AB2
  0
LINE
  5
4AB3
330
26D
100
AcDbEntity
  8
0
100
AcDbLine
 10
0.5
 20
-6.0
 30
0.0
 11
-0.5
 21
-6.0
 31
0.0
1001
AcDbBlockRepETag
1070
     1
1071
        4
1005
4AB3
  0
ENDBLK
  5
278
330
26D
100
AcDbEntity
  8
0
100
AcDbBlockEnd
  0
BLOCK
  5
27E
330
279
100
AcDbEntity
  8
0
370
   158
100
AcDbBlockBegin
  2
DM-Earthing Switch
 70
     0
 10
0.0
 20
0.0
 30
0.0
  3
DM-Earthing Switch
  1

  0
LINE
  5
4C01
330
279
100
AcDbEntity
  8
0
100
AcDbLine
 10
-4.0
 20
-6.0
 30
0.0
 11
4.0
 21
-6.0
 31
0.0
1001
AcDbBlockRepETag
1070
     1
1071
        1
1005
4C01
  0
LINE
  5
4C02
330
279
100
AcDbEntity
  8
0
100
AcDbLine
 10
0.0
 20
0.0
 30
0.0
 11
0.0
 21
-6.0
 31
0.0
1001
AcDbBlockRepETag
1070
     1
1071
        2
1005
4C02
  0
LINE
  5
4C03
330
279
100
AcDbEntity
  8
0
100
AcDbLine
 10
0.0000004987477951
 20
-20.0
 30
0.0
 11
-8.0
 21
-6.0
 31
0.0
1001
AcDbBlockRepETag
1070
     1
1071
        3
1005
4C03
  0
LINE
  5
4C04
330
279
100
AcDbEntity
  8
0
 48
0.1
100
AcDbLine
 10
0.0000004987477951
 20
-20.0
 30
0.0
 11
0.0000004987477951
 21
-32.0
 31
0.0
1001
AcDbBlockRepETag
1070
     1
1071
        4
1005
4C04
  0
LINE
  5
4C17
330
279
100
AcDbEntity
  8
0
100
AcDbLine
 10
0.0000004987477951
 20
-32.0
 30
0.0
 11
0.0000004987477951
 21
-40.0
 31
0.0
1001
AcDbBlockRepETag
1070
     1
1071
        0
1005
4C17
  0
LINE
  5
4C18
330
279
100
AcDbEntity
  8
0
100
AcDbLine
 10
-3.999999501252204
 20
-40.0
 30
0.0
 11
4.000000498747795
 21
-40.0
 31
0.0
1001
AcDbBlockRepETag
1070
     1
1071
        5
1005
4C18
  0
LINE
  5
4C19
330
279
100
AcDbEntity
  8
0
100
AcDbLine
 10
-1.999999501252204
 20
-42.0
 30
0.0
 11
2.000000498747795
 21
-42.0
 31
0.0
1001
AcDbBlockRepETag
1070
     1
1071
        6
1005
4C19
  0
LINE
  5
4C1A
330
279
100
AcDbEntity
  8
0
100
AcDbLine
 10
0.0000004987477951
 20
-44.0
 30
0.0
 11
0.0000004987477951
 21
-44.0
 31
0.0
1001
AcDbBlockRepETag
1070
     1
1071
        7
1005
4C1A
  0
LINE
  5
4C1B
330
279
100
AcDbEntity
  8
0
100
AcDbLine
 10
1.000000498747795
 20
-44.0
 30
0.0
 11
-0.9999995012522049
 21
-44.0
 31
0.0
1001
AcDbBlockRepETag
1070
     1
1071
        8
1005
4C1B
  0
ENDBLK
  5
283
330
279
100
AcDbEntity
  8
0
370
   158
100
AcDbBlockEnd
  0
BLOCK
  5
289
330
284
100
AcDbEntity
  8
0
 48
0.1
100
AcDbBlockBegin
  2
DM-Outgoing Line
 70
     0
 10
0.0
 20
0.0
 30
0.0
  3
DM-Outgoing Line
  1

  0
LINE
  5
28A
330
284
100
AcDbEntity
  8
0
100
AcDbLine
 10
0.0
 20
0.0
 30
0.0
 11
0.0
 21
15.0
 31
0.0
1001
AcDbBlockRepETag
1070
     1
1071
        0
1005
28A
  0
HATCH
  5
28B
330
284
100
AcDbEntity
  8
0
100
AcDbHatch
 10
0.0
 20
0.0
 30
0.0
210
0.0
220
0.0
230
1.0
  2
SOLID
 70
     1
 71
     1
 91
        1
 92
        1
 93
        3
 72
     1
 10
0.0
 20
15.0
 11
-2.0
 21
10.99999910797555
 72
     1
 10
-2.0
 20
10.99999910797555
 11
2.0
 21
10.99999910797555
 72
     1
 10
2.0
 20
10.99999910797555
 11
0.0
 21
15.0
 97
        3
330
28C
330
28D
330
28E
 75
     0
 76
     1
 98
        1
 10
-854.0
 20
84.99999910797555
450
        0
451
        0
460
0.0
461
0.0
452
        1
462
1.0
453
        2
463
0.0
 63
     5
421
      255
463
1.0
 63
     7
421
 16777215
470
LINEAR
1001
ACAD
1010
0.0
1020
0.0
1030
0.0
1001
AcDbBlockRepETag
1070
     1
1071
        1
1005
28B
  0
LINE
  5
28C
102
{ACAD_REACTORS
330
28B
102
}
330
284
100
AcDbEntity
  8
0
100
AcDbLine
 10
0.0
 20
15.0
 30
0.0
 11
-2.0
 21
10.99999910797555
 31
0.0
1001
AcDbBlockRepETag
1070
     1
1071
        2
1005
28C
  0
LINE
  5
28D
102
{ACAD_REACTORS
330
28B
102
}
330
284
100
AcDbEntity
  8
0
100
AcDbLine
 10
-2.0
 20
10.99999910797555
 30
0.0
 11
2.0
 21
10.99999910797555
 31
0.0
1001
AcDbBlockRepETag
1070
     1
1071
        3
1005
28D
  0
LINE
  5
28E
102
{ACAD_REACTORS
330
28B
102
}
330
284
100
AcDbEntity
  8
0
100
AcDbLine
 10
2.0
 20
10.99999910797555
 30
0.0
 11
0.0
 21
15.0
 31
0.0
1001
AcDbBlockRepETag
1070
     1
1071
        4
1005
28E
  0
ENDBLK
  5
28F
330
284
100
AcDbEntity
  8
0
 48
0.1
100
AcDbBlockEnd
  0
BLOCK
  5
296
330
290
100
AcDbEntity
  8
0
100
AcDbBlockBegin
  2
DM-Arrester
 70
     0
 10
0.0
 20
0.0
 30
0.0
  3
DM-Arrester
  1

  0
LINE
  5
297
330
290
100
AcDbEntity
  8
0
100
AcDbLine
 10
0.0
 20
0.0
 30
0.0
 11
0.0
 21
-4.0
 31
0.0
1001
AcDbBlockRepETag
1070
     1
1071
        0
1005
297
  0
LINE
  5
298
330
290
100
AcDbEntity
  8
0
100
AcDbLine
 10
-2.0
 20
-4.0
 30
0.0
 11
2.0
 21
-4.0
 31
0.0
1001
AcDbBlockRepETag
1070
     1
1071
        1
1005
298
  0
LINE
  5
299
330
290
100
AcDbEntity
  8
0
100
AcDbLine
 10
2.0
 20
-4.0
 30
0.0
 11
2.0
 21
-12.0
 31
0.0
1001
AcDbBlockRepETag
1070
     1
1071
        2
1005
299
  0
LINE
  5
29A
330
290
100
AcDbEntity
  8
0
100
AcDbLine
 10
2.0
 20
-12.0
 30
0.0
 11
-2.0
 21
-12.0
 31
0.0
1001
AcDbBlockRepETag
1070
     1
1071
        3
1005
29A
  0
LINE
  5
29B
330
290
100
AcDbEntity
  8
0
100
AcDbLine
 10
-2.0
 20
-12.0
 30
0.0
 11
-2.0
 21
-4.0
 31
0.0
1001
AcDbBlockRepETag
1070
     1
1071
        4
1005
29B
  0
LINE
  5
29C
330
290
100
AcDbEntity
  8
0
100
AcDbLine
 10
0.0
 20
-16.0
 30
0.0
 11
0.0
 21
-12.0
 31
0.0
1001
AcDbBlockRepETag
1070
     1
1071
        5
1005
29C
  0
LINE
  5
29D
330
290
100
AcDbEntity
  8
0
100
AcDbLine
 10
0.0
 20
-4.0
 30
0.0
 11
0.0
 21
-4.5
 31
0.0
1001
AcDbBlockRepETag
1070
     1
1071
        6
1005
29D
  0
HATCH
  5
29E
330
290
100
AcDbEntity
  8
0
100
AcDbHatch
 10
0.0
 20
0.0
 30
0.0
210
0.0
220
0.0
230
1.0
  2
SOLID
 70
     1
 71
     1
 91
        1
 92
        1
 93
        4
 72
     1
 10
0.0
 20
-4.5
 11
1.5
 21
-4.5
 72
     1
 10
1.5
 20
-4.5
 11
0.0
 21
-8.0
 72
     1
 10
0.0
 20
-8.0
 11
-1.5
 21
-4.5
 72
     1
 10
-1.5
 20
-4.5
 11
0.0
 21
-4.5
 97
        4
330
29F
330
2A1
330
2A2
330
2A0
 75
     0
 76
     1
 98
        1
 10
-3024.0
 20
314.0
450
        0
451
        0
460
0.0
461
0.0
452
        1
462
1.0
453
        2
463
0.0
 63
     5
421
      255
463
1.0
 63
     7
421
 16777215
470
LINEAR
1001
ACAD
1010
0.0
1020
0.0
1030
0.0
1001
AcDbBlockRepETag
1070
     1
1071
       11
1005
29E
  0
LINE
  5
29F
102
{ACAD_REACTORS
330
29E
102
}
330
290
100
AcDbEntity
  8
0
100
AcDbLine
 10
0.0
 20
-4.5
 30
0.0
 11
1.5
 21
-4.5
 31
0.0
1001
AcDbBlockRepETag
1070
     1
1071
        7
1005
29F
  0
LINE
  5
2A0
102
{ACAD_REACTORS
330
29E
102
}
330
290
100
AcDbEntity
  8
0
100
AcDbLine
 10
0.0
 20
-4.5
 30
0.0
 11
-1.5
 21
-4.5
 31
0.0
1001
AcDbBlockRepETag
1070
     1
1071
        8
1005
2A0
  0
LINE
  5
2A1
102
{ACAD_REACTORS
330
29E
102
}
330
290
100
AcDbEntity
  8
0
100
AcDbLine
 10
0.0
 20
-8.0
 30
0.0
 11
1.5
 21
-4.5
 31
0.0
1001
AcDbBlockRepETag
1070
     1
1071
        9
1005
2A1
  0
LINE
  5
2A2
102
{ACAD_REACTORS
330
29E
102
}
330
290
100
AcDbEntity
  8
0
100
AcDbLine
 10
0.0
 20
-8.0
 30
0.0
 11
-1.5
 21
-4.5
 31
0.0
1001
AcDbBlockRepETag
1070
     1
1071
       10
1005
2A2
  0
ENDBLK
  5
2A3
330
290
100
AcDbEntity
  8
0
100
AcDbBlockEnd
  0
BLOCK
  5
2A9
330
2A4
100
AcDbEntity
  8
0
100
AcDbBlockBegin
  2
DM-DXN-T
 70
     0
 10
0.0
 20
0.0
 30
0.0
  3
DM-DXN-T
  1

  0
LINE
  5
2AA
330
2A4
100
AcDbEntity
  8
0
100
AcDbLine
 10
0.0
 20
0.0
 30
0.0
 11
0.0
 21
-3.0
 31
0.0
1001
AcDbBlockRepETag
1070
     1
1071
        0
1005
2AA
  0
LINE
  5
2AB
330
2A4
100
AcDbEntity
  8
0
100
AcDbLine
 10
2.0
 20
-3.0
 30
0.0
 11
-2.0
 21
-3.0
 31
0.0
1001
AcDbBlockRepETag
1070
     1
1071
        1
1005
2AB
  0
LINE
  5
2AC
330
2A4
100
AcDbEntity
  8
0
100
AcDbLine
 10
-2.0
 20
-5.0
 30
0.0
 11
2.0
 21
-5.0
 31
0.0
1001
AcDbBlockRepETag
1070
     1
1071
        2
1005
2AC
  0
LINE
  5
2AD
330
2A4
100
AcDbEntity
  8
0
100
AcDbLine
 10
0.0
 20
-8.0
 30
0.0
 11
0.0
 21
-5.0
 31
0.0
1001
AcDbBlockRepETag
1070
     1
1071
        3
1005
2AD
  0
CIRCLE
  5
2AE
330
2A4
100
AcDbEntity
  8
0
100
AcDbCircle
 10
0.0
 20
-10.5
 30
0.0
 40
2.5
1001
AcDbBlockRepETag
1070
     1
1071
        4
1005
2AE
  0
LINE
  5
2AF
330
2A4
100
AcDbEntity
  8
0
100
AcDbLine
 10
0.0
 20
-16.0
 30
0.0
 11
0.0
 21
-13.0
 31
0.0
1001
AcDbBlockRepETag
1070
     1
1071
        5
1005
2AF
  0
LINE
  5
2B0
330
2A4
100
AcDbEntity
  8
0
100
AcDbLine
 10
0.0
 20
-10.5
 30
0.0
 11
0.0
 21
-10.5
 31
0.0
1001
AcDbBlockRepETag
1070
     1
1071
        6
1005
2B0
  0
LINE
  5
2B1
330
2A4
100
AcDbEntity
  8
0
100
AcDbLine
 10
0.0
 20
-10.5
 30
0.0
 11
0.0
 21
-10.5
 31
0.0
1001
AcDbBlockRepETag
1070
     1
1071
        7
1005
2B1
  0
LINE
  5
2B2
330
2A4
100
AcDbEntity
  8
0
100
AcDbLine
 10
0.0
 20
-10.5
 30
0.0
 11
0.0
 21
-10.5
 31
0.0
1001
AcDbBlockRepETag
1070
     1
1071
        8
1005
2B2
  0
LINE
  5
2B3
330
2A4
100
AcDbEntity
  8
0
100
AcDbLine
 10
0.0
 20
-10.5
 30
0.0
 11
0.0
 21
-10.5
 31
0.0
1001
AcDbBlockRepETag
1070
     1
1071
        9
1005
2B3
  0
LINE
  5
2B4
330
2A4
100
AcDbEntity
  8
0
100
AcDbLine
 10
0.0
 20
-10.5
 30
0.0
 11
0.0
 21
-10.5
 31
0.0
1001
AcDbBlockRepETag
1070
     1
1071
       10
1005
2B4
  0
LINE
  5
2B5
330
2A4
100
AcDbEntity
  8
0
100
AcDbLine
 10
0.0
 20
-10.5
 30
0.0
 11
0.0
 21
-10.5
 31
0.0
1001
AcDbBlockRepETag
1070
     1
1071
       11
1005
2B5
  0
LINE
  5
2B6
330
2A4
100
AcDbEntity
  8
0
100
AcDbLine
 10
0.0
 20
-10.5
 30
0.0
 11
-1.767766952966212
 21
-8.732233047033616
 31
0.0
1001
AcDbBlockRepETag
1070
     1
1071
       12
1005
2B6
  0
LINE
  5
2B7
330
2A4
100
AcDbEntity
  8
0
100
AcDbLine
 10
0.0
 20
-10.5
 30
0.0
 11
1.767766952966212
 21
-8.732233047033616
 31
0.0
1001
AcDbBlockRepETag
1070
     1
1071
       13
1005
2B7
  0
LINE
  5
2B8
330
2A4
100
AcDbEntity
  8
0
100
AcDbLine
 10
0.0
 20
-10.5
 30
0.0
 11
1.767766952966212
 21
-12.26776695296638
 31
0.0
1001
AcDbBlockRepETag
1070
     1
1071
       14
1005
2B8
  0
LINE
  5
2B9
330
2A4
100
AcDbEntity
  8
0
100
AcDbLine
 10
0.0
 20
-10.5
 30
0.0
 11
-1.767766952966212
 21
-12.26776695296638
 31
0.0
1001
AcDbBlockRepETag
1070
     1
1071
       15
1005
2B9
  0
ENDBLK
  5
2BA
330
2A4
100
AcDbEntity
  8
0
100
AcDbBlockEnd
  0
BLOCK
  5
2C0
330
2BB
100
AcDbEntity
  8
0
 48
0.1
100
AcDbBlockBegin
  2
DM-HPT
 70
     0
 10
0.0
 20
0.0
 30
0.0
  3
DM-HPT
  1

  0
LINE
  5
2C1
330
2BB
100
AcDbEntity
  8
0
100
AcDbLine
 10
0.0
 20
0.0
 30
0.0
 11
0.0
 21
-48.0
 31
0.0
1001
AcDbBlockRepETag
1070
     1
1071
        0
1005
2C1
  0
LINE
  5
2C2
330
2BB
100
AcDbEntity
  8
0
100
AcDbLine
 10
-4.0
 20
-16.0
 30
0.0
 11
4.0
 21
-16.0
 31
0.0
1001
AcDbBlockRepETag
1070
     1
1071
        1
1005
2C2
  0
LINE
  5
2C3
330
2BB
100
AcDbEntity
  8
0
100
AcDbLine
 10
4.0
 20
-16.0
 30
0.0
 11
4.0
 21
-32.0
 31
0.0
1001
AcDbBlockRepETag
1070
     1
1071
        2
1005
2C3
  0
LINE
  5
2C4
330
2BB
100
AcDbEntity
  8
0
100
AcDbLine
 10
4.0
 20
-32.0
 30
0.0
 11
-4.0
 21
-32.0
 31
0.0
1001
AcDbBlockRepETag
1070
     1
1071
        3
1005
2C4
  0
LINE
  5
2C5
330
2BB
100
AcDbEntity
  8
0
100
AcDbLine
 10
-4.0
 20
-32.0
 30
0.0
 11
-4.0
 21
-16.0
 31
0.0
1001
AcDbBlockRepETag
1070
     1
1071
        4
1005
2C5
  0
CIRCLE
  5
2C6
330
2BB
100
AcDbEntity
  8
0
100
AcDbCircle
 10
15.0
 20
-53.0
 30
0.0
 40
8.0
1001
AcDbBlockRepETag
1070
     1
1071
        5
1005
2C6
  0
CIRCLE
  5
2C7
330
2BB
100
AcDbEntity
  8
0
100
AcDbCircle
 10
-15.0
 20
-43.0
 30
0.0
 40
8.0
1001
AcDbBlockRepETag
1070
     1
1071
        6
1005
2C7
  0
CIRCLE
  5
2C8
330
2BB
100
AcDbEntity
  8
0
100
AcDbCircle
 10
15.0
 20
-43.0
 30
0.0
 40
8.0
1001
AcDbBlockRepETag
1070
     1
1071
        7
1005
2C8
  0
LINE
  5
2C9
330
2BB
100
AcDbEntity
  8
0
100
AcDbLine
 10
0.0
 20
-48.0
 30
0.0
 11
8.75500200160161
 21
-48.0
 31
0.0
1001
AcDbBlockRepETag
1070
     1
1071
       12
1005
2C9
  0
LINE
  5
2CA
330
2BB
100
AcDbEntity
  8
0
100
AcDbLine
 10
0.0
 20
-48.0
 30
0.0
 11
-8.75500200160161
 21
-48.0
 31
0.0
1001
AcDbBlockRepETag
1070
     1
1071
       13
1005
2CA
  0
CIRCLE
  5
2CB
330
2BB
100
AcDbEntity
  8
0
100
AcDbCircle
 10
-15.0
 20
-53.0
 30
0.0
 40
8.0
1001
AcDbBlockRepETag
1070
     1
1071
       14
1005
2CB
  0
ENDBLK
  5
2CC
330
2BB
100
AcDbEntity
  8
0
 48
0.1
100
AcDbBlockEnd
  0
BLOCK
  5
2D2
330
2CD
100
AcDbEntity
  8
0
 48
0.1
100
AcDbBlockBegin
  2
DM-VCB
 70
     0
 10
0.0
 20
0.0
 30
0.0
  3
DM-VCB
  1

  0
LINE
  5
2D3
330
2CD
100
AcDbEntity
  8
0
100
AcDbLine
 10
0.0
 20
0.0
 30
0.0
 11
0.0
 21
-24.0
 31
0.0
1001
AcDbBlockRepETag
1070
     1
1071
        0
1005
2D3
  0
HATCH
  5
2D4
330
2CD
100
AcDbEntity
  8
0
100
AcDbHatch
 10
0.0
 20
0.0
 30
0.0
210
0.0
220
0.0
230
1.0
  2
SOLID
 70
     1
 71
     1
 91
        1
 92
        1
 93
        5
 72
     1
 10
-4.0
 20
-24.0
 11
-4.0
 21
-40.0
 72
     1
 10
-4.0
 20
-40.0
 11
4.0
 21
-40.0
 72
     1
 10
4.0
 20
-40.0
 11
4.0
 21
-32.0
 72
     1
 10
4.0
 20
-32.0
 11
4.0
 21
-24.0
 72
     1
 10
4.0
 20
-24.0
 11
-4.0
 21
-24.0
 97
        5
330
2D8
330
2D9
330
2D7
330
2D6
330
2D5
 75
     0
 76
     1
 98
        1
 10
-730.0000011883575
 20
-101.9999995897865
450
        0
451
        0
460
0.0
461
0.0
452
        1
462
1.0
453
        2
463
0.0
 63
     5
421
      255
463
1.0
 63
     7
421
 16777215
470
LINEAR
1001
ACAD
1010
0.0
1020
0.0
1030
0.0
1001
AcDbBlockRepETag
1070
     1
1071
        1
1005
2D4
  0
LINE
  5
2D5
102
{ACAD_REACTORS
330
2D4
102
}
330
2CD
100
AcDbEntity
  8
0
100
AcDbLine
 10
-4.0
 20
-24.0
 30
0.0
 11
4.0
 21
-24.0
 31
0.0
1001
AcDbBlockRepETag
1070
     1
1071
        2
1005
2D5
  0
LINE
  5
2D6
102
{ACAD_REACTORS
330
2D4
102
}
330
2CD
100
AcDbEntity
  8
0
100
AcDbLine
 10
4.0
 20
-24.0
 30
0.0
 11
4.0
 21
-32.0
 31
0.0
1001
AcDbBlockRepETag
1070
     1
1071
        3
1005
2D6
  0
LINE
  5
2D7
102
{ACAD_REACTORS
330
2D4
102
}
330
2CD
100
AcDbEntity
  8
0
100
AcDbLine
 10
4.0
 20
-32.0
 30
0.0
 11
4.0
 21
-40.0
 31
0.0
1001
AcDbBlockRepETag
1070
     1
1071
        4
1005
2D7
  0
LINE
  5
2D8
102
{ACAD_REACTORS
330
2D4
102
}
330
2CD
100
AcDbEntity
  8
0
100
AcDbLine
 10
-4.0
 20
-24.0
 30
0.0
 11
-4.0
 21
-40.0
 31
0.0
1001
AcDbBlockRepETag
1070
     1
1071
        5
1005
2D8
  0
LINE
  5
2D9
102
{ACAD_REACTORS
330
2D4
102
}
330
2CD
100
AcDbEntity
  8
0
100
AcDbLine
 10
-4.0
 20
-40.0
 30
0.0
 11
4.0
 21
-40.0
 31
0.0
1001
AcDbBlockRepETag
1070
     1
1071
        6
1005
2D9
  0
LINE
  5
2DA
330
2CD
100
AcDbEntity
  8
0
100
AcDbLine
 10
0.0
 20
-64.0
 30
0.0
 11
0.0
 21
-40.0
 31
0.0
1001
AcDbBlockRepETag
1070
     1
1071
        7
1005
2DA
  0
LINE
  5
2DB
330
2CD
100
AcDbEntity
  8
0
100
AcDbLine
 10
0.0
 20
0.0
 30
0.0
 11
-4.0
 21
-4.0
 31
0.0
1001
AcDbBlockRepETag
1070
     1
1071
        8
1005
2DB
  0
LINE
  5
2DC
330
2CD
100
AcDbEntity
  8
0
100
AcDbLine
 10
0.0
 20
0.0
 30
0.0
 11
4.0
 21
-4.0
 31
0.0
1001
AcDbBlockRepETag
1070
     1
1071
        9
1005
2DC
  0
LINE
  5
2DD
330
2CD
100
AcDbEntity
  8
0
100
AcDbLine
 10
0.0
 20
-4.0
 30
0.0
 11
-4.0
 21
-8.0
 31
0.0
1001
AcDbBlockRepETag
1070
     1
1071
       10
1005
2DD
  0
LINE
  5
2DE
330
2CD
100
AcDbEntity
  8
0
100
AcDbLine
 10
0.0
 20
-4.0
 30
0.0
 11
4.0
 21
-8.0
 31
0.0
1001
AcDbBlockRepETag
1070
     1
1071
       11
1005
2DE
  0
LINE
  5
2DF
330
2CD
100
AcDbEntity
  8
0
100
AcDbLine
 10
0.0
 20
-64.0
 30
0.0
 11
4.0
 21
-60.0
 31
0.0
1001
AcDbBlockRepETag
1070
     1
1071
       12
1005
2DF
  0
LINE
  5
2E0
330
2CD
100
AcDbEntity
  8
0
100
AcDbLine
 10
0.0
 20
-64.0
 30
0.0
 11
-4.0
 21
-60.0
 31
0.0
1001
AcDbBlockRepETag
1070
     1
1071
       13
1005
2E0
  0
LINE
  5
2E1
330
2CD
100
AcDbEntity
  8
0
100
AcDbLine
 10
0.0
 20
-60.0
 30
0.0
 11
4.0
 21
-56.0
 31
0.0
1001
AcDbBlockRepETag
1070
     1
1071
       14
1005
2E1
  0
LINE
  5
2E2
330
2CD
100
AcDbEntity
  8
0
100
AcDbLine
 10
0.0
 20
-60.0
 30
0.0
 11
-4.0
 21
-56.0
 31
0.0
1001
AcDbBlockRepETag
1070
     1
1071
       15
1005
2E2
  0
ENDBLK
  5
2E3
330
2CD
100
AcDbEntity
  8
0
 48
0.1
100
AcDbBlockEnd
  0
BLOCK
  5
2E9
330
2E4
100
AcDbEntity
  8
0
370
   158
100
AcDbBlockBegin
  2
DM-CT
 70
     0
 10
0.0
 20
0.0
 30
0.0
  3
DM-CT
  1

  0
LINE
  5
2EA
330
2E4
100
AcDbEntity
  8
0
100
AcDbLine
 10
0.0
 20
0.0
 30
0.0
 11
0.0
 21
-24.0
 31
0.0
1001
AcDbBlockRepETag
1070
     1
1071
        0
1005
2EA
  0
CIRCLE
  5
2EB
330
2E4
100
AcDbEntity
  8
0
100
AcDbCircle
 10
0.0
 20
-12.0
 30
0.0
 40
4.0
1001
AcDbBlockRepETag
1070
     1
1071
        1
1005
2EB
  0
LINE
  5
2EC
330
2E4
100
AcDbEntity
  8
0
100
AcDbLine
 10
4.0
 20
-12.0
 30
0.0
 11
9.999992328408325
 21
-11.99040525967284
 31
0.0
1001
AcDbBlockRepETag
1070
     1
1071
        2
1005
2EC
  0
LINE
  5
2ED
330
2E4
100
AcDbEntity
  8
0
100
AcDbLine
 10
7.0
 20
-10.0
 30
0.0
 11
5.0
 21
-14.0
 31
0.0
1001
AcDbBlockRepETag
1070
     1
1071
        3
1005
2ED
  0
LINE
  5
2EE
330
2E4
100
AcDbEntity
  8
0
100
AcDbLine
 10
9.0
 20
-10.0
 30
0.0
 11
7.0
 21
-14.0
 31
0.0
1001
AcDbBlockRepETag
1070
     1
1071
        4
1005
2EE
  0
ENDBLK
  5
2EF
330
2E4
100
AcDbEntity
  8
0
370
   158
100
AcDbBlockEnd
  0
BLOCK
  5
2F5
330
2F0
100
AcDbEntity
  8
0
100
AcDbBlockBegin
  2
DM-Handcart
 70
     0
 10
0.0
 20
0.0
 30
0.0
  3
DM-Handcart
  1

  0
LINE
  5
2F6
330
2F0
100
AcDbEntity
  8
0
370
     0
100
AcDbLine
 10
0.0
 20
0.0
 30
0.0
 11
0.0
 21
-10.0
 31
0.0
1001
AcDbBlockRepETag
1070
     1
1071
        0
1005
2F6
  0
LINE
  5
2F7
330
2F0
100
AcDbEntity
  8
0
370
     0
100
AcDbLine
 10
0.0
 20
0.0
 30
0.0
 11
-4.0
 21
-4.0
 31
0.0
1001
AcDbBlockRepETag
1070
     1
1071
        1
1005
2F7
  0
LINE
  5
2F8
330
2F0
100
AcDbEntity
  8
0
370
     0
100
AcDbLine
 10
4.0
 20
-4.0
 30
0.0
 11
0.0
 21
0.0
 31
0.0
1001
AcDbBlockRepETag
1070
     1
1071
        2
1005
2F8
  0
LINE
  5
2F9
330
2F0
100
AcDbEntity
  8
0
370
     0
100
AcDbLine
 10
-4.0
 20
-8.0
 30
0.0
 11
0.0
 21
-4.0
 31
0.0
1001
AcDbBlockRepETag
1070
     1
1071
        3
1005
2F9
  0
LINE
  5
2FA
330
2F0
100
AcDbEntity
  8
0
370
     0
100
AcDbLine
 10
0.0
 20
-4.0
 30
0.0
 11
4.0
 21
-8.0
 31
0.0
1001
AcDbBlockRepETag
1070
     1
1071
        4
1005
2FA
  0
ENDBLK
  5
2FB
330
2F0
100
AcDbEntity
  8
0
100
AcDbBlockEnd
  0
BLOCK
  5
1BA2
330
1B9D
100
AcDbEntity
  8
0
370
   158
100
AcDbBlockBegin
  2
DM-DblClmnTrans
 70
     0
 10
0.0
 20
0.0
 30
0.0
  3
DM-DblClmnTrans
  1

  0
CIRCLE
  5
1BA3
330
1B9D
100
AcDbEntity
  8
0
100
AcDbCircle
 10
0.0
 20
-12.0
 30
0.0
 40
12.0
1001
AcDbBlockRepETag
1070
     1
1071
        0
1005
1BA3
  0
CIRCLE
  5
1BA4
330
1B9D
100
AcDbEntity
  8
0
100
AcDbCircle
 10
0.0
 20
-28.0
 30
0.0
 40
12.0
1001
AcDbBlockRepETag
1070
     1
1071
        1
1005
1BA4
  0
LINE
  5
1BA5
330
1B9D
100
AcDbEntity
  8
0
100
AcDbLine
 10
0.0
 20
-6.0
 30
0.0
 11
-4.0
 21
-12.0
 31
0.0
1001
AcDbBlockRepETag
1070
     1
1071
        2
1005
1BA5
  0
LINE
  5
1BA6
330
1B9D
100
AcDbEntity
  8
0
100
AcDbLine
 10
-4.0
 20
-12.0
 30
0.0
 11
4.0
 21
-12.0
 31
0.0
1001
AcDbBlockRepETag
1070
     1
1071
        3
1005
1BA6
  0
LINE
  5
1BA7
330
1B9D
100
AcDbEntity
  8
0
100
AcDbLine
 10
4.0
 20
-12.0
 30
0.0
 11
0.0
 21
-6.0
 31
0.0
1001
AcDbBlockRepETag
1070
     1
1071
        4
1005
1BA7
  0
LINE
  5
1BA8
330
1B9D
100
AcDbEntity
  8
0
100
AcDbLine
 10
0.0
 20
-32.0
 30
0.0
 11
0.0
 21
-28.0
 31
0.0
1001
AcDbBlockRepETag
1070
     1
1071
        6
1005
1BA8
  0
LINE
  5
1BA9
330
1B9D
100
AcDbEntity
  8
0
 48
0.1
100
AcDbLine
 10
0.0
 20
-28.0
 30
0.0
 11
-4.0
 21
-25.0
 31
0.0
1001
AcDbBlockRepETag
1070
     1
1071
        9
1005
1BA9
  0
LINE
  5
1BAA
330
1B9D
100
AcDbEntity
  8
0
 48
0.1
100
AcDbLine
 10
0.0
 20
-28.0
 30
0.0
 11
4.0
 21
-25.0
 31
0.0
1001
AcDbBlockRepETag
1070
     1
1071
       10
1005
1BAA
  0
ENDBLK
  5
1BAB
330
1B9D
100
AcDbEntity
  8
0
370
   158
100
AcDbBlockEnd
  0
BLOCK
  5
3B28
330
3B26
100
AcDbEntity
  8
0
100
AcDbBlockBegin
  2
DM-Knife Switch
 70
     0
 10
0.0
 20
0.0
 30
0.0
  3
DM-Knife Switch
  1

  0
LINE
  5
3B29
330
3B26
100
AcDbEntity
  8
0
100
AcDbLine
 10
1781.69991981517
 20
316.1466945805651
 30
0.0
 11
1781.69991981517
 21
313.1466945805651
 31
0.0
  0
CIRCLE
  5
3B2A
330
3B26
100
AcDbEntity
  8
0
100
AcDbCircle
 10
1781.69991981517
 20
312.146694580565
 30
0.0
 40
1.0
  0
LINE
  5
3B2B
330
3B26
100
AcDbEntity
  8
0
100
AcDbLine
 10
1781.69991981517
 20
292.1466945805651
 30
0.0
 11
1781.69991981517
 21
295.146694580565
 31
0.0
  0
CIRCLE
  5
3B2C
330
3B26
100
AcDbEntity
  8
0
100
AcDbCircle
 10
1781.69991981517
 20
296.146694580565
 30
0.0
 40
1.0
  0
LINE
  5
3B2D
330
3B26
100
AcDbEntity
  8
0
100
AcDbLine
 10
1780.69991981517
 20
296.146694580565
 30
0.0
 11
1772.69991981517
 21
312.146694580565
 31
0.0
  0
ENDBLK
  5
3B2E
330
3B26
100
AcDbEntity
  8
0
100
AcDbBlockEnd
  0
BLOCK
  5
3B34
330
3B2F
100
AcDbEntity
  8
0
100
AcDbBlockBegin
  2
DM-HV FUSE
 70
     0
 10
0.0
 20
0.0
 30
0.0
  3
DM-HV FUSE
  1

  0
LINE
  5
3B35
330
3B2F
100
AcDbEntity
  8
0
100
AcDbLine
 10
0.0
 20
24.0
 30
0.0
 11
0.0
 21
20.0
 31
0.0
1001
AcDbBlockRepETag
1070
     1
1071
        0
1005
3B35
  0
LWPOLYLINE
  5
3B36
330
3B2F
100
AcDbEntity
  8
0
100
AcDbPolyline
 90
        4
 70
     1
 43
0.0
 10
-4.0
 20
20.0
 10
4.0
 20
20.0
 10
4.0
 20
4.0
 10
-4.0
 20
4.0
1001
AcDbBlockRepETag
1070
     1
1071
        1
1005
3B36
  0
LINE
  5
3B37
330
3B2F
100
AcDbEntity
  8
0
100
AcDbLine
 10
0.0
 20
0.0
 30
0.0
 11
0.0
 21
4.0
 31
0.0
1001
AcDbBlockRepETag
1070
     1
1071
        2
1005
3B37
  0
LINE
  5
3B38
330
3B2F
100
AcDbEntity
  8
0
100
AcDbLine
 10
0.0
 20
4.0
 30
0.0
 11
0.0
 21
20.0
 31
0.0
1001
AcDbBlockRepETag
1070
     1
1071
        3
1005
3B38
  0
ENDBLK
  5
3B39
330
3B2F
100
AcDbEntity
  8
0
100
AcDbBlockEnd
  0
BLOCK
  5
6AA3
330
6A44
100
AcDbEntity
  8
0
100
AcDbBlockBegin
  2
A$C3A216533
 70
     0
 10
0.0
 20
0.0
 30
0.0
  3
A$C3A216533
  1

  0
INSERT
  5
6A45
102
{ACAD_XDICTIONARY
360
6A46
102
}
330
6A44
100
AcDbEntity
  8
DM-ZCT
 48
0.1
370
     0
100
AcDbBlockReference
  2
*U26
 10
99.99999114690446
 20
348.9999978903315
 30
0.0
 50
180.0
  0
INSERT
  5
6A4C
102
{ACAD_XDICTIONARY
360
6A4D
102
}
330
6A44
100
AcDbEntity
  8
DM-Outgoing Line-180
370
     0
100
AcDbBlockReference
  2
*U15
 10
99.99999114690446
 20
333.9999978903315
 30
0.0
  0
LINE
  5
6A53
330
6A44
100
AcDbEntity
  8
DM-10kV-Wire
 48
0.1
100
AcDbLine
 10
99.99999114690446
 20
333.9999978903315
 30
0.0
 11
99.99999114690446
 21
203.9999978903316
 31
0.0
  0
LINE
  5
6A54
330
6A44
100
AcDbEntity
  8
DM-10kV-Wire
 48
0.1
100
AcDbLine
 10
99.99999114690446
 20
139.9999978903315
 30
0.0
 11
99.99999114690446
 21
69.99999789033154
 31
0.0
  0
LINE
  5
6A55
330
6A44
100
AcDbEntity
  8
DM-10kV-Wire
 48
0.1
100
AcDbLine
 10
99.99999114690446
 20
372.9999978903316
 30
0.0
 11
99.99999114690446
 21
442.9999978903315
 31
0.0
  0
LWPOLYLINE
  5
6A56
330
6A44
100
AcDbEntity
  8
DM-Wireframe
  6
ACAD_ISO03W100
370
     0
100
AcDbPolyline
 90
        4
 70
     1
 43
0.0
 10
29.99999114690445
 20
402.9999978903315
 10
169.9999911469044
 20
402.9999978903315
 10
169.9999911469044
 20
109.9999978903315
 10
29.99999114689535
 20
109.9999978903315
  0
MTEXT
  5
6A57
330
6A44
100
AcDbEntity
  8
DM-Text
370
     0
100
AcDbMText
 10
169.9999911469044
 20
407.4901175853129
 30
0.0
 40
10.0
 41
51.58707615633011
 46
0.0
 71
     9
 72
     5
  1
G3
 73
     1
 44
1.0
1001
ACAD
1000
ACAD_MTEXT_COLUMN_INFO_BEGIN
1070
    75
1070
     2
1070
    79
1070
     0
1070
    76
1070
     1
1070
    78
1070
     0
1070
    48
1040
51.58707615633011
1070
    49
1040
12.5
1070
    50
1070
     1
1040
0.0
1000
ACAD_MTEXT_COLUMN_INFO_END
  0
LINE
  5
6A58
330
6A44
100
AcDbEntity
  8
DM-10kV-Wire
100
AcDbLine
 10
-0.0000088530955509
 20
442.9999978903315
 30
0.0
 11
-0.0000088530955509
 21
-0.0000021096684577
 31
0.0
  0
INSERT
  5
6A59
102
{ACAD_XDICTIONARY
360
6A5A
102
}
330
6A44
100
AcDbEntity
  8
DM-Earthing Switch-90
370
     0
100
AcDbBlockReference
  2
*U16
 10
119.9999911469044
 20
318.9999978903315
 30
0.0
 50
90.0
  0
INSERT
  5
6A60
102
{ACAD_XDICTIONARY
360
6A61
102
}
330
6A44
100
AcDbEntity
  8
DM-Arrester-270
370
     0
100
AcDbBlockReference
  2
*U17
 10
79.99999114690445
 20
318.9999978903315
 30
0.0
 41
2.0
 42
2.0
 43
2.0
 50
270.0
  0
INSERT
  5
6A67
102
{ACAD_XDICTIONARY
360
6A68
102
}
330
6A44
100
AcDbEntity
  8
DM-GND-270
370
     0
100
AcDbBlockReference
  2
*U18
 10
47.99999114690445
 20
318.9999978903315
 30
0.0
 41
2.0
 42
2.0
 43
2.0
 50
270.0
  0
LINE
  5
6A6E
330
6A44
100
AcDbEntity
  8
DM-10kV-Wire
 48
0.1
100
AcDbLine
 10
99.99999114690446
 20
298.9999978903315
 30
0.0
 11
79.99999114690445
 21
298.9999978903315
 31
0.0
  0
LINE
  5
6A6F
330
6A44
100
AcDbEntity
  8
DM-10kV-Wire
 48
0.1
100
AcDbLine
 10
119.9999911469044
 20
318.9999978903315
 30
0.0
 11
79.99999114690445
 21
318.9999978903315
 31
0.0
  0
INSERT
  5
6A70
102
{ACAD_XDICTIONARY
360
6A71
102
}
330
6A44
100
AcDbEntity
  8
DM-DXN-T-270
370
     0
100
AcDbBlockReference
  2
*U19
 10
79.99999114690445
 20
298.9999978903315
 30
0.0
 41
2.0
 42
2.0
 43
2.0
 50
270.0
  0
INSERT
  5
6A77
102
{ACAD_XDICTIONARY
360
6A78
102
}
330
6A44
100
AcDbEntity
  8
DM-GND-270
370
     0
100
AcDbBlockReference
  2
*U20
 10
47.99999114690445
 20
298.9999978903315
 30
0.0
 41
2.0
 42
2.0
 43
2.0
 50
270.0
  0
INSERT
  5
6A7E
102
{ACAD_XDICTIONARY
360
6A7F
102
}
330
6A44
100
AcDbEntity
  8
DM-CT
370
     0
100
AcDbBlockReference
  2
*U21
 10
84.99999114690444
 20
288.9999978903315
 30
0.0
  0
INSERT
  5
6A85
102
{ACAD_XDICTIONARY
360
6A86
102
}
330
6A44
100
AcDbEntity
  8
DM-CT
370
     0
100
AcDbBlockReference
  2
*U22
 10
84.99999114690444
 20
259.9999978903316
 30
0.0
  0
INSERT
  5
6A8C
102
{ACAD_XDICTIONARY
360
6A8D
102
}
330
6A44
100
AcDbEntity
  8
DM-CT
370
     0
100
AcDbBlockReference
  2
*U23
 10
114.9999911469044
 20
288.9999978903315
 30
0.0
  0
INSERT
  5
6A93
102
{ACAD_XDICTIONARY
360
6A94
102
}
330
6A44
100
AcDbEntity
  8
DM-CT
370
     0
100
AcDbBlockReference
  2
*U24
 10
114.9999911469044
 20
259.9999978903316
 30
0.0
  0
INSERT
  5
6A9A
102
{ACAD_XDICTIONARY
360
6A9B
102
}
330
6A44
100
AcDbEntity
  8
DM-VCB
 48
0.1
370
     0
100
AcDbBlockReference
  2
*U25
 10
99.99999114690446
 20
203.9999978903316
 30
0.0
  0
LINE
  5
6AA1
330
6A44
100
AcDbEntity
  8
DM-10kV-Cable
100
AcDbLine
 10
169.9999911469044
 20
69.99999789033063
 30
0.0
 11
29.99999114690445
 21
69.99999789033336
 31
0.0
  0
ENDBLK
  5
6AA4
330
6A44
100
AcDbEntity
  8
0
100
AcDbBlockEnd
  0
BLOCK
  5
6AA6
330
6AA5
100
AcDbEntity
  8
0
100
AcDbBlockBegin
  2
*U15
 70
     1
 10
0.0
 20
0.0
 30
0.0
  3
*U15
  1

  0
LINE
  5
6AA8
330
6AA5
100
AcDbEntity
  8
0
100
AcDbLine
 10
0.0
 20
0.0
 30
0.0
 11
0.0
 21
15.0
 31
0.0
1001
AcDbBlockRepETag
1070
     1
1071
        0
1005
6AA8
  0
HATCH
  5
6AA9
330
6AA5
100
AcDbEntity
  8
0
100
AcDbHatch
 10
0.0
 20
0.0
 30
0.0
210
0.0
220
0.0
230
1.0
  2
SOLID
 70
     1
 71
     1
 91
        1
 92
        1
 93
        3
 72
     1
 10
0.0
 20
15.0
 11
-2.0
 21
10.99999910797555
 72
     1
 10
-2.0
 20
10.99999910797555
 11
2.0
 21
10.99999910797555
 72
     1
 10
2.0
 20
10.99999910797555
 11
0.0
 21
15.0
 97
        3
330
6AAA
330
6AAB
330
6AAC
 75
     0
 76
     1
 98
        1
 10
-854.0
 20
84.99999910797555
450
        0
451
        0
460
0.0
461
0.0
452
        1
462
1.0
453
        2
463
0.0
 63
     5
421
      255
463
1.0
 63
     7
421
 16777215
470
LINEAR
1001
ACAD
1010
0.0
1020
0.0
1030
0.0
1001
AcDbBlockRepETag
1070
     1
1071
        1
1005
6AA9
  0
LINE
  5
6AAA
102
{ACAD_REACTORS
330
6AA9
102
}
330
6AA5
100
AcDbEntity
  8
0
100
AcDbLine
 10
0.0
 20
15.0
 30
0.0
 11
-2.0
 21
10.99999910797555
 31
0.0
1001
AcDbBlockRepETag
1070
     1
1071
        2
1005
6AAA
  0
LINE
  5
6AAB
102
{ACAD_REACTORS
330
6AA9
102
}
330
6AA5
100
AcDbEntity
  8
0
100
AcDbLine
 10
-2.0
 20
10.99999910797555
 30
0.0
 11
2.0
 21
10.99999910797555
 31
0.0
1001
AcDbBlockRepETag
1070
     1
1071
        3
1005
6AAB
  0
LINE
  5
6AAC
102
{ACAD_REACTORS
330
6AA9
102
}
330
6AA5
100
AcDbEntity
  8
0
100
AcDbLine
 10
2.0
 20
10.99999910797555
 30
0.0
 11
0.0
 21
15.0
 31
0.0
1001
AcDbBlockRepETag
1070
     1
1071
        4
1005
6AAC
  0
ENDBLK
  5
6AA7
330
6AA5
100
AcDbEntity
  8
0
100
AcDbBlockEnd
  0
BLOCK
  5
6AB1
330
6AB0
100
AcDbEntity
  8
0
100
AcDbBlockBegin
  2
*U16
 70
     1
 10
0.0
 20
0.0
 30
0.0
  3
*U16
  1

  0
LINE
  5
6AB3
330
6AB0
100
AcDbEntity
  8
0
100
AcDbLine
 10
-4.0
 20
-6.0
 30
0.0
 11
4.0
 21
-6.0
 31
0.0
1001
AcDbBlockRepETag
1070
     1
1071
        1
1005
6AB3
  0
LINE
  5
6AB4
330
6AB0
100
AcDbEntity
  8
0
100
AcDbLine
 10
0.0
 20
0.0
 30
0.0
 11
0.0
 21
-6.0
 31
0.0
1001
AcDbBlockRepETag
1070
     1
1071
        2
1005
6AB4
  0
LINE
  5
6AB5
330
6AB0
100
AcDbEntity
  8
0
100
AcDbLine
 10
0.0000004987477951
 20
-20.0
 30
0.0
 11
-8.0
 21
-6.0
 31
0.0
1001
AcDbBlockRepETag
1070
     1
1071
        3
1005
6AB5
  0
LINE
  5
6AB6
330
6AB0
100
AcDbEntity
  8
0
 48
0.1
100
AcDbLine
 10
0.0000004987477951
 20
-20.0
 30
0.0
 11
0.0000004987477951
 21
-32.0
 31
0.0
1001
AcDbBlockRepETag
1070
     1
1071
        4
1005
6AB6
  0
LINE
  5
6AB7
330
6AB0
100
AcDbEntity
  8
0
100
AcDbLine
 10
0.0000004987477951
 20
-32.0
 30
0.0
 11
0.0000004987477951
 21
-40.0
 31
0.0
1001
AcDbBlockRepETag
1070
     1
1071
        0
1005
6AB7
  0
LINE
  5
6AB8
330
6AB0
100
AcDbEntity
  8
0
100
AcDbLine
 10
-3.999999501252204
 20
-40.0
 30
0.0
 11
4.000000498747795
 21
-40.0
 31
0.0
1001
AcDbBlockRepETag
1070
     1
1071
        5
1005
6AB8
  0
LINE
  5
6AB9
330
6AB0
100
AcDbEntity
  8
0
100
AcDbLine
 10
-1.999999501252204
 20
-42.0
 30
0.0
 11
2.000000498747795
 21
-42.0
 31
0.0
1001
AcDbBlockRepETag
1070
     1
1071
        6
1005
6AB9
  0
LINE
  5
6ABA
330
6AB0
100
AcDbEntity
  8
0
100
AcDbLine
 10
0.0000004987477951
 20
-44.0
 30
0.0
 11
0.0000004987477951
 21
-44.0
 31
0.0
1001
AcDbBlockRepETag
1070
     1
1071
        7
1005
6ABA
  0
LINE
  5
6ABB
330
6AB0
100
AcDbEntity
  8
0
100
AcDbLine
 10
1.000000498747795
 20
-44.0
 30
0.0
 11
-0.9999995012522049
 21
-44.0
 31
0.0
1001
AcDbBlockRepETag
1070
     1
1071
        8
1005
6ABB
  0
ENDBLK
  5
6AB2
330
6AB0
100
AcDbEntity
  8
0
100
AcDbBlockEnd
  0
BLOCK
  5
6AC0
330
6ABF
100
AcDbEntity
  8
0
100
AcDbBlockBegin
  2
*U17
 70
     1
 10
0.0
 20
0.0
 30
0.0
  3
*U17
  1

  0
LINE
  5
6AC2
330
6ABF
100
AcDbEntity
  8
0
100
AcDbLine
 10
0.0
 20
0.0
 30
0.0
 11
0.0
 21
-4.0
 31
0.0
1001
AcDbBlockRepETag
1070
     1
1071
        0
1005
6AC2
  0
LINE
  5
6AC3
330
6ABF
100
AcDbEntity
  8
0
100
AcDbLine
 10
-2.0
 20
-4.0
 30
0.0
 11
2.0
 21
-4.0
 31
0.0
1001
AcDbBlockRepETag
1070
     1
1071
        1
1005
6AC3
  0
LINE
  5
6AC4
330
6ABF
100
AcDbEntity
  8
0
100
AcDbLine
 10
2.0
 20
-4.0
 30
0.0
 11
2.0
 21
-12.0
 31
0.0
1001
AcDbBlockRepETag
1070
     1
1071
        2
1005
6AC4
  0
LINE
  5
6AC5
330
6ABF
100
AcDbEntity
  8
0
100
AcDbLine
 10
2.0
 20
-12.0
 30
0.0
 11
-2.0
 21
-12.0
 31
0.0
1001
AcDbBlockRepETag
1070
     1
1071
        3
1005
6AC5
  0
LINE
  5
6AC6
330
6ABF
100
AcDbEntity
  8
0
100
AcDbLine
 10
-2.0
 20
-12.0
 30
0.0
 11
-2.0
 21
-4.0
 31
0.0
1001
AcDbBlockRepETag
1070
     1
1071
        4
1005
6AC6
  0
LINE
  5
6AC7
330
6ABF
100
AcDbEntity
  8
0
100
AcDbLine
 10
0.0
 20
-16.0
 30
0.0
 11
0.0
 21
-12.0
 31
0.0
1001
AcDbBlockRepETag
1070
     1
1071
        5
1005
6AC7
  0
LINE
  5
6AC8
330
6ABF
100
AcDbEntity
  8
0
100
AcDbLine
 10
0.0
 20
-4.0
 30
0.0
 11
0.0
 21
-4.5
 31
0.0
1001
AcDbBlockRepETag
1070
     1
1071
        6
1005
6AC8
  0
HATCH
  5
6AC9
330
6ABF
100
AcDbEntity
  8
0
100
AcDbHatch
 10
0.0
 20
0.0
 30
0.0
210
0.0
220
0.0
230
1.0
  2
SOLID
 70
     1
 71
     1
 91
        1
 92
        1
 93
        4
 72
     1
 10
0.0
 20
-4.5
 11
1.5
 21
-4.5
 72
     1
 10
1.5
 20
-4.5
 11
0.0
 21
-8.0
 72
     1
 10
0.0
 20
-8.0
 11
-1.5
 21
-4.5
 72
     1
 10
-1.5
 20
-4.5
 11
0.0
 21
-4.5
 97
        4
330
6ACA
330
6ACC
330
6ACD
330
6ACB
 75
     0
 76
     1
 98
        1
 10
-3024.0
 20
314.0
450
        0
451
        0
460
0.0
461
0.0
452
        1
462
1.0
453
        2
463
0.0
 63
     5
421
      255
463
1.0
 63
     7
421
 16777215
470
LINEAR
1001
ACAD
1010
0.0
1020
0.0
1030
0.0
1001
AcDbBlockRepETag
1070
     1
1071
       11
1005
6AC9
  0
LINE
  5
6ACA
102
{ACAD_REACTORS
330
6AC9
102
}
330
6ABF
100
AcDbEntity
  8
0
100
AcDbLine
 10
0.0
 20
-4.5
 30
0.0
 11
1.5
 21
-4.5
 31
0.0
1001
AcDbBlockRepETag
1070
     1
1071
        7
1005
6ACA
  0
LINE
  5
6ACB
102
{ACAD_REACTORS
330
6AC9
102
}
330
6ABF
100
AcDbEntity
  8
0
100
AcDbLine
 10
0.0
 20
-4.5
 30
0.0
 11
-1.5
 21
-4.5
 31
0.0
1001
AcDbBlockRepETag
1070
     1
1071
        8
1005
6ACB
  0
LINE
  5
6ACC
102
{ACAD_REACTORS
330
6AC9
102
}
330
6ABF
100
AcDbEntity
  8
0
100
AcDbLine
 10
0.0
 20
-8.0
 30
0.0
 11
1.5
 21
-4.5
 31
0.0
1001
AcDbBlockRepETag
1070
     1
1071
        9
1005
6ACC
  0
LINE
  5
6ACD
102
{ACAD_REACTORS
330
6AC9
102
}
330
6ABF
100
AcDbEntity
  8
0
100
AcDbLine
 10
0.0
 20
-8.0
 30
0.0
 11
-1.5
 21
-4.5
 31
0.0
1001
AcDbBlockRepETag
1070
     1
1071
       10
1005
6ACD
  0
ENDBLK
  5
6AC1
330
6ABF
100
AcDbEntity
  8
0
100
AcDbBlockEnd
  0
BLOCK
  5
6AD3
330
6AD2
100
AcDbEntity
  8
0
100
AcDbBlockBegin
  2
*U18
 70
     1
 10
0.0
 20
0.0
 30
0.0
  3
*U18
  1

  0
LINE
  5
6AD5
330
6AD2
100
AcDbEntity
  8
0
100
AcDbLine
 10
0.0
 20
0.0
 30
0.0
 11
0.0
 21
-4.0
 31
0.0
1001
AcDbBlockRepETag
1070
     1
1071
        0
1005
6AD5
  0
LINE
  5
6AD6
330
6AD2
100
AcDbEntity
  8
0
100
AcDbLine
 10
-2.0
 20
-4.0
 30
0.0
 11
2.0
 21
-4.0
 31
0.0
1001
AcDbBlockRepETag
1070
     1
1071
        1
1005
6AD6
  0
LINE
  5
6AD7
330
6AD2
100
AcDbEntity
  8
0
100
AcDbLine
 10
-1.0
 20
-5.0
 30
0.0
 11
1.0
 21
-5.0
 31
0.0
1001
AcDbBlockRepETag
1070
     1
1071
        2
1005
6AD7
  0
LINE
  5
6AD8
330
6AD2
100
AcDbEntity
  8
0
100
AcDbLine
 10
0.0
 20
-6.0
 30
0.0
 11
0.0
 21
-6.0
 31
0.0
1001
AcDbBlockRepETag
1070
     1
1071
        3
1005
6AD8
  0
LINE
  5
6AD9
330
6AD2
100
AcDbEntity
  8
0
100
AcDbLine
 10
0.5
 20
-6.0
 30
0.0
 11
-0.5
 21
-6.0
 31
0.0
1001
AcDbBlockRepETag
1070
     1
1071
        4
1005
6AD9
  0
ENDBLK
  5
6AD4
330
6AD2
100
AcDbEntity
  8
0
100
AcDbBlockEnd
  0
BLOCK
  5
6ADE
330
6ADD
100
AcDbEntity
  8
0
100
AcDbBlockBegin
  2
*U19
 70
     1
 10
0.0
 20
0.0
 30
0.0
  3
*U19
  1

  0
LINE
  5
6AE0
330
6ADD
100
AcDbEntity
  8
0
100
AcDbLine
 10
0.0
 20
0.0
 30
0.0
 11
0.0
 21
-3.0
 31
0.0
1001
AcDbBlockRepETag
1070
     1
1071
        0
1005
6AE0
  0
LINE
  5
6AE1
330
6ADD
100
AcDbEntity
  8
0
100
AcDbLine
 10
2.0
 20
-3.0
 30
0.0
 11
-2.0
 21
-3.0
 31
0.0
1001
AcDbBlockRepETag
1070
     1
1071
        1
1005
6AE1
  0
LINE
  5
6AE2
330
6ADD
100
AcDbEntity
  8
0
100
AcDbLine
 10
-2.0
 20
-5.0
 30
0.0
 11
2.0
 21
-5.0
 31
0.0
1001
AcDbBlockRepETag
1070
     1
1071
        2
1005
6AE2
  0
LINE
  5
6AE3
330
6ADD
100
AcDbEntity
  8
0
100
AcDbLine
 10
0.0
 20
-8.0
 30
0.0
 11
0.0
 21
-5.0
 31
0.0
1001
AcDbBlockRepETag
1070
     1
1071
        3
1005
6AE3
  0
CIRCLE
  5
6AE4
330
6ADD
100
AcDbEntity
  8
0
100
AcDbCircle
 10
0.0
 20
-10.5
 30
0.0
 40
2.5
1001
AcDbBlockRepETag
1070
     1
1071
        4
1005
6AE4
  0
LINE
  5
6AE5
330
6ADD
100
AcDbEntity
  8
0
100
AcDbLine
 10
0.0
 20
-16.0
 30
0.0
 11
0.0
 21
-13.0
 31
0.0
1001
AcDbBlockRepETag
1070
     1
1071
        5
1005
6AE5
  0
LINE
  5
6AE6
330
6ADD
100
AcDbEntity
  8
0
100
AcDbLine
 10
0.0
 20
-10.5
 30
0.0
 11
0.0
 21
-10.5
 31
0.0
1001
AcDbBlockRepETag
1070
     1
1071
        6
1005
6AE6
  0
LINE
  5
6AE7
330
6ADD
100
AcDbEntity
  8
0
100
AcDbLine
 10
0.0
 20
-10.5
 30
0.0
 11
0.0
 21
-10.5
 31
0.0
1001
AcDbBlockRepETag
1070
     1
1071
        7
1005
6AE7
  0
LINE
  5
6AE8
330
6ADD
100
AcDbEntity
  8
0
100
AcDbLine
 10
0.0
 20
-10.5
 30
0.0
 11
0.0
 21
-10.5
 31
0.0
1001
AcDbBlockRepETag
1070
     1
1071
        8
1005
6AE8
  0
LINE
  5
6AE9
330
6ADD
100
AcDbEntity
  8
0
100
AcDbLine
 10
0.0
 20
-10.5
 30
0.0
 11
0.0
 21
-10.5
 31
0.0
1001
AcDbBlockRepETag
1070
     1
1071
        9
1005
6AE9
  0
LINE
  5
6AEA
330
6ADD
100
AcDbEntity
  8
0
100
AcDbLine
 10
0.0
 20
-10.5
 30
0.0
 11
0.0
 21
-10.5
 31
0.0
1001
AcDbBlockRepETag
1070
     1
1071
       10
1005
6AEA
  0
LINE
  5
6AEB
330
6ADD
100
AcDbEntity
  8
0
100
AcDbLine
 10
0.0
 20
-10.5
 30
0.0
 11
0.0
 21
-10.5
 31
0.0
1001
AcDbBlockRepETag
1070
     1
1071
       11
1005
6AEB
  0
LINE
  5
6AEC
330
6ADD
100
AcDbEntity
  8
0
100
AcDbLine
 10
0.0
 20
-10.5
 30
0.0
 11
-1.767766952966212
 21
-8.732233047033616
 31
0.0
1001
AcDbBlockRepETag
1070
     1
1071
       12
1005
6AEC
  0
LINE
  5
6AED
330
6ADD
100
AcDbEntity
  8
0
100
AcDbLine
 10
0.0
 20
-10.5
 30
0.0
 11
1.767766952966212
 21
-8.732233047033616
 31
0.0
1001
AcDbBlockRepETag
1070
     1
1071
       13
1005
6AED
  0
LINE
  5
6AEE
330
6ADD
100
AcDbEntity
  8
0
100
AcDbLine
 10
0.0
 20
-10.5
 30
0.0
 11
1.767766952966212
 21
-12.26776695296638
 31
0.0
1001
AcDbBlockRepETag
1070
     1
1071
       14
1005
6AEE
  0
LINE
  5
6AEF
330
6ADD
100
AcDbEntity
  8
0
100
AcDbLine
 10
0.0
 20
-10.5
 30
0.0
 11
-1.767766952966212
 21
-12.26776695296638
 31
0.0
1001
AcDbBlockRepETag
1070
     1
1071
       15
1005
6AEF
  0
ENDBLK
  5
6ADF
330
6ADD
100
AcDbEntity
  8
0
100
AcDbBlockEnd
  0
BLOCK
  5
6AF4
330
6AF3
100
AcDbEntity
  8
0
100
AcDbBlockBegin
  2
*U20
 70
     1
 10
0.0
 20
0.0
 30
0.0
  3
*U20
  1

  0
LINE
  5
6AF6
330
6AF3
100
AcDbEntity
  8
0
100
AcDbLine
 10
0.0
 20
0.0
 30
0.0
 11
0.0
 21
-4.0
 31
0.0
1001
AcDbBlockRepETag
1070
     1
1071
        0
1005
6AF6
  0
LINE
  5
6AF7
330
6AF3
100
AcDbEntity
  8
0
100
AcDbLine
 10
-2.0
 20
-4.0
 30
0.0
 11
2.0
 21
-4.0
 31
0.0
1001
AcDbBlockRepETag
1070
     1
1071
        1
1005
6AF7
  0
LINE
  5
6AF8
330
6AF3
100
AcDbEntity
  8
0
100
AcDbLine
 10
-1.0
 20
-5.0
 30
0.0
 11
1.0
 21
-5.0
 31
0.0
1001
AcDbBlockRepETag
1070
     1
1071
        2
1005
6AF8
  0
LINE
  5
6AF9
330
6AF3
100
AcDbEntity
  8
0
100
AcDbLine
 10
0.0
 20
-6.0
 30
0.0
 11
0.0
 21
-6.0
 31
0.0
1001
AcDbBlockRepETag
1070
     1
1071
        3
1005
6AF9
  0
LINE
  5
6AFA
330
6AF3
100
AcDbEntity
  8
0
100
AcDbLine
 10
0.5
 20
-6.0
 30
0.0
 11
-0.5
 21
-6.0
 31
0.0
1001
AcDbBlockRepETag
1070
     1
1071
        4
1005
6AFA
  0
ENDBLK
  5
6AF5
330
6AF3
100
AcDbEntity
  8
0
100
AcDbBlockEnd
  0
BLOCK
  5
6AFF
330
6AFE
100
AcDbEntity
  8
0
100
AcDbBlockBegin
  2
*U21
 70
     1
 10
0.0
 20
0.0
 30
0.0
  3
*U21
  1

  0
LINE
  5
6B01
330
6AFE
100
AcDbEntity
  8
0
100
AcDbLine
 10
0.0
 20
0.0
 30
0.0
 11
0.0
 21
-24.0
 31
0.0
1001
AcDbBlockRepETag
1070
     1
1071
        0
1005
6B01
  0
CIRCLE
  5
6B02
330
6AFE
100
AcDbEntity
  8
0
100
AcDbCircle
 10
0.0
 20
-12.0
 30
0.0
 40
4.0
1001
AcDbBlockRepETag
1070
     1
1071
        1
1005
6B02
  0
LINE
  5
6B03
330
6AFE
100
AcDbEntity
  8
0
100
AcDbLine
 10
4.0
 20
-12.0
 30
0.0
 11
9.999992328408325
 21
-11.99040525967284
 31
0.0
1001
AcDbBlockRepETag
1070
     1
1071
        2
1005
6B03
  0
LINE
  5
6B04
330
6AFE
100
AcDbEntity
  8
0
100
AcDbLine
 10
7.0
 20
-10.0
 30
0.0
 11
5.0
 21
-14.0
 31
0.0
1001
AcDbBlockRepETag
1070
     1
1071
        3
1005
6B04
  0
LINE
  5
6B05
330
6AFE
100
AcDbEntity
  8
0
100
AcDbLine
 10
9.0
 20
-10.0
 30
0.0
 11
7.0
 21
-14.0
 31
0.0
1001
AcDbBlockRepETag
1070
     1
1071
        4
1005
6B05
  0
ENDBLK
  5
6B00
330
6AFE
100
AcDbEntity
  8
0
100
AcDbBlockEnd
  0
BLOCK
  5
6B0A
330
6B09
100
AcDbEntity
  8
0
100
AcDbBlockBegin
  2
*U22
 70
     1
 10
0.0
 20
0.0
 30
0.0
  3
*U22
  1

  0
LINE
  5
6B0C
330
6B09
100
AcDbEntity
  8
0
100
AcDbLine
 10
0.0
 20
0.0
 30
0.0
 11
0.0
 21
-24.0
 31
0.0
1001
AcDbBlockRepETag
1070
     1
1071
        0
1005
6B0C
  0
CIRCLE
  5
6B0D
330
6B09
100
AcDbEntity
  8
0
100
AcDbCircle
 10
0.0
 20
-12.0
 30
0.0
 40
4.0
1001
AcDbBlockRepETag
1070
     1
1071
        1
1005
6B0D
  0
LINE
  5
6B0E
330
6B09
100
AcDbEntity
  8
0
100
AcDbLine
 10
4.0
 20
-12.0
 30
0.0
 11
9.999992328408325
 21
-11.99040525967284
 31
0.0
1001
AcDbBlockRepETag
1070
     1
1071
        2
1005
6B0E
  0
LINE
  5
6B0F
330
6B09
100
AcDbEntity
  8
0
100
AcDbLine
 10
7.0
 20
-10.0
 30
0.0
 11
5.0
 21
-14.0
 31
0.0
1001
AcDbBlockRepETag
1070
     1
1071
        3
1005
6B0F
  0
LINE
  5
6B10
330
6B09
100
AcDbEntity
  8
0
100
AcDbLine
 10
9.0
 20
-10.0
 30
0.0
 11
7.0
 21
-14.0
 31
0.0
1001
AcDbBlockRepETag
1070
     1
1071
        4
1005
6B10
  0
ENDBLK
  5
6B0B
330
6B09
100
AcDbEntity
  8
0
100
AcDbBlockEnd
  0
BLOCK
  5
6B15
330
6B14
100
AcDbEntity
  8
0
100
AcDbBlockBegin
  2
*U23
 70
     1
 10
0.0
 20
0.0
 30
0.0
  3
*U23
  1

  0
LINE
  5
6B17
330
6B14
100
AcDbEntity
  8
0
100
AcDbLine
 10
0.0
 20
0.0
 30
0.0
 11
0.0
 21
-24.0
 31
0.0
1001
AcDbBlockRepETag
1070
     1
1071
        0
1005
6B17
  0
CIRCLE
  5
6B18
330
6B14
100
AcDbEntity
  8
0
100
AcDbCircle
 10
0.0
 20
-12.0
 30
0.0
 40
4.0
1001
AcDbBlockRepETag
1070
     1
1071
        1
1005
6B18
  0
LINE
  5
6B19
330
6B14
100
AcDbEntity
  8
0
100
AcDbLine
 10
4.0
 20
-12.0
 30
0.0
 11
9.999992328408325
 21
-11.99040525967284
 31
0.0
1001
AcDbBlockRepETag
1070
     1
1071
        2
1005
6B19
  0
LINE
  5
6B1A
330
6B14
100
AcDbEntity
  8
0
100
AcDbLine
 10
7.0
 20
-10.0
 30
0.0
 11
5.0
 21
-14.0
 31
0.0
1001
AcDbBlockRepETag
1070
     1
1071
        3
1005
6B1A
  0
LINE
  5
6B1B
330
6B14
100
AcDbEntity
  8
0
100
AcDbLine
 10
9.0
 20
-10.0
 30
0.0
 11
7.0
 21
-14.0
 31
0.0
1001
AcDbBlockRepETag
1070
     1
1071
        4
1005
6B1B
  0
ENDBLK
  5
6B16
330
6B14
100
AcDbEntity
  8
0
100
AcDbBlockEnd
  0
BLOCK
  5
6B20
330
6B1F
100
AcDbEntity
  8
0
100
AcDbBlockBegin
  2
*U24
 70
     1
 10
0.0
 20
0.0
 30
0.0
  3
*U24
  1

  0
LINE
  5
6B22
330
6B1F
100
AcDbEntity
  8
0
100
AcDbLine
 10
0.0
 20
0.0
 30
0.0
 11
0.0
 21
-24.0
 31
0.0
1001
AcDbBlockRepETag
1070
     1
1071
        0
1005
6B22
  0
CIRCLE
  5
6B23
330
6B1F
100
AcDbEntity
  8
0
100
AcDbCircle
 10
0.0
 20
-12.0
 30
0.0
 40
4.0
1001
AcDbBlockRepETag
1070
     1
1071
        1
1005
6B23
  0
LINE
  5
6B24
330
6B1F
100
AcDbEntity
  8
0
100
AcDbLine
 10
4.0
 20
-12.0
 30
0.0
 11
9.999992328408325
 21
-11.99040525967284
 31
0.0
1001
AcDbBlockRepETag
1070
     1
1071
        2
1005
6B24
  0
LINE
  5
6B25
330
6B1F
100
AcDbEntity
  8
0
100
AcDbLine
 10
7.0
 20
-10.0
 30
0.0
 11
5.0
 21
-14.0
 31
0.0
1001
AcDbBlockRepETag
1070
     1
1071
        3
1005
6B25
  0
LINE
  5
6B26
330
6B1F
100
AcDbEntity
  8
0
100
AcDbLine
 10
9.0
 20
-10.0
 30
0.0
 11
7.0
 21
-14.0
 31
0.0
1001
AcDbBlockRepETag
1070
     1
1071
        4
1005
6B26
  0
ENDBLK
  5
6B21
330
6B1F
100
AcDbEntity
  8
0
100
AcDbBlockEnd
  0
BLOCK
  5
6B2B
330
6B2A
100
AcDbEntity
  8
0
100
AcDbBlockBegin
  2
*U25
 70
     1
 10
0.0
 20
0.0
 30
0.0
  3
*U25
  1

  0
LINE
  5
6B2D
330
6B2A
100
AcDbEntity
  8
0
100
AcDbLine
 10
0.0
 20
0.0
 30
0.0
 11
0.0
 21
-24.0
 31
0.0
1001
AcDbBlockRepETag
1070
     1
1071
        0
1005
6B2D
  0
HATCH
  5
6B2E
330
6B2A
100
AcDbEntity
  8
0
100
AcDbHatch
 10
0.0
 20
0.0
 30
0.0
210
0.0
220
0.0
230
1.0
  2
SOLID
 70
     1
 71
     1
 91
        1
 92
        1
 93
        5
 72
     1
 10
-4.0
 20
-24.0
 11
-4.0
 21
-40.0
 72
     1
 10
-4.0
 20
-40.0
 11
4.0
 21
-40.0
 72
     1
 10
4.0
 20
-40.0
 11
4.0
 21
-32.0
 72
     1
 10
4.0
 20
-32.0
 11
4.0
 21
-24.0
 72
     1
 10
4.0
 20
-24.0
 11
-4.0
 21
-24.0
 97
        5
330
6B32
330
6B33
330
6B31
330
6B30
330
6B2F
 75
     0
 76
     1
 98
        1
 10
-730.0000011883575
 20
-101.9999995897865
450
        0
451
        0
460
0.0
461
0.0
452
        1
462
1.0
453
        2
463
0.0
 63
     5
421
      255
463
1.0
 63
     7
421
 16777215
470
LINEAR
1001
ACAD
1010
0.0
1020
0.0
1030
0.0
1001
AcDbBlockRepETag
1070
     1
1071
        1
1005
6B2E
  0
LINE
  5
6B2F
102
{ACAD_REACTORS
330
6B2E
102
}
330
6B2A
100
AcDbEntity
  8
0
100
AcDbLine
 10
-4.0
 20
-24.0
 30
0.0
 11
4.0
 21
-24.0
 31
0.0
1001
AcDbBlockRepETag
1070
     1
1071
        2
1005
6B2F
  0
LINE
  5
6B30
102
{ACAD_REACTORS
330
6B2E
102
}
330
6B2A
100
AcDbEntity
  8
0
100
AcDbLine
 10
4.0
 20
-24.0
 30
0.0
 11
4.0
 21
-32.0
 31
0.0
1001
AcDbBlockRepETag
1070
     1
1071
        3
1005
6B30
  0
LINE
  5
6B31
102
{ACAD_REACTORS
330
6B2E
102
}
330
6B2A
100
AcDbEntity
  8
0
100
AcDbLine
 10
4.0
 20
-32.0
 30
0.0
 11
4.0
 21
-40.0
 31
0.0
1001
AcDbBlockRepETag
1070
     1
1071
        4
1005
6B31
  0
LINE
  5
6B32
102
{ACAD_REACTORS
330
6B2E
102
}
330
6B2A
100
AcDbEntity
  8
0
100
AcDbLine
 10
-4.0
 20
-24.0
 30
0.0
 11
-4.0
 21
-40.0
 31
0.0
1001
AcDbBlockRepETag
1070
     1
1071
        5
1005
6B32
  0
LINE
  5
6B33
102
{ACAD_REACTORS
330
6B2E
102
}
330
6B2A
100
AcDbEntity
  8
0
100
AcDbLine
 10
-4.0
 20
-40.0
 30
0.0
 11
4.0
 21
-40.0
 31
0.0
1001
AcDbBlockRepETag
1070
     1
1071
        6
1005
6B33
  0
LINE
  5
6B34
330
6B2A
100
AcDbEntity
  8
0
100
AcDbLine
 10
0.0
 20
-64.0
 30
0.0
 11
0.0
 21
-40.0
 31
0.0
1001
AcDbBlockRepETag
1070
     1
1071
        7
1005
6B34
  0
LINE
  5
6B35
330
6B2A
100
AcDbEntity
  8
0
100
AcDbLine
 10
0.0
 20
0.0
 30
0.0
 11
-4.0
 21
-4.0
 31
0.0
1001
AcDbBlockRepETag
1070
     1
1071
        8
1005
6B35
  0
LINE
  5
6B36
330
6B2A
100
AcDbEntity
  8
0
100
AcDbLine
 10
0.0
 20
0.0
 30
0.0
 11
4.0
 21
-4.0
 31
0.0
1001
AcDbBlockRepETag
1070
     1
1071
        9
1005
6B36
  0
LINE
  5
6B37
330
6B2A
100
AcDbEntity
  8
0
100
AcDbLine
 10
0.0
 20
-4.0
 30
0.0
 11
-4.0
 21
-8.0
 31
0.0
1001
AcDbBlockRepETag
1070
     1
1071
       10
1005
6B37
  0
LINE
  5
6B38
330
6B2A
100
AcDbEntity
  8
0
100
AcDbLine
 10
0.0
 20
-4.0
 30
0.0
 11
4.0
 21
-8.0
 31
0.0
1001
AcDbBlockRepETag
1070
     1
1071
       11
1005
6B38
  0
LINE
  5
6B39
330
6B2A
100
AcDbEntity
  8
0
100
AcDbLine
 10
0.0
 20
-64.0
 30
0.0
 11
4.0
 21
-60.0
 31
0.0
1001
AcDbBlockRepETag
1070
     1
1071
       12
1005
6B39
  0
LINE
  5
6B3A
330
6B2A
100
AcDbEntity
  8
0
100
AcDbLine
 10
0.0
 20
-64.0
 30
0.0
 11
-4.0
 21
-60.0
 31
0.0
1001
AcDbBlockRepETag
1070
     1
1071
       13
1005
6B3A
  0
LINE
  5
6B3B
330
6B2A
100
AcDbEntity
  8
0
100
AcDbLine
 10
0.0
 20
-60.0
 30
0.0
 11
4.0
 21
-56.0
 31
0.0
1001
AcDbBlockRepETag
1070
     1
1071
       14
1005
6B3B
  0
LINE
  5
6B3C
330
6B2A
100
AcDbEntity
  8
0
100
AcDbLine
 10
0.0
 20
-60.0
 30
0.0
 11
-4.0
 21
-56.0
 31
0.0
1001
AcDbBlockRepETag
1070
     1
1071
       15
1005
6B3C
  0
ENDBLK
  5
6B2C
330
6B2A
100
AcDbEntity
  8
0
100
AcDbBlockEnd
  0
BLOCK
  5
6B41
330
6B40
100
AcDbEntity
  8
0
100
AcDbBlockBegin
  2
*U26
 70
     1
 10
0.0
 20
0.0
 30
0.0
  3
*U26
  1

  0
LINE
  5
6B43
330
6B40
100
AcDbEntity
  8
0
  6
DASHED2
100
AcDbLine
 10
0.0
 20
0.0
 30
0.0
 11
0.0
 21
-24.0
 31
0.0
1001
AcDbBlockRepETag
1070
     1
1071
        0
1005
6B43
  0
CIRCLE
  5
6B44
330
6B40
100
AcDbEntity
  8
0
100
AcDbCircle
 10
0.0
 20
-12.0
 30
0.0
 40
5.0
1001
AcDbBlockRepETag
1070
     1
1071
        1
1005
6B44
  0
LINE
  5
6B45
330
6B40
100
AcDbEntity
  8
0
100
AcDbLine
 10
7.999999147599737
 20
-10.0
 30
0.0
 11
5.999999147599737
 21
-14.0
 31
0.0
1001
AcDbBlockRepETag
1070
     1
1071
        3
1005
6B45
  0
LINE
  5
6B46
330
6B40
100
AcDbEntity
  8
0
100
AcDbLine
 10
9.999999147599737
 20
-10.0
 30
0.0
 11
7.999999147599737
 21
-14.0
 31
0.0
1001
AcDbBlockRepETag
1070
     1
1071
        4
1005
6B46
  0
LINE
  5
6B47
330
6B40
100
AcDbEntity
  8
0
  6
DASHED2
100
AcDbLine
 10
-3.0
 20
-4.0
 30
0.0
 11
-3.0
 21
-20.0
 31
0.0
1001
AcDbBlockRepETag
1070
     1
1071
        2
1005
6B47
  0
LINE
  5
6B48
330
6B40
100
AcDbEntity
  8
0
  6
DASHED2
100
AcDbLine
 10
3.0
 20
-4.0
 30
0.0
 11
3.0
 21
-20.0
 31
0.0
1001
AcDbBlockRepETag
1070
     1
1071
        5
1005
6B48
  0
LINE
  5
6B49
330
6B40
100
AcDbEntity
  8
0
100
AcDbLine
 10
5.0
 20
-11.99999999863691
 30
0.0
 11
11.0
 21
-11.99999999863691
 31
0.0
1001
AcDbBlockRepETag
1070
     1
1071
        6
1005
6B49
  0
ENDBLK
  5
6B42
330
6B40
100
AcDbEntity
  8
0
100
AcDbBlockEnd
  0
BLOCK
  5
73E6
330
73E5
100
AcDbEntity
  8
0
100
AcDbBlockBegin
  2
*U27
 70
     1
 10
0.0
 20
0.0
 30
0.0
  3
*U27
  1

  0
CIRCLE
  5
73E8
330
73E5
100
AcDbEntity
  8
0
100
AcDbCircle
 10
0.0
 20
-12.0
 30
0.0
 40
12.0
1001
AcDbBlockRepETag
1070
     1
1071
        0
1005
73E8
  0
CIRCLE
  5
73E9
330
73E5
100
AcDbEntity
  8
0
100
AcDbCircle
 10
0.0
 20
-28.0
 30
0.0
 40
12.0
1001
AcDbBlockRepETag
1070
     1
1071
        1
1005
73E9
  0
LINE
  5
73EA
330
73E5
100
AcDbEntity
  8
0
100
AcDbLine
 10
0.0
 20
-6.0
 30
0.0
 11
-4.0
 21
-12.0
 31
0.0
1001
AcDbBlockRepETag
1070
     1
1071
        2
1005
73EA
  0
LINE
  5
73EB
330
73E5
100
AcDbEntity
  8
0
100
AcDbLine
 10
-4.0
 20
-12.0
 30
0.0
 11
4.0
 21
-12.0
 31
0.0
1001
AcDbBlockRepETag
1070
     1
1071
        3
1005
73EB
  0
LINE
  5
73EC
330
73E5
100
AcDbEntity
  8
0
100
AcDbLine
 10
4.0
 20
-12.0
 30
0.0
 11
0.0
 21
-6.0
 31
0.0
1001
AcDbBlockRepETag
1070
     1
1071
        4
1005
73EC
  0
LINE
  5
73ED
330
73E5
100
AcDbEntity
  8
0
100
AcDbLine
 10
0.0
 20
-32.0
 30
0.0
 11
0.0
 21
-28.0
 31
0.0
1001
AcDbBlockRepETag
1070
     1
1071
        6
1005
73ED
  0
LINE
  5
73EE
330
73E5
100
AcDbEntity
  8
0
 48
0.1
100
AcDbLine
 10
0.0
 20
-28.0
 30
0.0
 11
-4.0
 21
-25.0
 31
0.0
1001
AcDbBlockRepETag
1070
     1
1071
        9
1005
73EE
  0
LINE
  5
73EF
330
73E5
100
AcDbEntity
  8
0
 48
0.1
100
AcDbLine
 10
0.0
 20
-28.0
 30
0.0
 11
4.0
 21
-25.0
 31
0.0
1001
AcDbBlockRepETag
1070
     1
1071
       10
1005
73EF
  0
ENDBLK
  5
73E7
330
73E5
100
AcDbEntity
  8
0
100
AcDbBlockEnd
  0
BLOCK
  5
73F4
330
73F3
100
AcDbEntity
  8
0
100
AcDbBlockBegin
  2
*U28
 70
     1
 10
0.0
 20
0.0
 30
0.0
  3
*U28
  1

  0
LINE
  5
73F6
330
73F3
100
AcDbEntity
  8
0
100
AcDbLine
 10
0.0
 20
0.0
 30
0.0
 11
0.0
 21
15.0
 31
0.0
1001
AcDbBlockRepETag
1070
     1
1071
        0
1005
73F6
  0
HATCH
  5
73F7
330
73F3
100
AcDbEntity
  8
0
100
AcDbHatch
 10
0.0
 20
0.0
 30
0.0
210
0.0
220
0.0
230
1.0
  2
SOLID
 70
     1
 71
     1
 91
        1
 92
        1
 93
        3
 72
     1
 10
0.0
 20
15.0
 11
-2.0
 21
10.99999910797555
 72
     1
 10
-2.0
 20
10.99999910797555
 11
2.0
 21
10.99999910797555
 72
     1
 10
2.0
 20
10.99999910797555
 11
0.0
 21
15.0
 97
        3
330
73F8
330
73F9
330
73FA
 75
     0
 76
     1
 98
        1
 10
-854.0
 20
84.99999910797555
450
        0
451
        0
460
0.0
461
0.0
452
        1
462
1.0
453
        2
463
0.0
 63
     5
421
      255
463
1.0
 63
     7
421
 16777215
470
LINEAR
1001
ACAD
1010
0.0
1020
0.0
1030
0.0
1001
AcDbBlockRepETag
1070
     1
1071
        1
1005
73F7
  0
LINE
  5
73F8
102
{ACAD_REACTORS
330
73F7
102
}
330
73F3
100
AcDbEntity
  8
0
100
AcDbLine
 10
0.0
 20
15.0
 30
0.0
 11
-2.0
 21
10.99999910797555
 31
0.0
1001
AcDbBlockRepETag
1070
     1
1071
        2
1005
73F8
  0
LINE
  5
73F9
102
{ACAD_REACTORS
330
73F7
102
}
330
73F3
100
AcDbEntity
  8
0
100
AcDbLine
 10
-2.0
 20
10.99999910797555
 30
0.0
 11
2.0
 21
10.99999910797555
 31
0.0
1001
AcDbBlockRepETag
1070
     1
1071
        3
1005
73F9
  0
LINE
  5
73FA
102
{ACAD_REACTORS
330
73F7
102
}
330
73F3
100
AcDbEntity
  8
0
100
AcDbLine
 10
2.0
 20
10.99999910797555
 30
0.0
 11
0.0
 21
15.0
 31
0.0
1001
AcDbBlockRepETag
1070
     1
1071
        4
1005
73FA
  0
ENDBLK
  5
73F5
330
73F3
100
AcDbEntity
  8
0
100
AcDbBlockEnd
  0
BLOCK
  5
73FF
330
73FE
100
AcDbEntity
  8
0
100
AcDbBlockBegin
  2
*U29
 70
     1
 10
0.0
 20
0.0
 30
0.0
  3
*U29
  1

  0
LINE
  5
7401
330
73FE
100
AcDbEntity
  8
0
100
AcDbLine
 10
0.0
 20
0.0
 30
0.0
 11
0.0
 21
15.0
 31
0.0
1001
AcDbBlockRepETag
1070
     1
1071
        0
1005
7401
  0
HATCH
  5
7402
330
73FE
100
AcDbEntity
  8
0
100
AcDbHatch
 10
0.0
 20
0.0
 30
0.0
210
0.0
220
0.0
230
1.0
  2
SOLID
 70
     1
 71
     1
 91
        1
 92
        1
 93
        3
 72
     1
 10
0.0
 20
15.0
 11
-2.0
 21
10.99999910797555
 72
     1
 10
-2.0
 20
10.99999910797555
 11
2.0
 21
10.99999910797555
 72
     1
 10
2.0
 20
10.99999910797555
 11
0.0
 21
15.0
 97
        3
330
7403
330
7404
330
7405
 75
     0
 76
     1
 98
        1
 10
-854.0
 20
84.99999910797555
450
        0
451
        0
460
0.0
461
0.0
452
        1
462
1.0
453
        2
463
0.0
 63
     5
421
      255
463
1.0
 63
     7
421
 16777215
470
LINEAR
1001
ACAD
1010
0.0
1020
0.0
1030
0.0
1001
AcDbBlockRepETag
1070
     1
1071
        1
1005
7402
  0
LINE
  5
7403
102
{ACAD_REACTORS
330
7402
102
}
330
73FE
100
AcDbEntity
  8
0
100
AcDbLine
 10
0.0
 20
15.0
 30
0.0
 11
-2.0
 21
10.99999910797555
 31
0.0
1001
AcDbBlockRepETag
1070
     1
1071
        2
1005
7403
  0
LINE
  5
7404
102
{ACAD_REACTORS
330
7402
102
}
330
73FE
100
AcDbEntity
  8
0
100
AcDbLine
 10
-2.0
 20
10.99999910797555
 30
0.0
 11
2.0
 21
10.99999910797555
 31
0.0
1001
AcDbBlockRepETag
1070
     1
1071
        3
1005
7404
  0
LINE
  5
7405
102
{ACAD_REACTORS
330
7402
102
}
330
73FE
100
AcDbEntity
  8
0
100
AcDbLine
 10
2.0
 20
10.99999910797555
 30
0.0
 11
0.0
 21
15.0
 31
0.0
1001
AcDbBlockRepETag
1070
     1
1071
        4
1005
7405
  0
ENDBLK
  5
7400
330
73FE
100
AcDbEntity
  8
0
100
AcDbBlockEnd
  0
BLOCK
  5
74C1
330
74C0
100
AcDbEntity
  8
0
100
AcDbBlockBegin
  2
*U30
 70
     1
 10
0.0
 20
0.0
 30
0.0
  3
*U30
  1

  0
LINE
  5
74C3
330
74C0
100
AcDbEntity
  8
0
100
AcDbLine
 10
0.0
 20
0.0
 30
0.0
 11
0.0
 21
-24.0
 31
0.0
1001
AcDbBlockRepETag
1070
     1
1071
        0
1005
74C3
  0
HATCH
  5
74C4
330
74C0
100
AcDbEntity
  8
0
100
AcDbHatch
 10
0.0
 20
0.0
 30
0.0
210
0.0
220
0.0
230
1.0
  2
SOLID
 70
     1
 71
     1
 91
        1
 92
        1
 93
        5
 72
     1
 10
-4.0
 20
-24.0
 11
-4.0
 21
-40.0
 72
     1
 10
-4.0
 20
-40.0
 11
4.0
 21
-40.0
 72
     1
 10
4.0
 20
-40.0
 11
4.0
 21
-32.0
 72
     1
 10
4.0
 20
-32.0
 11
4.0
 21
-24.0
 72
     1
 10
4.0
 20
-24.0
 11
-4.0
 21
-24.0
 97
        5
330
74C8
330
74C9
330
74C7
330
74C6
330
74C5
 75
     0
 76
     1
 98
        1
 10
-730.0000011883575
 20
-101.9999995897865
450
        0
451
        0
460
0.0
461
0.0
452
        1
462
1.0
453
        2
463
0.0
 63
     5
421
      255
463
1.0
 63
     7
421
 16777215
470
LINEAR
1001
ACAD
1010
0.0
1020
0.0
1030
0.0
1001
AcDbBlockRepETag
1070
     1
1071
        1
1005
74C4
  0
LINE
  5
74C5
102
{ACAD_REACTORS
330
74C4
102
}
330
74C0
100
AcDbEntity
  8
0
100
AcDbLine
 10
-4.0
 20
-24.0
 30
0.0
 11
4.0
 21
-24.0
 31
0.0
1001
AcDbBlockRepETag
1070
     1
1071
        2
1005
74C5
  0
LINE
  5
74C6
102
{ACAD_REACTORS
330
74C4
102
}
330
74C0
100
AcDbEntity
  8
0
100
AcDbLine
 10
4.0
 20
-24.0
 30
0.0
 11
4.0
 21
-32.0
 31
0.0
1001
AcDbBlockRepETag
1070
     1
1071
        3
1005
74C6
  0
LINE
  5
74C7
102
{ACAD_REACTORS
330
74C4
102
}
330
74C0
100
AcDbEntity
  8
0
100
AcDbLine
 10
4.0
 20
-32.0
 30
0.0
 11
4.0
 21
-40.0
 31
0.0
1001
AcDbBlockRepETag
1070
     1
1071
        4
1005
74C7
  0
LINE
  5
74C8
102
{ACAD_REACTORS
330
74C4
102
}
330
74C0
100
AcDbEntity
  8
0
100
AcDbLine
 10
-4.0
 20
-24.0
 30
0.0
 11
-4.0
 21
-40.0
 31
0.0
1001
AcDbBlockRepETag
1070
     1
1071
        5
1005
74C8
  0
LINE
  5
74C9
102
{ACAD_REACTORS
330
74C4
102
}
330
74C0
100
AcDbEntity
  8
0
100
AcDbLine
 10
-4.0
 20
-40.0
 30
0.0
 11
4.0
 21
-40.0
 31
0.0
1001
AcDbBlockRepETag
1070
     1
1071
        6
1005
74C9
  0
LINE
  5
74CA
330
74C0
100
AcDbEntity
  8
0
100
AcDbLine
 10
0.0
 20
-64.0
 30
0.0
 11
0.0
 21
-40.0
 31
0.0
1001
AcDbBlockRepETag
1070
     1
1071
        7
1005
74CA
  0
LINE
  5
74CB
330
74C0
100
AcDbEntity
  8
0
100
AcDbLine
 10
0.0
 20
0.0
 30
0.0
 11
-4.0
 21
-4.0
 31
0.0
1001
AcDbBlockRepETag
1070
     1
1071
        8
1005
74CB
  0
LINE
  5
74CC
330
74C0
100
AcDbEntity
  8
0
100
AcDbLine
 10
0.0
 20
0.0
 30
0.0
 11
4.0
 21
-4.0
 31
0.0
1001
AcDbBlockRepETag
1070
     1
1071
        9
1005
74CC
  0
LINE
  5
74CD
330
74C0
100
AcDbEntity
  8
0
100
AcDbLine
 10
0.0
 20
-4.0
 30
0.0
 11
-4.0
 21
-8.0
 31
0.0
1001
AcDbBlockRepETag
1070
     1
1071
       10
1005
74CD
  0
LINE
  5
74CE
330
74C0
100
AcDbEntity
  8
0
100
AcDbLine
 10
0.0
 20
-4.0
 30
0.0
 11
4.0
 21
-8.0
 31
0.0
1001
AcDbBlockRepETag
1070
     1
1071
       11
1005
74CE
  0
LINE
  5
74CF
330
74C0
100
AcDbEntity
  8
0
100
AcDbLine
 10
0.0
 20
-64.0
 30
0.0
 11
4.0
 21
-60.0
 31
0.0
1001
AcDbBlockRepETag
1070
     1
1071
       12
1005
74CF
  0
LINE
  5
74D0
330
74C0
100
AcDbEntity
  8
0
100
AcDbLine
 10
0.0
 20
-64.0
 30
0.0
 11
-4.0
 21
-60.0
 31
0.0
1001
AcDbBlockRepETag
1070
     1
1071
       13
1005
74D0
  0
LINE
  5
74D1
330
74C0
100
AcDbEntity
  8
0
100
AcDbLine
 10
0.0
 20
-60.0
 30
0.0
 11
4.0
 21
-56.0
 31
0.0
1001
AcDbBlockRepETag
1070
     1
1071
       14
1005
74D1
  0
LINE
  5
74D2
330
74C0
100
AcDbEntity
  8
0
100
AcDbLine
 10
0.0
 20
-60.0
 30
0.0
 11
-4.0
 21
-56.0
 31
0.0
1001
AcDbBlockRepETag
1070
     1
1071
       15
1005
74D2
  0
ENDBLK
  5
74C2
330
74C0
100
AcDbEntity
  8
0
100
AcDbBlockEnd
  0
BLOCK
  5
74D7
330
74D6
100
AcDbEntity
  8
0
100
AcDbBlockBegin
  2
*U31
 70
     1
 10
0.0
 20
0.0
 30
0.0
  3
*U31
  1

  0
LINE
  5
74D9
330
74D6
100
AcDbEntity
  8
0
100
AcDbLine
 10
0.0
 20
0.0
 30
0.0
 11
0.0
 21
-24.0
 31
0.0
1001
AcDbBlockRepETag
1070
     1
1071
        0
1005
74D9
  0
CIRCLE
  5
74DA
330
74D6
100
AcDbEntity
  8
0
100
AcDbCircle
 10
0.0
 20
-12.0
 30
0.0
 40
4.0
1001
AcDbBlockRepETag
1070
     1
1071
        1
1005
74DA
  0
LINE
  5
74DB
330
74D6
100
AcDbEntity
  8
0
100
AcDbLine
 10
4.0
 20
-12.0
 30
0.0
 11
9.999992328408325
 21
-11.99040525967284
 31
0.0
1001
AcDbBlockRepETag
1070
     1
1071
        2
1005
74DB
  0
LINE
  5
74DC
330
74D6
100
AcDbEntity
  8
0
100
AcDbLine
 10
7.0
 20
-10.0
 30
0.0
 11
5.0
 21
-14.0
 31
0.0
1001
AcDbBlockRepETag
1070
     1
1071
        3
1005
74DC
  0
LINE
  5
74DD
330
74D6
100
AcDbEntity
  8
0
100
AcDbLine
 10
9.0
 20
-10.0
 30
0.0
 11
7.0
 21
-14.0
 31
0.0
1001
AcDbBlockRepETag
1070
     1
1071
        4
1005
74DD
  0
ENDBLK
  5
74D8
330
74D6
100
AcDbEntity
  8
0
100
AcDbBlockEnd
  0
BLOCK
  5
74E2
330
74E1
100
AcDbEntity
  8
0
100
AcDbBlockBegin
  2
*U32
 70
     1
 10
0.0
 20
0.0
 30
0.0
  3
*U32
  1

  0
LINE
  5
74E4
330
74E1
100
AcDbEntity
  8
0
100
AcDbLine
 10
0.0
 20
0.0
 30
0.0
 11
0.0
 21
-24.0
 31
0.0
1001
AcDbBlockRepETag
1070
     1
1071
        0
1005
74E4
  0
CIRCLE
  5
74E5
330
74E1
100
AcDbEntity
  8
0
100
AcDbCircle
 10
0.0
 20
-12.0
 30
0.0
 40
4.0
1001
AcDbBlockRepETag
1070
     1
1071
        1
1005
74E5
  0
LINE
  5
74E6
330
74E1
100
AcDbEntity
  8
0
100
AcDbLine
 10
4.0
 20
-12.0
 30
0.0
 11
9.999992328408325
 21
-11.99040525967284
 31
0.0
1001
AcDbBlockRepETag
1070
     1
1071
        2
1005
74E6
  0
LINE
  5
74E7
330
74E1
100
AcDbEntity
  8
0
100
AcDbLine
 10
7.0
 20
-10.0
 30
0.0
 11
5.0
 21
-14.0
 31
0.0
1001
AcDbBlockRepETag
1070
     1
1071
        3
1005
74E7
  0
LINE
  5
74E8
330
74E1
100
AcDbEntity
  8
0
100
AcDbLine
 10
9.0
 20
-10.0
 30
0.0
 11
7.0
 21
-14.0
 31
0.0
1001
AcDbBlockRepETag
1070
     1
1071
        4
1005
74E8
  0
ENDBLK
  5
74E3
330
74E1
100
AcDbEntity
  8
0
100
AcDbBlockEnd
  0
BLOCK
  5
74ED
330
74EC
100
AcDbEntity
  8
0
100
AcDbBlockBegin
  2
*U33
 70
     1
 10
0.0
 20
0.0
 30
0.0
  3
*U33
  1

  0
LINE
  5
74EF
330
74EC
100
AcDbEntity
  8
0
100
AcDbLine
 10
0.0
 20
0.0
 30
0.0
 11
0.0
 21
-24.0
 31
0.0
1001
AcDbBlockRepETag
1070
     1
1071
        0
1005
74EF
  0
CIRCLE
  5
74F0
330
74EC
100
AcDbEntity
  8
0
100
AcDbCircle
 10
0.0
 20
-12.0
 30
0.0
 40
4.0
1001
AcDbBlockRepETag
1070
     1
1071
        1
1005
74F0
  0
LINE
  5
74F1
330
74EC
100
AcDbEntity
  8
0
100
AcDbLine
 10
4.0
 20
-12.0
 30
0.0
 11
9.999992328408325
 21
-11.99040525967284
 31
0.0
1001
AcDbBlockRepETag
1070
     1
1071
        2
1005
74F1
  0
LINE
  5
74F2
330
74EC
100
AcDbEntity
  8
0
100
AcDbLine
 10
7.0
 20
-10.0
 30
0.0
 11
5.0
 21
-14.0
 31
0.0
1001
AcDbBlockRepETag
1070
     1
1071
        3
1005
74F2
  0
LINE
  5
74F3
330
74EC
100
AcDbEntity
  8
0
100
AcDbLine
 10
9.0
 20
-10.0
 30
0.0
 11
7.0
 21
-14.0
 31
0.0
1001
AcDbBlockRepETag
1070
     1
1071
        4
1005
74F3
  0
ENDBLK
  5
74EE
330
74EC
100
AcDbEntity
  8
0
100
AcDbBlockEnd
  0
BLOCK
  5
74F8
330
74F7
100
AcDbEntity
  8
0
100
AcDbBlockBegin
  2
*U34
 70
     1
 10
0.0
 20
0.0
 30
0.0
  3
*U34
  1

  0
LINE
  5
74FA
330
74F7
100
AcDbEntity
  8
0
100
AcDbLine
 10
0.0
 20
0.0
 30
0.0
 11
0.0
 21
-24.0
 31
0.0
1001
AcDbBlockRepETag
1070
     1
1071
        0
1005
74FA
  0
CIRCLE
  5
74FB
330
74F7
100
AcDbEntity
  8
0
100
AcDbCircle
 10
0.0
 20
-12.0
 30
0.0
 40
4.0
1001
AcDbBlockRepETag
1070
     1
1071
        1
1005
74FB
  0
LINE
  5
74FC
330
74F7
100
AcDbEntity
  8
0
100
AcDbLine
 10
4.0
 20
-12.0
 30
0.0
 11
9.999992328408325
 21
-11.99040525967284
 31
0.0
1001
AcDbBlockRepETag
1070
     1
1071
        2
1005
74FC
  0
LINE
  5
74FD
330
74F7
100
AcDbEntity
  8
0
100
AcDbLine
 10
7.0
 20
-10.0
 30
0.0
 11
5.0
 21
-14.0
 31
0.0
1001
AcDbBlockRepETag
1070
     1
1071
        3
1005
74FD
  0
LINE
  5
74FE
330
74F7
100
AcDbEntity
  8
0
100
AcDbLine
 10
9.0
 20
-10.0
 30
0.0
 11
7.0
 21
-14.0
 31
0.0
1001
AcDbBlockRepETag
1070
     1
1071
        4
1005
74FE
  0
ENDBLK
  5
74F9
330
74F7
100
AcDbEntity
  8
0
100
AcDbBlockEnd
  0
BLOCK
  5
7503
330
7502
100
AcDbEntity
  8
0
100
AcDbBlockBegin
  2
*U35
 70
     1
 10
0.0
 20
0.0
 30
0.0
  3
*U35
  1

  0
LINE
  5
7505
330
7502
100
AcDbEntity
  8
0
100
AcDbLine
 10
0.0
 20
0.0
 30
0.0
 11
0.0
 21
-4.0
 31
0.0
1001
AcDbBlockRepETag
1070
     1
1071
        0
1005
7505
  0
LINE
  5
7506
330
7502
100
AcDbEntity
  8
0
100
AcDbLine
 10
-2.0
 20
-4.0
 30
0.0
 11
2.0
 21
-4.0
 31
0.0
1001
AcDbBlockRepETag
1070
     1
1071
        1
1005
7506
  0
LINE
  5
7507
330
7502
100
AcDbEntity
  8
0
100
AcDbLine
 10
2.0
 20
-4.0
 30
0.0
 11
2.0
 21
-12.0
 31
0.0
1001
AcDbBlockRepETag
1070
     1
1071
        2
1005
7507
  0
LINE
  5
7508
330
7502
100
AcDbEntity
  8
0
100
AcDbLine
 10
2.0
 20
-12.0
 30
0.0
 11
-2.0
 21
-12.0
 31
0.0
1001
AcDbBlockRepETag
1070
     1
1071
        3
1005
7508
  0
LINE
  5
7509
330
7502
100
AcDbEntity
  8
0
100
AcDbLine
 10
-2.0
 20
-12.0
 30
0.0
 11
-2.0
 21
-4.0
 31
0.0
1001
AcDbBlockRepETag
1070
     1
1071
        4
1005
7509
  0
LINE
  5
750A
330
7502
100
AcDbEntity
  8
0
100
AcDbLine
 10
0.0
 20
-16.0
 30
0.0
 11
0.0
 21
-12.0
 31
0.0
1001
AcDbBlockRepETag
1070
     1
1071
        5
1005
750A
  0
LINE
  5
750B
330
7502
100
AcDbEntity
  8
0
100
AcDbLine
 10
0.0
 20
-4.0
 30
0.0
 11
0.0
 21
-4.5
 31
0.0
1001
AcDbBlockRepETag
1070
     1
1071
        6
1005
750B
  0
HATCH
  5
750C
330
7502
100
AcDbEntity
  8
0
100
AcDbHatch
 10
0.0
 20
0.0
 30
0.0
210
0.0
220
0.0
230
1.0
  2
SOLID
 70
     1
 71
     1
 91
        1
 92
        1
 93
        4
 72
     1
 10
0.0
 20
-4.5
 11
1.5
 21
-4.5
 72
     1
 10
1.5
 20
-4.5
 11
0.0
 21
-8.0
 72
     1
 10
0.0
 20
-8.0
 11
-1.5
 21
-4.5
 72
     1
 10
-1.5
 20
-4.5
 11
0.0
 21
-4.5
 97
        4
330
750D
330
750F
330
7510
330
750E
 75
     0
 76
     1
 98
        1
 10
-3024.0
 20
314.0
450
        0
451
        0
460
0.0
461
0.0
452
        1
462
1.0
453
        2
463
0.0
 63
     5
421
      255
463
1.0
 63
     7
421
 16777215
470
LINEAR
1001
ACAD
1010
0.0
1020
0.0
1030
0.0
1001
AcDbBlockRepETag
1070
     1
1071
       11
1005
750C
  0
LINE
  5
750D
102
{ACAD_REACTORS
330
750C
102
}
330
7502
100
AcDbEntity
  8
0
100
AcDbLine
 10
0.0
 20
-4.5
 30
0.0
 11
1.5
 21
-4.5
 31
0.0
1001
AcDbBlockRepETag
1070
     1
1071
        7
1005
750D
  0
LINE
  5
750E
102
{ACAD_REACTORS
330
750C
102
}
330
7502
100
AcDbEntity
  8
0
100
AcDbLine
 10
0.0
 20
-4.5
 30
0.0
 11
-1.5
 21
-4.5
 31
0.0
1001
AcDbBlockRepETag
1070
     1
1071
        8
1005
750E
  0
LINE
  5
750F
102
{ACAD_REACTORS
330
750C
102
}
330
7502
100
AcDbEntity
  8
0
100
AcDbLine
 10
0.0
 20
-8.0
 30
0.0
 11
1.5
 21
-4.5
 31
0.0
1001
AcDbBlockRepETag
1070
     1
1071
        9
1005
750F
  0
LINE
  5
7510
102
{ACAD_REACTORS
330
750C
102
}
330
7502
100
AcDbEntity
  8
0
100
AcDbLine
 10
0.0
 20
-8.0
 30
0.0
 11
-1.5
 21
-4.5
 31
0.0
1001
AcDbBlockRepETag
1070
     1
1071
       10
1005
7510
  0
ENDBLK
  5
7504
330
7502
100
AcDbEntity
  8
0
100
AcDbBlockEnd
  0
BLOCK
  5
7516
330
7515
100
AcDbEntity
  8
0
100
AcDbBlockBegin
  2
*U36
 70
     1
 10
0.0
 20
0.0
 30
0.0
  3
*U36
  1

  0
LINE
  5
7518
330
7515
100
AcDbEntity
  8
0
100
AcDbLine
 10
0.0
 20
0.0
 30
0.0
 11
0.0
 21
-4.0
 31
0.0
1001
AcDbBlockRepETag
1070
     1
1071
        0
1005
7518
  0
LINE
  5
7519
330
7515
100
AcDbEntity
  8
0
100
AcDbLine
 10
-2.0
 20
-4.0
 30
0.0
 11
2.0
 21
-4.0
 31
0.0
1001
AcDbBlockRepETag
1070
     1
1071
        1
1005
7519
  0
LINE
  5
751A
330
7515
100
AcDbEntity
  8
0
100
AcDbLine
 10
-1.0
 20
-5.0
 30
0.0
 11
1.0
 21
-5.0
 31
0.0
1001
AcDbBlockRepETag
1070
     1
1071
        2
1005
751A
  0
LINE
  5
751B
330
7515
100
AcDbEntity
  8
0
100
AcDbLine
 10
0.0
 20
-6.0
 30
0.0
 11
0.0
 21
-6.0
 31
0.0
1001
AcDbBlockRepETag
1070
     1
1071
        3
1005
751B
  0
LINE
  5
751C
330
7515
100
AcDbEntity
  8
0
100
AcDbLine
 10
0.5
 20
-6.0
 30
0.0
 11
-0.5
 21
-6.0
 31
0.0
1001
AcDbBlockRepETag
1070
     1
1071
        4
1005
751C
  0
ENDBLK
  5
7517
330
7515
100
AcDbEntity
  8
0
100
AcDbBlockEnd
  0
BLOCK
  5
7521
330
7520
100
AcDbEntity
  8
0
100
AcDbBlockBegin
  2
*U37
 70
     1
 10
0.0
 20
0.0
 30
0.0
  3
*U37
  1

  0
LINE
  5
7523
330
7520
100
AcDbEntity
  8
0
100
AcDbLine
 10
0.0
 20
0.0
 30
0.0
 11
0.0
 21
15.0
 31
0.0
1001
AcDbBlockRepETag
1070
     1
1071
        0
1005
7523
  0
HATCH
  5
7524
330
7520
100
AcDbEntity
  8
0
100
AcDbHatch
 10
0.0
 20
0.0
 30
0.0
210
0.0
220
0.0
230
1.0
  2
SOLID
 70
     1
 71
     1
 91
        1
 92
        1
 93
        3
 72
     1
 10
0.0
 20
15.0
 11
-2.0
 21
10.99999910797555
 72
     1
 10
-2.0
 20
10.99999910797555
 11
2.0
 21
10.99999910797555
 72
     1
 10
2.0
 20
10.99999910797555
 11
0.0
 21
15.0
 97
        3
330
7525
330
7526
330
7527
 75
     0
 76
     1
 98
        1
 10
-854.0
 20
84.99999910797555
450
        0
451
        0
460
0.0
461
0.0
452
        1
462
1.0
453
        2
463
0.0
 63
     5
421
      255
463
1.0
 63
     7
421
 16777215
470
LINEAR
1001
ACAD
1010
0.0
1020
0.0
1030
0.0
1001
AcDbBlockRepETag
1070
     1
1071
        1
1005
7524
  0
LINE
  5
7525
102
{ACAD_REACTORS
330
7524
102
}
330
7520
100
AcDbEntity
  8
0
100
AcDbLine
 10
0.0
 20
15.0
 30
0.0
 11
-2.0
 21
10.99999910797555
 31
0.0
1001
AcDbBlockRepETag
1070
     1
1071
        2
1005
7525
  0
LINE
  5
7526
102
{ACAD_REACTORS
330
7524
102
}
330
7520
100
AcDbEntity
  8
0
100
AcDbLine
 10
-2.0
 20
10.99999910797555
 30
0.0
 11
2.0
 21
10.99999910797555
 31
0.0
1001
AcDbBlockRepETag
1070
     1
1071
        3
1005
7526
  0
LINE
  5
7527
102
{ACAD_REACTORS
330
7524
102
}
330
7520
100
AcDbEntity
  8
0
100
AcDbLine
 10
2.0
 20
10.99999910797555
 30
0.0
 11
0.0
 21
15.0
 31
0.0
1001
AcDbBlockRepETag
1070
     1
1071
        4
1005
7527
  0
ENDBLK
  5
7522
330
7520
100
AcDbEntity
  8
0
100
AcDbBlockEnd
  0
BLOCK
  5
7621
330
7620
100
AcDbEntity
  8
0
100
AcDbBlockBegin
  2
*U38
 70
     1
 10
0.0
 20
0.0
 30
0.0
  3
*U38
  1

  0
LINE
  5
7623
330
7620
100
AcDbEntity
  8
0
100
AcDbLine
 10
0.0
 20
0.0
 30
0.0
 11
0.0
 21
15.0
 31
0.0
1001
AcDbBlockRepETag
1070
     1
1071
        0
1005
7623
  0
HATCH
  5
7624
330
7620
100
AcDbEntity
  8
0
100
AcDbHatch
 10
0.0
 20
0.0
 30
0.0
210
0.0
220
0.0
230
1.0
  2
SOLID
 70
     1
 71
     1
 91
        1
 92
        1
 93
        3
 72
     1
 10
0.0
 20
15.0
 11
-2.0
 21
10.99999910797555
 72
     1
 10
-2.0
 20
10.99999910797555
 11
2.0
 21
10.99999910797555
 72
     1
 10
2.0
 20
10.99999910797555
 11
0.0
 21
15.0
 97
        3
330
7625
330
7626
330
7627
 75
     0
 76
     1
 98
        1
 10
-854.0
 20
84.99999910797555
450
        0
451
        0
460
0.0
461
0.0
452
        1
462
1.0
453
        2
463
0.0
 63
     5
421
      255
463
1.0
 63
     7
421
 16777215
470
LINEAR
1001
ACAD
1010
0.0
1020
0.0
1030
0.0
1001
AcDbBlockRepETag
1070
     1
1071
        1
1005
7624
  0
LINE
  5
7625
102
{ACAD_REACTORS
330
7624
102
}
330
7620
100
AcDbEntity
  8
0
100
AcDbLine
 10
0.0
 20
15.0
 30
0.0
 11
-2.0
 21
10.99999910797555
 31
0.0
1001
AcDbBlockRepETag
1070
     1
1071
        2
1005
7625
  0
LINE
  5
7626
102
{ACAD_REACTORS
330
7624
102
}
330
7620
100
AcDbEntity
  8
0
100
AcDbLine
 10
-2.0
 20
10.99999910797555
 30
0.0
 11
2.0
 21
10.99999910797555
 31
0.0
1001
AcDbBlockRepETag
1070
     1
1071
        3
1005
7626
  0
LINE
  5
7627
102
{ACAD_REACTORS
330
7624
102
}
330
7620
100
AcDbEntity
  8
0
100
AcDbLine
 10
2.0
 20
10.99999910797555
 30
0.0
 11
0.0
 21
15.0
 31
0.0
1001
AcDbBlockRepETag
1070
     1
1071
        4
1005
7627
  0
ENDBLK
  5
7622
330
7620
100
AcDbEntity
  8
0
100
AcDbBlockEnd
  0
BLOCK
  5
762C
330
762B
100
AcDbEntity
  8
0
100
AcDbBlockBegin
  2
*U39
 70
     1
 10
0.0
 20
0.0
 30
0.0
  3
*U39
  1

  0
LINE
  5
762E
330
762B
100
AcDbEntity
  8
0
100
AcDbLine
 10
0.0
 20
0.0
 30
0.0
 11
0.0
 21
15.0
 31
0.0
1001
AcDbBlockRepETag
1070
     1
1071
        0
1005
762E
  0
HATCH
  5
762F
330
762B
100
AcDbEntity
  8
0
100
AcDbHatch
 10
0.0
 20
0.0
 30
0.0
210
0.0
220
0.0
230
1.0
  2
SOLID
 70
     1
 71
     1
 91
        1
 92
        1
 93
        3
 72
     1
 10
0.0
 20
15.0
 11
-2.0
 21
10.99999910797555
 72
     1
 10
-2.0
 20
10.99999910797555
 11
2.0
 21
10.99999910797555
 72
     1
 10
2.0
 20
10.99999910797555
 11
0.0
 21
15.0
 97
        3
330
7630
330
7631
330
7632
 75
     0
 76
     1
 98
        1
 10
-854.0
 20
84.99999910797555
450
        0
451
        0
460
0.0
461
0.0
452
        1
462
1.0
453
        2
463
0.0
 63
     5
421
      255
463
1.0
 63
     7
421
 16777215
470
LINEAR
1001
ACAD
1010
0.0
1020
0.0
1030
0.0
1001
AcDbBlockRepETag
1070
     1
1071
        1
1005
762F
  0
LINE
  5
7630
102
{ACAD_REACTORS
330
762F
102
}
330
762B
100
AcDbEntity
  8
0
100
AcDbLine
 10
0.0
 20
15.0
 30
0.0
 11
-2.0
 21
10.99999910797555
 31
0.0
1001
AcDbBlockRepETag
1070
     1
1071
        2
1005
7630
  0
LINE
  5
7631
102
{ACAD_REACTORS
330
762F
102
}
330
762B
100
AcDbEntity
  8
0
100
AcDbLine
 10
-2.0
 20
10.99999910797555
 30
0.0
 11
2.0
 21
10.99999910797555
 31
0.0
1001
AcDbBlockRepETag
1070
     1
1071
        3
1005
7631
  0
LINE
  5
7632
102
{ACAD_REACTORS
330
762F
102
}
330
762B
100
AcDbEntity
  8
0
100
AcDbLine
 10
2.0
 20
10.99999910797555
 30
0.0
 11
0.0
 21
15.0
 31
0.0
1001
AcDbBlockRepETag
1070
     1
1071
        4
1005
7632
  0
ENDBLK
  5
762D
330
762B
100
AcDbEntity
  8
0
100
AcDbBlockEnd
  0
BLOCK
  5
7637
330
7636
100
AcDbEntity
  8
0
100
AcDbBlockBegin
  2
*U40
 70
     1
 10
0.0
 20
0.0
 30
0.0
  3
*U40
  1

  0
LINE
  5
7639
330
7636
100
AcDbEntity
  8
0
100
AcDbLine
 10
0.0
 20
0.0
 30
0.0
 11
0.0
 21
15.0
 31
0.0
1001
AcDbBlockRepETag
1070
     1
1071
        0
1005
7639
  0
HATCH
  5
763A
330
7636
100
AcDbEntity
  8
0
100
AcDbHatch
 10
0.0
 20
0.0
 30
0.0
210
0.0
220
0.0
230
1.0
  2
SOLID
 70
     1
 71
     1
 91
        1
 92
        1
 93
        3
 72
     1
 10
0.0
 20
15.0
 11
-2.0
 21
10.99999910797555
 72
     1
 10
-2.0
 20
10.99999910797555
 11
2.0
 21
10.99999910797555
 72
     1
 10
2.0
 20
10.99999910797555
 11
0.0
 21
15.0
 97
        3
330
763B
330
763C
330
763D
 75
     0
 76
     1
 98
        1
 10
-854.0
 20
84.99999910797555
450
        0
451
        0
460
0.0
461
0.0
452
        1
462
1.0
453
        2
463
0.0
 63
     5
421
      255
463
1.0
 63
     7
421
 16777215
470
LINEAR
1001
ACAD
1010
0.0
1020
0.0
1030
0.0
1001
AcDbBlockRepETag
1070
     1
1071
        1
1005
763A
  0
LINE
  5
763B
102
{ACAD_REACTORS
330
763A
102
}
330
7636
100
AcDbEntity
  8
0
100
AcDbLine
 10
0.0
 20
15.0
 30
0.0
 11
-2.0
 21
10.99999910797555
 31
0.0
1001
AcDbBlockRepETag
1070
     1
1071
        2
1005
763B
  0
LINE
  5
763C
102
{ACAD_REACTORS
330
763A
102
}
330
7636
100
AcDbEntity
  8
0
100
AcDbLine
 10
-2.0
 20
10.99999910797555
 30
0.0
 11
2.0
 21
10.99999910797555
 31
0.0
1001
AcDbBlockRepETag
1070
     1
1071
        3
1005
763C
  0
LINE
  5
763D
102
{ACAD_REACTORS
330
763A
102
}
330
7636
100
AcDbEntity
  8
0
100
AcDbLine
 10
2.0
 20
10.99999910797555
 30
0.0
 11
0.0
 21
15.0
 31
0.0
1001
AcDbBlockRepETag
1070
     1
1071
        4
1005
763D
  0
ENDBLK
  5
7638
330
7636
100
AcDbEntity
  8
0
100
AcDbBlockEnd
  0
BLOCK
  5
76E0
330
76DF
100
AcDbEntity
  8
0
100
AcDbBlockBegin
  2
*U41
 70
     1
 10
0.0
 20
0.0
 30
0.0
  3
*U41
  1

  0
LINE
  5
76E2
330
76DF
100
AcDbEntity
  8
0
370
     0
100
AcDbLine
 10
0.0
 20
0.0
 30
0.0
 11
0.0
 21
-10.0
 31
0.0
1001
AcDbBlockRepETag
1070
     1
1071
        0
1005
76E2
  0
LINE
  5
76E3
330
76DF
100
AcDbEntity
  8
0
370
     0
100
AcDbLine
 10
0.0
 20
0.0
 30
0.0
 11
-4.0
 21
-4.0
 31
0.0
1001
AcDbBlockRepETag
1070
     1
1071
        1
1005
76E3
  0
LINE
  5
76E4
330
76DF
100
AcDbEntity
  8
0
370
     0
100
AcDbLine
 10
4.0
 20
-4.0
 30
0.0
 11
0.0
 21
0.0
 31
0.0
1001
AcDbBlockRepETag
1070
     1
1071
        2
1005
76E4
  0
LINE
  5
76E5
330
76DF
100
AcDbEntity
  8
0
370
     0
100
AcDbLine
 10
-4.0
 20
-8.0
 30
0.0
 11
0.0
 21
-4.0
 31
0.0
1001
AcDbBlockRepETag
1070
     1
1071
        3
1005
76E5
  0
LINE
  5
76E6
330
76DF
100
AcDbEntity
  8
0
370
     0
100
AcDbLine
 10
0.0
 20
-4.0
 30
0.0
 11
4.0
 21
-8.0
 31
0.0
1001
AcDbBlockRepETag
1070
     1
1071
        4
1005
76E6
  0
ENDBLK
  5
76E1
330
76DF
100
AcDbEntity
  8
0
100
AcDbBlockEnd
  0
BLOCK
  5
76EB
330
76EA
100
AcDbEntity
  8
0
100
AcDbBlockBegin
  2
*U42
 70
     1
 10
0.0
 20
0.0
 30
0.0
  3
*U42
  1

  0
LINE
  5
76ED
330
76EA
100
AcDbEntity
  8
0
100
AcDbLine
 10
0.0
 20
0.0
 30
0.0
 11
0.0
 21
-48.0
 31
0.0
1001
AcDbBlockRepETag
1070
     1
1071
        0
1005
76ED
  0
LINE
  5
76EE
330
76EA
100
AcDbEntity
  8
0
100
AcDbLine
 10
-4.0
 20
-16.0
 30
0.0
 11
4.0
 21
-16.0
 31
0.0
1001
AcDbBlockRepETag
1070
     1
1071
        1
1005
76EE
  0
LINE
  5
76EF
330
76EA
100
AcDbEntity
  8
0
100
AcDbLine
 10
4.0
 20
-16.0
 30
0.0
 11
4.0
 21
-32.0
 31
0.0
1001
AcDbBlockRepETag
1070
     1
1071
        2
1005
76EF
  0
LINE
  5
76F0
330
76EA
100
AcDbEntity
  8
0
100
AcDbLine
 10
4.0
 20
-32.0
 30
0.0
 11
-4.0
 21
-32.0
 31
0.0
1001
AcDbBlockRepETag
1070
     1
1071
        3
1005
76F0
  0
LINE
  5
76F1
330
76EA
100
AcDbEntity
  8
0
100
AcDbLine
 10
-4.0
 20
-32.0
 30
0.0
 11
-4.0
 21
-16.0
 31
0.0
1001
AcDbBlockRepETag
1070
     1
1071
        4
1005
76F1
  0
CIRCLE
  5
76F2
330
76EA
100
AcDbEntity
  8
0
100
AcDbCircle
 10
15.0
 20
-53.0
 30
0.0
 40
8.0
1001
AcDbBlockRepETag
1070
     1
1071
        5
1005
76F2
  0
CIRCLE
  5
76F3
330
76EA
100
AcDbEntity
  8
0
100
AcDbCircle
 10
-15.0
 20
-43.0
 30
0.0
 40
8.0
1001
AcDbBlockRepETag
1070
     1
1071
        6
1005
76F3
  0
CIRCLE
  5
76F4
330
76EA
100
AcDbEntity
  8
0
100
AcDbCircle
 10
15.0
 20
-43.0
 30
0.0
 40
8.0
1001
AcDbBlockRepETag
1070
     1
1071
        7
1005
76F4
  0
LINE
  5
76F5
330
76EA
100
AcDbEntity
  8
0
100
AcDbLine
 10
0.0
 20
-48.0
 30
0.0
 11
8.75500200160161
 21
-48.0
 31
0.0
1001
AcDbBlockRepETag
1070
     1
1071
       12
1005
76F5
  0
LINE
  5
76F6
330
76EA
100
AcDbEntity
  8
0
100
AcDbLine
 10
0.0
 20
-48.0
 30
0.0
 11
-8.75500200160161
 21
-48.0
 31
0.0
1001
AcDbBlockRepETag
1070
     1
1071
       13
1005
76F6
  0
CIRCLE
  5
76F7
330
76EA
100
AcDbEntity
  8
0
100
AcDbCircle
 10
-15.0
 20
-53.0
 30
0.0
 40
8.0
1001
AcDbBlockRepETag
1070
     1
1071
       14
1005
76F7
  0
ENDBLK
  5
76EC
330
76EA
100
AcDbEntity
  8
0
100
AcDbBlockEnd
  0
BLOCK
  5
76FC
330
76FB
100
AcDbEntity
  8
0
100
AcDbBlockBegin
  2
*U43
 70
     1
 10
0.0
 20
0.0
 30
0.0
  3
*U43
  1

  0
LINE
  5
76FE
330
76FB
100
AcDbEntity
  8
0
100
AcDbLine
 10
0.0
 20
0.0
 30
0.0
 11
0.0
 21
15.0
 31
0.0
1001
AcDbBlockRepETag
1070
     1
1071
        0
1005
76FE
  0
HATCH
  5
76FF
330
76FB
100
AcDbEntity
  8
0
100
AcDbHatch
 10
0.0
 20
0.0
 30
0.0
210
0.0
220
0.0
230
1.0
  2
SOLID
 70
     1
 71
     1
 91
        1
 92
        1
 93
        3
 72
     1
 10
0.0
 20
15.0
 11
-2.0
 21
10.99999910797555
 72
     1
 10
-2.0
 20
10.99999910797555
 11
2.0
 21
10.99999910797555
 72
     1
 10
2.0
 20
10.99999910797555
 11
0.0
 21
15.0
 97
        3
330
7700
330
7701
330
7702
 75
     0
 76
     1
 98
        1
 10
-854.0
 20
84.99999910797555
450
        0
451
        0
460
0.0
461
0.0
452
        1
462
1.0
453
        2
463
0.0
 63
     5
421
      255
463
1.0
 63
     7
421
 16777215
470
LINEAR
1001
ACAD
1010
0.0
1020
0.0
1030
0.0
1001
AcDbBlockRepETag
1070
     1
1071
        1
1005
76FF
  0
LINE
  5
7700
102
{ACAD_REACTORS
330
76FF
102
}
330
76FB
100
AcDbEntity
  8
0
100
AcDbLine
 10
0.0
 20
15.0
 30
0.0
 11
-2.0
 21
10.99999910797555
 31
0.0
1001
AcDbBlockRepETag
1070
     1
1071
        2
1005
7700
  0
LINE
  5
7701
102
{ACAD_REACTORS
330
76FF
102
}
330
76FB
100
AcDbEntity
  8
0
100
AcDbLine
 10
-2.0
 20
10.99999910797555
 30
0.0
 11
2.0
 21
10.99999910797555
 31
0.0
1001
AcDbBlockRepETag
1070
     1
1071
        3
1005
7701
  0
LINE
  5
7702
102
{ACAD_REACTORS
330
76FF
102
}
330
76FB
100
AcDbEntity
  8
0
100
AcDbLine
 10
2.0
 20
10.99999910797555
 30
0.0
 11
0.0
 21
15.0
 31
0.0
1001
AcDbBlockRepETag
1070
     1
1071
        4
1005
7702
  0
ENDBLK
  5
76FD
330
76FB
100
AcDbEntity
  8
0
100
AcDbBlockEnd
  0
BLOCK
  5
7707
330
7706
100
AcDbEntity
  8
0
100
AcDbBlockBegin
  2
*U44
 70
     1
 10
0.0
 20
0.0
 30
0.0
  3
*U44
  1

  0
LINE
  5
7709
330
7706
100
AcDbEntity
  8
0
100
AcDbLine
 10
0.0
 20
0.0
 30
0.0
 11
0.0
 21
-24.0
 31
0.0
1001
AcDbBlockRepETag
1070
     1
1071
        0
1005
7709
  0
CIRCLE
  5
770A
330
7706
100
AcDbEntity
  8
0
100
AcDbCircle
 10
0.0
 20
-12.0
 30
0.0
 40
4.0
1001
AcDbBlockRepETag
1070
     1
1071
        1
1005
770A
  0
LINE
  5
770B
330
7706
100
AcDbEntity
  8
0
100
AcDbLine
 10
4.0
 20
-12.0
 30
0.0
 11
9.999992328408325
 21
-11.99040525967284
 31
0.0
1001
AcDbBlockRepETag
1070
     1
1071
        2
1005
770B
  0
LINE
  5
770C
330
7706
100
AcDbEntity
  8
0
100
AcDbLine
 10
7.0
 20
-10.0
 30
0.0
 11
5.0
 21
-14.0
 31
0.0
1001
AcDbBlockRepETag
1070
     1
1071
        3
1005
770C
  0
LINE
  5
770D
330
7706
100
AcDbEntity
  8
0
100
AcDbLine
 10
9.0
 20
-10.0
 30
0.0
 11
7.0
 21
-14.0
 31
0.0
1001
AcDbBlockRepETag
1070
     1
1071
        4
1005
770D
  0
ENDBLK
  5
7708
330
7706
100
AcDbEntity
  8
0
100
AcDbBlockEnd
  0
BLOCK
  5
7712
330
7711
100
AcDbEntity
  8
0
100
AcDbBlockBegin
  2
*U45
 70
     1
 10
0.0
 20
0.0
 30
0.0
  3
*U45
  1

  0
LINE
  5
7714
330
7711
100
AcDbEntity
  8
0
100
AcDbLine
 10
0.0
 20
0.0
 30
0.0
 11
0.0
 21
-24.0
 31
0.0
1001
AcDbBlockRepETag
1070
     1
1071
        0
1005
7714
  0
CIRCLE
  5
7715
330
7711
100
AcDbEntity
  8
0
100
AcDbCircle
 10
0.0
 20
-12.0
 30
0.0
 40
4.0
1001
AcDbBlockRepETag
1070
     1
1071
        1
1005
7715
  0
LINE
  5
7716
330
7711
100
AcDbEntity
  8
0
100
AcDbLine
 10
4.0
 20
-12.0
 30
0.0
 11
9.999992328408325
 21
-11.99040525967284
 31
0.0
1001
AcDbBlockRepETag
1070
     1
1071
        2
1005
7716
  0
LINE
  5
7717
330
7711
100
AcDbEntity
  8
0
100
AcDbLine
 10
7.0
 20
-10.0
 30
0.0
 11
5.0
 21
-14.0
 31
0.0
1001
AcDbBlockRepETag
1070
     1
1071
        3
1005
7717
  0
LINE
  5
7718
330
7711
100
AcDbEntity
  8
0
100
AcDbLine
 10
9.0
 20
-10.0
 30
0.0
 11
7.0
 21
-14.0
 31
0.0
1001
AcDbBlockRepETag
1070
     1
1071
        4
1005
7718
  0
ENDBLK
  5
7713
330
7711
100
AcDbEntity
  8
0
100
AcDbBlockEnd
  0
BLOCK
  5
77A4
330
77A3
100
AcDbEntity
  8
0
100
AcDbBlockBegin
  2
*U46
 70
     1
 10
0.0
 20
0.0
 30
0.0
  3
*U46
  1

  0
LINE
  5
77A6
330
77A3
100
AcDbEntity
  8
0
100
AcDbLine
 10
0.0
 20
0.0
 30
0.0
 11
0.0
 21
-3.0
 31
0.0
1001
AcDbBlockRepETag
1070
     1
1071
        0
1005
77A6
  0
LINE
  5
77A7
330
77A3
100
AcDbEntity
  8
0
100
AcDbLine
 10
2.0
 20
-3.0
 30
0.0
 11
-2.0
 21
-3.0
 31
0.0
1001
AcDbBlockRepETag
1070
     1
1071
        1
1005
77A7
  0
LINE
  5
77A8
330
77A3
100
AcDbEntity
  8
0
100
AcDbLine
 10
-2.0
 20
-5.0
 30
0.0
 11
2.0
 21
-5.0
 31
0.0
1001
AcDbBlockRepETag
1070
     1
1071
        2
1005
77A8
  0
LINE
  5
77A9
330
77A3
100
AcDbEntity
  8
0
100
AcDbLine
 10
0.0
 20
-8.0
 30
0.0
 11
0.0
 21
-5.0
 31
0.0
1001
AcDbBlockRepETag
1070
     1
1071
        3
1005
77A9
  0
CIRCLE
  5
77AA
330
77A3
100
AcDbEntity
  8
0
100
AcDbCircle
 10
0.0
 20
-10.5
 30
0.0
 40
2.5
1001
AcDbBlockRepETag
1070
     1
1071
        4
1005
77AA
  0
LINE
  5
77AB
330
77A3
100
AcDbEntity
  8
0
100
AcDbLine
 10
0.0
 20
-16.0
 30
0.0
 11
0.0
 21
-13.0
 31
0.0
1001
AcDbBlockRepETag
1070
     1
1071
        5
1005
77AB
  0
LINE
  5
77AC
330
77A3
100
AcDbEntity
  8
0
100
AcDbLine
 10
0.0
 20
-10.5
 30
0.0
 11
0.0
 21
-10.5
 31
0.0
1001
AcDbBlockRepETag
1070
     1
1071
        6
1005
77AC
  0
LINE
  5
77AD
330
77A3
100
AcDbEntity
  8
0
100
AcDbLine
 10
0.0
 20
-10.5
 30
0.0
 11
0.0
 21
-10.5
 31
0.0
1001
AcDbBlockRepETag
1070
     1
1071
        7
1005
77AD
  0
LINE
  5
77AE
330
77A3
100
AcDbEntity
  8
0
100
AcDbLine
 10
0.0
 20
-10.5
 30
0.0
 11
0.0
 21
-10.5
 31
0.0
1001
AcDbBlockRepETag
1070
     1
1071
        8
1005
77AE
  0
LINE
  5
77AF
330
77A3
100
AcDbEntity
  8
0
100
AcDbLine
 10
0.0
 20
-10.5
 30
0.0
 11
0.0
 21
-10.5
 31
0.0
1001
AcDbBlockRepETag
1070
     1
1071
        9
1005
77AF
  0
LINE
  5
77B0
330
77A3
100
AcDbEntity
  8
0
100
AcDbLine
 10
0.0
 20
-10.5
 30
0.0
 11
0.0
 21
-10.5
 31
0.0
1001
AcDbBlockRepETag
1070
     1
1071
       10
1005
77B0
  0
LINE
  5
77B1
330
77A3
100
AcDbEntity
  8
0
100
AcDbLine
 10
0.0
 20
-10.5
 30
0.0
 11
0.0
 21
-10.5
 31
0.0
1001
AcDbBlockRepETag
1070
     1
1071
       11
1005
77B1
  0
LINE
  5
77B2
330
77A3
100
AcDbEntity
  8
0
100
AcDbLine
 10
0.0
 20
-10.5
 30
0.0
 11
-1.767766952966212
 21
-8.732233047033616
 31
0.0
1001
AcDbBlockRepETag
1070
     1
1071
       12
1005
77B2
  0
LINE
  5
77B3
330
77A3
100
AcDbEntity
  8
0
100
AcDbLine
 10
0.0
 20
-10.5
 30
0.0
 11
1.767766952966212
 21
-8.732233047033616
 31
0.0
1001
AcDbBlockRepETag
1070
     1
1071
       13
1005
77B3
  0
LINE
  5
77B4
330
77A3
100
AcDbEntity
  8
0
100
AcDbLine
 10
0.0
 20
-10.5
 30
0.0
 11
1.767766952966212
 21
-12.26776695296638
 31
0.0
1001
AcDbBlockRepETag
1070
     1
1071
       14
1005
77B4
  0
LINE
  5
77B5
330
77A3
100
AcDbEntity
  8
0
100
AcDbLine
 10
0.0
 20
-10.5
 30
0.0
 11
-1.767766952966212
 21
-12.26776695296638
 31
0.0
1001
AcDbBlockRepETag
1070
     1
1071
       15
1005
77B5
  0
ENDBLK
  5
77A5
330
77A3
100
AcDbEntity
  8
0
100
AcDbBlockEnd
  0
BLOCK
  5
77BA
330
77B9
100
AcDbEntity
  8
0
100
AcDbBlockBegin
  2
*U47
 70
     1
 10
0.0
 20
0.0
 30
0.0
  3
*U47
  1

  0
LINE
  5
77BC
330
77B9
100
AcDbEntity
  8
0
100
AcDbLine
 10
0.0
 20
0.0
 30
0.0
 11
0.0
 21
-4.0
 31
0.0
1001
AcDbBlockRepETag
1070
     1
1071
        0
1005
77BC
  0
LINE
  5
77BD
330
77B9
100
AcDbEntity
  8
0
100
AcDbLine
 10
-2.0
 20
-4.0
 30
0.0
 11
2.0
 21
-4.0
 31
0.0
1001
AcDbBlockRepETag
1070
     1
1071
        1
1005
77BD
  0
LINE
  5
77BE
330
77B9
100
AcDbEntity
  8
0
100
AcDbLine
 10
-1.0
 20
-5.0
 30
0.0
 11
1.0
 21
-5.0
 31
0.0
1001
AcDbBlockRepETag
1070
     1
1071
        2
1005
77BE
  0
LINE
  5
77BF
330
77B9
100
AcDbEntity
  8
0
100
AcDbLine
 10
0.0
 20
-6.0
 30
0.0
 11
0.0
 21
-6.0
 31
0.0
1001
AcDbBlockRepETag
1070
     1
1071
        3
1005
77BF
  0
LINE
  5
77C0
330
77B9
100
AcDbEntity
  8
0
100
AcDbLine
 10
0.5
 20
-6.0
 30
0.0
 11
-0.5
 21
-6.0
 31
0.0
1001
AcDbBlockRepETag
1070
     1
1071
        4
1005
77C0
  0
ENDBLK
  5
77BB
330
77B9
100
AcDbEntity
  8
0
100
AcDbBlockEnd
  0
BLOCK
  5
77C5
330
77C4
100
AcDbEntity
  8
0
100
AcDbBlockBegin
  2
*U48
 70
     1
 10
0.0
 20
0.0
 30
0.0
  3
*U48
  1

  0
LINE
  5
77C7
330
77C4
100
AcDbEntity
  8
0
100
AcDbLine
 10
0.0
 20
0.0
 30
0.0
 11
0.0
 21
-4.0
 31
0.0
1001
AcDbBlockRepETag
1070
     1
1071
        0
1005
77C7
  0
LINE
  5
77C8
330
77C4
100
AcDbEntity
  8
0
100
AcDbLine
 10
-2.0
 20
-4.0
 30
0.0
 11
2.0
 21
-4.0
 31
0.0
1001
AcDbBlockRepETag
1070
     1
1071
        1
1005
77C8
  0
LINE
  5
77C9
330
77C4
100
AcDbEntity
  8
0
100
AcDbLine
 10
-1.0
 20
-5.0
 30
0.0
 11
1.0
 21
-5.0
 31
0.0
1001
AcDbBlockRepETag
1070
     1
1071
        2
1005
77C9
  0
LINE
  5
77CA
330
77C4
100
AcDbEntity
  8
0
100
AcDbLine
 10
0.0
 20
-6.0
 30
0.0
 11
0.0
 21
-6.0
 31
0.0
1001
AcDbBlockRepETag
1070
     1
1071
        3
1005
77CA
  0
LINE
  5
77CB
330
77C4
100
AcDbEntity
  8
0
100
AcDbLine
 10
0.5
 20
-6.0
 30
0.0
 11
-0.5
 21
-6.0
 31
0.0
1001
AcDbBlockRepETag
1070
     1
1071
        4
1005
77CB
  0
ENDBLK
  5
77C6
330
77C4
100
AcDbEntity
  8
0
100
AcDbBlockEnd
  0
BLOCK
  5
77D0
330
77CF
100
AcDbEntity
  8
0
100
AcDbBlockBegin
  2
*U49
 70
     1
 10
0.0
 20
0.0
 30
0.0
  3
*U49
  1

  0
LINE
  5
77D2
330
77CF
100
AcDbEntity
  8
0
100
AcDbLine
 10
0.0
 20
0.0
 30
0.0
 11
0.0
 21
15.0
 31
0.0
1001
AcDbBlockRepETag
1070
     1
1071
        0
1005
77D2
  0
HATCH
  5
77D3
330
77CF
100
AcDbEntity
  8
0
100
AcDbHatch
 10
0.0
 20
0.0
 30
0.0
210
0.0
220
0.0
230
1.0
  2
SOLID
 70
     1
 71
     1
 91
        1
 92
        1
 93
        3
 72
     1
 10
0.0
 20
15.0
 11
-2.0
 21
10.99999910797555
 72
     1
 10
-2.0
 20
10.99999910797555
 11
2.0
 21
10.99999910797555
 72
     1
 10
2.0
 20
10.99999910797555
 11
0.0
 21
15.0
 97
        3
330
77D4
330
77D5
330
77D6
 75
     0
 76
     1
 98
        1
 10
-854.0
 20
84.99999910797555
450
        0
451
        0
460
0.0
461
0.0
452
        1
462
1.0
453
        2
463
0.0
 63
     5
421
      255
463
1.0
 63
     7
421
 16777215
470
LINEAR
1001
ACAD
1010
0.0
1020
0.0
1030
0.0
1001
AcDbBlockRepETag
1070
     1
1071
        1
1005
77D3
  0
LINE
  5
77D4
102
{ACAD_REACTORS
330
77D3
102
}
330
77CF
100
AcDbEntity
  8
0
100
AcDbLine
 10
0.0
 20
15.0
 30
0.0
 11
-2.0
 21
10.99999910797555
 31
0.0
1001
AcDbBlockRepETag
1070
     1
1071
        2
1005
77D4
  0
LINE
  5
77D5
102
{ACAD_REACTORS
330
77D3
102
}
330
77CF
100
AcDbEntity
  8
0
100
AcDbLine
 10
-2.0
 20
10.99999910797555
 30
0.0
 11
2.0
 21
10.99999910797555
 31
0.0
1001
AcDbBlockRepETag
1070
     1
1071
        3
1005
77D5
  0
LINE
  5
77D6
102
{ACAD_REACTORS
330
77D3
102
}
330
77CF
100
AcDbEntity
  8
0
100
AcDbLine
 10
2.0
 20
10.99999910797555
 30
0.0
 11
0.0
 21
15.0
 31
0.0
1001
AcDbBlockRepETag
1070
     1
1071
        4
1005
77D6
  0
ENDBLK
  5
77D1
330
77CF
100
AcDbEntity
  8
0
100
AcDbBlockEnd
  0
ENDSEC
  0
SECTION
  2
ENTITIES
  0
LWPOLYLINE
  5
4E75
330
1F
100
AcDbEntity
  8
Defpoints
 62
     1
100
AcDbPolyline
 90
        4
 70
     1
 43
0.0
 10
1203.916241049775
 20
1575.183624674504
 10
3597.916241049776
 20
1577.183624674504
 10
3597.916241049776
 20
2717.183624674504
 10
1203.916241049775
 20
2719.183624674505
  0
LWPOLYLINE
  5
4E76
330
1F
100
AcDbEntity
  8
0
 48
100.0
100
AcDbPolyline
 90
        5
 70
     0
 43
4.0
 10
3597.916241049776
 20
2717.183624674504
 10
1277.916241049775
 20
2717.183624674504
 10
1277.916241049775
 20
1577.183624674504
 10
3597.916241049776
 20
1577.183624674504
 10
3597.916241049776
 20
2717.183624674504
  0
LWPOLYLINE
  5
4E77
330
1F
100
AcDbEntity
  8
0
 48
100.0
100
AcDbPolyline
 90
        3
 70
     0
 43
4.0
 10
2877.916241049776
 20
1575.183624674504
 10
2877.916241049776
 20
1657.183624674504
 10
3597.916241049776
 20
1657.183624674504
  0
LINE
  5
4E78
330
1F
100
AcDbEntity
  8
0
100
AcDbLine
 10
3387.916241049776
 20
1657.18362467448
 30
0.0
 11
3387.916241049776
 21
1577.183624674504
 31
0.0
  0
LINE
  5
4E79
330
1F
100
AcDbEntity
  8
0
100
AcDbLine
 10
3387.916241049776
 20
1617.183624674481
 30
0.0
 11
3597.916241049776
 21
1617.183624674504
 31
0.0
  0
LINE
  5
4E7A
330
1F
100
AcDbEntity
  8
0
100
AcDbLine
 10
3459.916241049775
 20
1657.183624674504
 30
0.0
 11
3459.916241049775
 21
1577.183624674504
 31
0.0
  0
TEXT
  5
4E7B
330
1F
100
AcDbEntity
  8
0
100
AcDbText
 10
3406.20397187973
 20
1628.86423605359
 30
0.0
 40
14.0
  1
图  号
 41
0.7
 72
     4
 11
3423.698242002512
 21
1635.854686258229
 31
0.0
100
AcDbText
  0
TEXT
  5
4E7C
330
1F
100
AcDbEntity
  8
0
100
AcDbText
 10
3406.20397187973
 20
1590.029613132251
 30
0.0
 40
14.0
  1
页  码
 41
0.7
 72
     4
 11
3423.698242002512
 21
1597.058262518336
 31
0.0
100
AcDbText
  0
MTEXT
  5
4E7D
330
1F
100
AcDbEntity
  8
0
370
   158
100
AcDbMText
 10
3142.22621677735
 20
1613.287683722369
 30
0.0
 40
20.0
 41
469.7539227692778
 46
0.0
 71
     5
 72
     5
  1
{\fSimSun|b0|i0|c134|p2;广州市润霖物业管理有限公司电房一次接线图}
 73
     1
 44
1.0
1001
ACAD
1000
ACAD_MTEXT_COLUMN_INFO_BEGIN
1070
    75
1070
     2
1070
    79
1070
     0
1070
    76
1070
     1
1070
    78
1070
     0
1070
    48
1040
469.7539227692778
1070
    49
1040
12.5
1070
    50
1070
     1
1040
0.0
1000
ACAD_MTEXT_COLUMN_INFO_END
  0
MTEXT
  5
4E7E
330
1F
100
AcDbEntity
  8
0
370
   158
100
AcDbMText
 10
3470.446757029982
 20
1640.249808451951
 30
0.0
 40
10.0
 41
165.8123706162532
 46
0.0
 71
     1
 72
     5
  1
GZ20161121-02
 73
     1
 44
1.0
1001
ACAD
1000
ACAD_MTEXT_COLUMN_INFO_BEGIN
1070
    75
1070
     2
1070
    79
1070
     0
1070
    76
1070
     1
1070
    78
1070
     0
1070
    48
1040
165.8123706162532
1070
    49
1040
12.5
1070
    50
1070
     1
1040
0.0
1000
ACAD_MTEXT_COLUMN_INFO_END
  0
LWPOLYLINE
  5
4E7F
330
1F
100
AcDbEntity
  8
DM-10kV-Cable
370
    -2
100
AcDbPolyline
 90
        4
 70
     1
 43
0.0
 10
1277.916241049775
 20
2717.183624674504
 10
2877.916241049776
 20
2717.183624674504
 10
2877.916241049776
 20
1637.183624674504
 10
1277.916241049775
 20
1637.183624674504
  0
MTEXT
  5
4E80
330
1F
100
AcDbEntity
  8
DM-Text
 62
     1
370
     0
100
AcDbMText
 10
1684.816745539239
 20
2650.499003992602
 30
0.0
 40
20.0
 41
197.0330447497922
 46
0.0
 71
     5
 72
     5
  1
{\fSimSun|b0|i0|c134|p2;芳村F4}
 73
     1
 44
1.0
1001
ACAD
1000
ACAD_MTEXT_COLUMN_INFO_BEGIN
1070
    75
1070
     2
1070
    79
1070
     0
1070
    76
1070
     1
1070
    78
1070
     0
1070
    48
1040
197.0330447497922
1070
    49
1040
217.6058878148997
1070
    50
1070
     1
1040
256.10606667685
1000
ACAD_MTEXT_COLUMN_INFO_END
  0
LINE
  5
4F24
330
1F
100
AcDbEntity
  8
0
370
     0
100
AcDbLine
 10
2964.659970378744
 20
2478.164066545499
 30
0.0
 11
3524.659971010591
 21
2478.164066545499
 31
0.0
  0
LINE
  5
4F25
330
1F
100
AcDbEntity
  8
0
370
     0
100
AcDbLine
 10
2964.659970378744
 20
2448.164066545499
 30
0.0
 11
3524.659971010591
 21
2448.164066545499
 31
0.0
  0
LINE
  5
4F26
330
1F
100
AcDbEntity
  8
0
370
     0
100
AcDbLine
 10
2964.659970378744
 20
2418.164066545499
 30
0.0
 11
3524.659971010591
 21
2418.164066545498
 31
0.0
  0
LINE
  5
4F27
330
1F
100
AcDbEntity
  8
0
370
     0
100
AcDbLine
 10
2964.659970378744
 20
2388.164066545499
 30
0.0
 11
3524.659971010591
 21
2388.164066545499
 31
0.0
  0
LINE
  5
4F28
330
1F
100
AcDbEntity
  8
0
370
     0
100
AcDbLine
 10
2964.659970378744
 20
2358.164066545499
 30
0.0
 11
3524.659971010591
 21
2358.164066545499
 31
0.0
  0
LINE
  5
4F29
330
1F
100
AcDbEntity
  8
0
370
     0
100
AcDbLine
 10
2964.659970378744
 20
2328.164066545499
 30
0.0
 11
3524.659971010591
 21
2328.164066545498
 31
0.0
  0
LINE
  5
4F2D
330
1F
100
AcDbEntity
  8
0
370
     0
100
AcDbLine
 10
2964.659970378744
 20
2508.164066545499
 30
0.0
 11
3004.659970378743
 21
2508.164066545499
 31
0.0
  0
LINE
  5
4F2E
330
1F
100
AcDbEntity
  8
0
370
     0
100
AcDbLine
 10
3004.659970378743
 20
2508.164066545499
 30
0.0
 11
3004.659970378743
 21
2298.164066545499
 31
0.0
  0
LINE
  5
4F32
330
1F
100
AcDbEntity
  8
0
370
     0
100
AcDbLine
 10
3004.659970378743
 20
2508.164066545499
 30
0.0
 11
3104.659970378743
 21
2508.164066545499
 31
0.0
  0
LINE
  5
4F33
330
1F
100
AcDbEntity
  8
0
370
     0
100
AcDbLine
 10
3104.659970378743
 20
2538.164067934655
 30
0.0
 11
3104.659970378743
 21
2298.164066545498
 31
0.0
  0
LINE
  5
4F34
330
1F
100
AcDbEntity
  8
0
370
     0
100
AcDbLine
 10
3104.659970378743
 20
2508.164066545499
 30
0.0
 11
3144.659970378743
 21
2508.164066545499
 31
0.0
  0
MTEXT
  5
4F35
330
1F
100
AcDbEntity
  8
0
370
     0
100
AcDbMText
 10
3124.659970378736
 20
2493.164067934655
 30
0.0
 40
10.0
 41
18.25118149904483
 46
0.0
 71
     5
 72
     5
  1
P1
 73
     1
 44
1.0
1001
ACAD
1000
ACAD_MTEXT_COLUMN_INFO_BEGIN
1070
    75
1070
     2
1070
    79
1070
     0
1070
    76
1070
     1
1070
    78
1070
     0
1070
    48
1040
18.25118149904483
1070
    49
1040
12.5
1070
    50
1070
     1
1040
0.0
1000
ACAD_MTEXT_COLUMN_INFO_END
  0
LINE
  5
4F36
330
1F
100
AcDbEntity
  8
0
370
     0
100
AcDbLine
 10
3144.659970378743
 20
2508.164066545499
 30
0.0
 11
3144.659970378743
 21
2298.164066545499
 31
0.0
  0
LINE
  5
4F37
330
1F
100
AcDbEntity
  8
0
370
     0
100
AcDbLine
 10
3144.659964422983
 20
2508.164066545499
 30
0.0
 11
3244.659964422983
 21
2508.164066545499
 31
0.0
  0
MTEXT
  5
4F38
330
1F
100
AcDbEntity
  8
0
370
     0
100
AcDbMText
 10
3194.659964422981
 20
2493.164067934654
 30
0.0
 40
10.0
 41
49.08315300982213
 46
0.0
 71
     5
 72
     5
  1
{\fSimSun|b0|i0|c134|p2;进线柜}
 73
     1
 44
1.0
1001
ACAD
1000
ACAD_MTEXT_COLUMN_INFO_BEGIN
1070
    75
1070
     2
1070
    79
1070
     0
1070
    76
1070
     1
1070
    78
1070
     0
1070
    48
1040
49.08315300982213
1070
    49
1040
12.5
1070
    50
1070
     1
1040
0.0
1000
ACAD_MTEXT_COLUMN_INFO_END
  0
LINE
  5
4F39
330
1F
100
AcDbEntity
  8
0
370
     0
100
AcDbLine
 10
3244.659964422983
 20
2508.164066545499
 30
0.0
 11
3244.659964422983
 21
2298.164066545499
 31
0.0
  0
LINE
  5
4F3A
330
1F
100
AcDbEntity
  8
0
370
     0
100
AcDbLine
 10
3244.659964422983
 20
2508.164066545499
 30
0.0
 11
3284.659964422983
 21
2508.164066545499
 31
0.0
  0
LINE
  5
4F3B
330
1F
100
AcDbEntity
  8
0
370
     0
100
AcDbLine
 10
3284.659964422983
 20
2508.164066545499
 30
0.0
 11
3284.659964422985
 21
2298.164066545499
 31
0.0
  0
LINE
  5
4F3C
330
1F
100
AcDbEntity
  8
0
370
     0
100
AcDbLine
 10
3284.659967716788
 20
2508.164066545499
 30
0.0
 11
3524.659971010591
 21
2508.164066545499
 31
0.0
  0
LINE
  5
4F3D
330
1F
100
AcDbEntity
  8
0
370
     0
100
AcDbLine
 10
3384.659967716788
 20
2508.164066545499
 30
0.0
 11
3384.659967716788
 21
2298.164066545498
 31
0.0
  0
LINE
  5
4F3E
330
1F
100
AcDbEntity
  8
0
370
     0
100
AcDbLine
 10
2964.659970378744
 20
2538.164067934655
 30
0.0
 11
3104.659970378743
 21
2538.164067934655
 31
0.0
  0
LINE
  5
4F3F
330
1F
100
AcDbEntity
  8
0
370
     0
100
AcDbLine
 10
3104.659970378743
 20
2538.164067934655
 30
0.0
 11
3524.659971010591
 21
2538.164067934655
 31
0.0
  0
MTEXT
  5
4F40
330
1F
100
AcDbEntity
  8
0
370
     0
100
AcDbMText
 10
3034.659970378744
 20
2523.164067934656
 30
0.0
 40
10.0
 41
94.41753695478656
 46
0.0
 71
     5
 72
     5
  1
高压开关柜
 73
     1
 44
1.0
1001
ACAD
1000
ACAD_MTEXT_COLUMN_INFO_BEGIN
1070
    75
1070
     2
1070
    79
1070
     0
1070
    76
1070
     1
1070
    78
1070
     0
1070
    48
1040
94.41753695478656
1070
    49
1040
12.5
1070
    50
1070
     1
1040
0.0
1000
ACAD_MTEXT_COLUMN_INFO_END
  0
MTEXT
  5
4F41
330
1F
100
AcDbEntity
  8
0
370
     0
100
AcDbMText
 10
3244.659969047763
 20
2523.164067934655
 30
0.0
 40
10.0
 41
94.41753695478656
 46
0.0
 71
     5
 72
     5
  1
低压开关柜
 73
     1
 44
1.0
1001
ACAD
1000
ACAD_MTEXT_COLUMN_INFO_BEGIN
1070
    75
1070
     2
1070
    79
1070
     0
1070
    76
1070
     1
1070
    78
1070
     0
1070
    48
1040
94.41753695478656
1070
    49
1040
12.5
1070
    50
1070
     1
1040
0.0
1000
ACAD_MTEXT_COLUMN_INFO_END
  0
LINE
  5
4F46
330
1F
100
AcDbEntity
  8
0
370
     0
100
AcDbLine
 10
2964.659970378744
 20
2298.164066545499
 30
0.0
 11
3524.659971010591
 21
2298.164066545499
 31
0.0
  0
LINE
  5
4F49
330
1F
100
AcDbEntity
  8
0
370
     0
100
AcDbLine
 10
2964.659970378744
 20
2538.164067934655
 30
0.0
 11
2964.659970378744
 21
2298.164066545498
 31
0.0
  0
MTEXT
  5
4F4A
330
1F
100
AcDbEntity
  8
0
370
     0
100
AcDbMText
 10
3124.659970378736
 20
2463.164067934655
 30
0.0
 40
10.0
 41
18.25118149904483
 46
0.0
 71
     5
 72
     5
  1
P2
 73
     1
 44
1.0
1001
ACAD
1000
ACAD_MTEXT_COLUMN_INFO_BEGIN
1070
    75
1070
     2
1070
    79
1070
     0
1070
    76
1070
     1
1070
    78
1070
     0
1070
    48
1040
18.25118149904483
1070
    49
1040
12.5
1070
    50
1070
     1
1040
0.0
1000
ACAD_MTEXT_COLUMN_INFO_END
  0
LINE
  5
4F57
330
1F
100
AcDbEntity
  8
0
370
     0
100
AcDbLine
 10
3424.659967716787
 20
2508.164066545499
 30
0.0
 11
3424.659967716789
 21
2298.164066545499
 31
0.0
  0
LINE
  5
4F58
330
1F
100
AcDbEntity
  8
0
370
     0
100
AcDbLine
 10
3424.659971010591
 20
2508.164066545499
 30
0.0
 11
3524.659971010591
 21
2508.164066545499
 31
0.0
  0
LINE
  5
4F59
330
1F
100
AcDbEntity
  8
0
370
     0
100
AcDbLine
 10
3524.659971010591
 20
2538.164067934655
 30
0.0
 11
3524.659971010591
 21
2298.164066545498
 31
0.0
  0
MTEXT
  5
4F63
330
1F
100
AcDbEntity
  8
0
370
     0
100
AcDbMText
 10
3194.659970378742
 20
2463.164067934654
 30
0.0
 40
10.0
 41
49.08315300982213
 46
0.0
 71
     5
 72
     5
  1
{\fSimSun|b0|i0|c134|p2;电容柜}
 73
     1
 44
1.0
1001
ACAD
1000
ACAD_MTEXT_COLUMN_INFO_BEGIN
1070
    75
1070
     2
1070
    79
1070
     0
1070
    76
1070
     1
1070
    78
1070
     0
1070
    48
1040
49.08315300982213
1070
    49
1040
12.5
1070
    50
1070
     1
1040
0.0
1000
ACAD_MTEXT_COLUMN_INFO_END
  0
MTEXT
  5
60D2
330
1F
100
AcDbEntity
  8
0
370
     0
100
AcDbMText
 10
2984.659970378743
 20
2493.164067934655
 30
0.0
 40
10.0
 41
18.25118149904483
 46
0.0
 71
     5
 72
     5
  1
G1
 73
     1
 44
1.0
1001
ACAD
1000
ACAD_MTEXT_COLUMN_INFO_BEGIN
1070
    75
1070
     2
1070
    79
1070
     0
1070
    76
1070
     1
1070
    78
1070
     0
1070
    48
1040
18.25118149904483
1070
    49
1040
12.5
1070
    50
1070
     1
1040
0.0
1000
ACAD_MTEXT_COLUMN_INFO_END
  0
MTEXT
  5
60D3
330
1F
100
AcDbEntity
  8
0
370
     0
100
AcDbMText
 10
3054.659970378744
 20
2492.860044662704
 30
0.0
 40
10.0
 41
49.08315300982213
 46
0.0
 71
     5
 72
     5
  1
{\fSimSun|b0|i0|c134|p2;进线柜}
 73
     1
 44
1.0
1001
ACAD
1000
ACAD_MTEXT_COLUMN_INFO_BEGIN
1070
    75
1070
     2
1070
    79
1070
     0
1070
    76
1070
     1
1070
    78
1070
     0
1070
    48
1040
49.08315300982213
1070
    49
1040
12.5
1070
    50
1070
     1
1040
0.0
1000
ACAD_MTEXT_COLUMN_INFO_END
  0
MTEXT
  5
60D4
330
1F
100
AcDbEntity
  8
0
370
     0
100
AcDbMText
 10
2984.659970378743
 20
2463.164067934655
 30
0.0
 40
10.0
 41
18.25118149904483
 46
0.0
 71
     5
 72
     5
  1
G2
 73
     1
 44
1.0
1001
ACAD
1000
ACAD_MTEXT_COLUMN_INFO_BEGIN
1070
    75
1070
     2
1070
    79
1070
     0
1070
    76
1070
     1
1070
    78
1070
     0
1070
    48
1040
18.25118149904483
1070
    49
1040
12.5
1070
    50
1070
     1
1040
0.0
1000
ACAD_MTEXT_COLUMN_INFO_END
  0
MTEXT
  5
60DA
330
1F
100
AcDbEntity
  8
0
370
     0
100
AcDbMText
 10
3054.659970378744
 20
2462.860044662703
 30
0.0
 40
10.0
 41
98.90453879574488
 46
0.0
 71
     5
 72
     5
  1
{\fSimSun|b0|i0|c134|p2;计量兼出线柜}
 73
     1
 44
1.0
1001
ACAD
1000
ACAD_MTEXT_COLUMN_INFO_BEGIN
1070
    75
1070
     2
1070
    79
1070
     0
1070
    76
1070
     1
1070
    78
1070
     0
1070
    48
1040
98.90453879574488
1070
    49
1040
12.5
1070
    50
1070
     1
1040
0.0
1000
ACAD_MTEXT_COLUMN_INFO_END
  0
LINE
  5
71AF
330
1F
100
AcDbEntity
  8
DM-10kV-Cable
100
AcDbLine
 10
2159.001175626491
 20
2326.433263272574
 30
0.0
 11
1804.148804323227
 21
2326.433263272585
 31
0.0
  0
INSERT
  5
740A
102
{ACAD_XDICTIONARY
360
740B
102
}
330
1F
100
AcDbEntity
  8
DM-DblClmnTrans
370
     0
100
AcDbBlockReference
  2
*U27
 10
2256.964666404303
 20
2261.965330756682
 30
0.0
  0
INSERT
  5
7411
102
{ACAD_XDICTIONARY
360
7412
102
}
330
1F
100
AcDbEntity
  8
DM-Outgoing Line-180
370
     0
100
AcDbBlockReference
  2
*U28
 10
2256.964666404303
 20
2221.965330756682
 30
0.0
 50
180.0
  0
MTEXT
  5
7418
330
1F
100
AcDbEntity
  8
DM-Text
370
     0
100
AcDbMText
 10
2300.368127162424
 20
2241.965330756682
 30
0.0
 40
20.0
 41
51.58707615633011
 46
0.0
 71
     5
 72
     5
  1
B1
 73
     1
 44
1.0
1001
ACAD
1000
ACAD_MTEXT_COLUMN_INFO_BEGIN
1070
    75
1070
     2
1070
    79
1070
     0
1070
    76
1070
     1
1070
    78
1070
     0
1070
    48
1040
51.58707615633011
1070
    49
1040
12.5
1070
    50
1070
     1
1040
0.0
1000
ACAD_MTEXT_COLUMN_INFO_END
  0
INSERT
  5
7419
102
{ACAD_XDICTIONARY
360
741A
102
}
330
1F
100
AcDbEntity
  8
DM-Outgoing Line-180
370
     0
100
AcDbBlockReference
  2
*U29
 10
2256.964666404303
 20
2261.965330756682
 30
0.0
 41
-1.0
  0
INSERT
  5
752C
102
{ACAD_XDICTIONARY
360
752D
102
}
330
1F
100
AcDbEntity
  8
DM-VCB
 48
0.1
370
     0
100
AcDbBlockReference
  2
*U30
 10
2256.964666404303
 20
2126.965330756684
 30
0.0
  0
LINE
  5
7533
330
1F
100
AcDbEntity
  8
DM-0.4kV-Wire
 48
0.1
100
AcDbLine
 10
2256.964666404303
 20
2062.965330756684
 30
0.0
 11
2256.964666404303
 21
2013.965330756684
 31
0.0
  0
INSERT
  5
7534
102
{ACAD_XDICTIONARY
360
7535
102
}
330
1F
100
AcDbEntity
  8
DM-CT
370
     0
100
AcDbBlockReference
  2
*U31
 10
2241.964666404303
 20
2042.965331365573
 30
0.0
  0
INSERT
  5
753B
102
{ACAD_XDICTIONARY
360
753C
102
}
330
1F
100
AcDbEntity
  8
DM-CT
370
     0
100
AcDbBlockReference
  2
*U32
 10
2256.964666404303
 20
2013.965330756684
 30
0.0
  0
INSERT
  5
7542
102
{ACAD_XDICTIONARY
360
7543
102
}
330
1F
100
AcDbEntity
  8
DM-CT
370
     0
100
AcDbBlockReference
  2
*U33
 10
2241.964666404303
 20
2013.965330756684
 30
0.0
  0
INSERT
  5
7549
102
{ACAD_XDICTIONARY
360
754A
102
}
330
1F
100
AcDbEntity
  8
DM-CT
370
     0
100
AcDbBlockReference
  2
*U34
 10
2271.964666404302
 20
2013.498794748859
 30
0.0
  0
LINE
  5
7550
330
1F
100
AcDbEntity
  8
DM-0.4kV-Wire
100
AcDbLine
 10
2281.964666404303
 20
2161.965330756684
 30
0.0
 11
2281.964666404303
 21
2121.965330756684
 31
0.0
  0
INSERT
  5
7551
102
{ACAD_XDICTIONARY
360
7552
102
}
330
1F
100
AcDbEntity
  8
DM-Arrester
370
     0
100
AcDbBlockReference
  2
*U35
 10
2281.964666404303
 20
2121.965330756684
 30
0.0
 41
2.0
 42
2.0
 43
2.0
  0
INSERT
  5
7558
102
{ACAD_XDICTIONARY
360
7559
102
}
330
1F
100
AcDbEntity
  8
DM-GND
370
     0
100
AcDbBlockReference
  2
*U36
 10
2281.964666404303
 20
2089.965330756684
 30
0.0
 41
2.0
 42
2.0
 43
2.0
  0
LINE
  5
755F
330
1F
100
AcDbEntity
  8
DM-0.4kV-Wire
100
AcDbLine
 10
2226.964666404303
 20
2161.965330756684
 30
0.0
 11
2226.964666404303
 21
2036.965330756684
 31
0.0
  0
INSERT
  5
7560
102
{ACAD_XDICTIONARY
360
7561
102
}
330
1F
100
AcDbEntity
  8
DM-Outgoing Line-180
370
     0
100
AcDbBlockReference
  2
*U37
 10
2226.964666404303
 20
2036.965330756684
 30
0.0
 50
180.0
  0
LINE
  5
7567
330
1F
100
AcDbEntity
  8
DM-0.4kV-Wire
100
AcDbLine
 10
2256.964666404303
 20
1989.965330756684
 30
0.0
 11
2256.964666404299
 21
1926.965330756684
 31
0.0
  0
LWPOLYLINE
  5
7568
330
1F
100
AcDbEntity
  8
DM-Wireframe
  6
ACAD_ISO03W100
370
     0
100
AcDbPolyline
 90
        4
 70
     1
 43
0.0
 10
2314.464666404303
 20
1956.965330756684
 10
2199.464666404303
 20
1956.965330756684
 10
2199.464666404303
 20
2176.965330756684
 10
2314.464666404303
 20
2176.965330756684
  0
MTEXT
  5
7569
330
1F
100
AcDbEntity
  8
DM-Text
370
     0
100
AcDbMText
 10
2314.464666404303
 20
2181.378732248495
 30
0.0
 40
10.0
 41
51.58707615633011
 46
0.0
 71
     9
 72
     5
  1
P1
 73
     1
 44
1.0
1001
ACAD
1000
ACAD_MTEXT_COLUMN_INFO_BEGIN
1070
    75
1070
     2
1070
    79
1070
     0
1070
    76
1070
     1
1070
    78
1070
     0
1070
    48
1040
51.58707615633011
1070
    49
1040
12.5
1070
    50
1070
     1
1040
0.0
1000
ACAD_MTEXT_COLUMN_INFO_END
  0
LINE
  5
756A
330
1F
100
AcDbEntity
  8
DM-0.4kV-Wire
100
AcDbLine
 10
2281.964666404303
 20
2161.965330756684
 30
0.0
 11
2226.964666404303
 21
2161.965330756684
 31
0.0
  0
LINE
  5
756B
330
1F
100
AcDbEntity
  8
DM-0.4kV-Wire
100
AcDbLine
 10
2256.964666404303
 20
2206.965330756682
 30
0.0
 11
2256.964666404303
 21
2126.965330756684
 31
0.0
  0
LINE
  5
756C
330
1F
100
AcDbEntity
  8
DM-0.4kV-Cable
100
AcDbLine
 10
2314.464666404298
 20
1926.965330756684
 30
0.0
 11
2199.464666404299
 21
1926.965330756684
 31
0.0
  0
LWPOLYLINE
  5
7642
330
1F
100
AcDbEntity
  8
DM-Wireframe
  6
ACAD_ISO03W100
370
     0
100
AcDbPolyline
 90
        4
 70
     1
 43
0.0
 10
2336.964666404299
 20
1676.965330756686
 10
2176.964666404297
 20
1676.965330756686
 10
2176.964666404297
 20
1896.965330756686
 10
2336.964666404299
 20
1896.965330756684
  0
LINE
  5
7643
330
1F
100
AcDbEntity
  8
DM-0.4kV-Wire
100
AcDbLine
 10
2256.964666404299
 20
1926.965330756684
 30
0.0
 11
2256.964666404297
 21
1706.965331716299
 31
0.0
  0
INSERT
  5
7644
102
{ACAD_XDICTIONARY
360
7645
102
}
330
1F
100
AcDbEntity
  8
DM-Outgoing Line-180
370
     0
100
AcDbBlockReference
  2
*U38
 10
2256.964666404297
 20
1706.965331716299
 30
0.0
 50
180.0
  0
MTEXT
  5
764B
330
1F
100
AcDbEntity
  8
DM-Text
370
     0
100
AcDbMText
 10
2336.964666404299
 20
1659.164840800993
 30
0.0
 40
10.0
 41
51.58707615633011
 46
0.0
 71
     9
 72
     5
  1
P2-P4
 73
     1
 44
1.0
1001
ACAD
1000
ACAD_MTEXT_COLUMN_INFO_BEGIN
1070
    75
1070
     2
1070
    79
1070
     0
1070
    76
1070
     1
1070
    78
1070
     0
1070
    48
1040
51.58707615633011
1070
    49
1040
12.5
1070
    50
1070
     1
1040
0.0
1000
ACAD_MTEXT_COLUMN_INFO_END
  0
LINE
  5
764C
330
1F
100
AcDbEntity
  8
DM-0.4kV-Wire
100
AcDbLine
 10
2221.964666404295
 20
1926.965330756685
 30
0.0
 11
2221.964666404297
 21
1706.965332187655
 31
0.0
  0
INSERT
  5
764D
102
{ACAD_XDICTIONARY
360
764E
102
}
330
1F
100
AcDbEntity
  8
DM-Outgoing Line-180
370
     0
100
AcDbBlockReference
  2
*U39
 10
2221.964666404297
 20
1706.965332187655
 30
0.0
 50
180.0
  0
LINE
  5
7654
330
1F
100
AcDbEntity
  8
DM-0.4kV-Wire
100
AcDbLine
 10
2291.964666404299
 20
1926.965330756684
 30
0.0
 11
2291.964666404299
 21
1706.965331716299
 31
0.0
  0
INSERT
  5
7655
102
{ACAD_XDICTIONARY
360
7656
102
}
330
1F
100
AcDbEntity
  8
DM-Outgoing Line-180
370
     0
100
AcDbBlockReference
  2
*U40
 10
2291.964666404299
 20
1706.965331716299
 30
0.0
 50
180.0
  0
MTEXT
  5
765F
330
1F
100
AcDbEntity
  8
0
370
     0
100
AcDbMText
 10
3124.659970378736
 20
2433.164067934655
 30
0.0
 40
10.0
 41
18.25118149904483
 46
0.0
 71
     5
 72
     5
  1
P3
 73
     1
 44
1.0
1001
ACAD
1000
ACAD_MTEXT_COLUMN_INFO_BEGIN
1070
    75
1070
     2
1070
    79
1070
     0
1070
    76
1070
     1
1070
    78
1070
     0
1070
    48
1040
18.25118149904483
1070
    49
1040
12.5
1070
    50
1070
     1
1040
0.0
1000
ACAD_MTEXT_COLUMN_INFO_END
  0
MTEXT
  5
7660
330
1F
100
AcDbEntity
  8
0
370
     0
100
AcDbMText
 10
3124.659970378736
 20
2403.164067934655
 30
0.0
 40
10.0
 41
18.25118149904483
 46
0.0
 71
     5
 72
     5
  1
P4
 73
     1
 44
1.0
1001
ACAD
1000
ACAD_MTEXT_COLUMN_INFO_BEGIN
1070
    75
1070
     2
1070
    79
1070
     0
1070
    76
1070
     1
1070
    78
1070
     0
1070
    48
1040
18.25118149904483
1070
    49
1040
12.5
1070
    50
1070
     1
1040
0.0
1000
ACAD_MTEXT_COLUMN_INFO_END
  0
MTEXT
  5
7661
330
1F
100
AcDbEntity
  8
0
370
     0
100
AcDbMText
 10
3194.659970378742
 20
2433.164067934654
 30
0.0
 40
10.0
 41
49.08315300982213
 46
0.0
 71
     5
 72
     5
  1
{\fSimSun|b0|i0|c134|p2;电容柜}
 73
     1
 44
1.0
1001
ACAD
1000
ACAD_MTEXT_COLUMN_INFO_BEGIN
1070
    75
1070
     2
1070
    79
1070
     0
1070
    76
1070
     1
1070
    78
1070
     0
1070
    48
1040
49.08315300982213
1070
    49
1040
12.5
1070
    50
1070
     1
1040
0.0
1000
ACAD_MTEXT_COLUMN_INFO_END
  0
MTEXT
  5
7662
330
1F
100
AcDbEntity
  8
0
370
     0
100
AcDbMText
 10
3194.659970378742
 20
2403.164067934653
 30
0.0
 40
10.0
 41
49.08315300982213
 46
0.0
 71
     5
 72
     5
  1
{\fSimSun|b0|i0|c134|p2;出线柜}
 73
     1
 44
1.0
1001
ACAD
1000
ACAD_MTEXT_COLUMN_INFO_BEGIN
1070
    75
1070
     2
1070
    79
1070
     0
1070
    76
1070
     1
1070
    78
1070
     0
1070
    48
1040
49.08315300982213
1070
    49
1040
12.5
1070
    50
1070
     1
1040
0.0
1000
ACAD_MTEXT_COLUMN_INFO_END
  0
LINE
  5
771D
330
1F
100
AcDbEntity
  8
DM-10kV-Wire
100
AcDbLine
 10
2125.666926852336
 20
2326.433263272574
 30
0.0
 11
2125.666926852336
 21
2622.730301273051
 31
0.0
  0
INSERT
  5
771E
102
{ACAD_XDICTIONARY
360
771F
102
}
330
1F
100
AcDbEntity
  8
DM-Handcart
370
     0
100
AcDbBlockReference
  2
*U41
 10
2165.66692220493
 20
2479.33326329201
 30
0.0
 41
1.1
 42
1.1
 43
1.1
 50
180.0
  0
INSERT
  5
7725
102
{ACAD_XDICTIONARY
360
7726
102
}
330
1F
100
AcDbEntity
  8
DM-HPT-180
370
     0
100
AcDbBlockReference
  2
*U42
 10
2165.66692220493
 20
2490.33326329201
 30
0.0
 41
1.1
 42
1.1
 43
1.1
 50
180.0
  0
MTEXT
  5
772C
330
1F
100
AcDbEntity
  8
DM-Text
370
     0
100
AcDbMText
 10
2057.939021541043
 20
2375.094523195349
 30
0.0
 40
11.0
 41
51.5870761563301
 46
0.0
 71
     9
 72
     5
  1
G2
 11
-1.0
 21
0.0000000000000001
 31
0.0
 73
     1
 44
1.0
1001
ACAD
1000
ACAD_MTEXT_COLUMN_INFO_BEGIN
1070
    75
1070
     2
1070
    79
1070
     0
1070
    76
1070
     1
1070
    78
1070
     0
1070
    48
1040
51.5870761563301
1070
    49
1040
12.5
1070
    50
1070
     1
1040
0.0
1000
ACAD_MTEXT_COLUMN_INFO_END
  0
INSERT
  5
772D
102
{ACAD_XDICTIONARY
360
772E
102
}
330
1F
100
AcDbEntity
  8
DM-Outgoing Line-180
370
     0
100
AcDbBlockReference
  2
*U43
 10
2125.666926852336
 20
2622.730301273051
 30
0.0
 41
1.1
 42
1.1
 43
1.1
  0
LINE
  5
7734
330
1F
100
AcDbEntity
  8
DM-10kV-Wire
100
AcDbLine
 10
2125.666926852336
 20
2639.230301273051
 30
0.0
 11
2125.666926852336
 21
2696.139707427753
 31
0.0
  0
INSERT
  5
7735
102
{ACAD_XDICTIONARY
360
7736
102
}
330
1F
100
AcDbEntity
  8
DM-CT
370
     0
100
AcDbBlockReference
  2
*U44
 10
2142.166922204919
 20
2425.43326329201
 30
0.0
 41
1.1
 42
1.1
 43
1.1
 50
180.0
  0
INSERT
  5
773C
102
{ACAD_XDICTIONARY
360
773D
102
}
330
1F
100
AcDbEntity
  8
DM-CT
370
     0
100
AcDbBlockReference
  2
*U45
 10
2109.166922204931
 20
2425.43326329201
 30
0.0
 41
1.1
 42
1.1
 43
1.1
 50
180.0
  0
LWPOLYLINE
  5
7743
330
1F
100
AcDbEntity
  8
DM-Wireframe
  6
ACAD_ISO03W100
370
     0
100
AcDbPolyline
 90
        4
 70
     1
 43
0.0
 10
2195.666926852337
 20
2376.230301273051
 10
2195.666926852337
 20
2669.230301273051
 10
2055.666926852337
 20
2669.230301273051
 10
2055.666926852337
 20
2376.230301273051
  0
LINE
  5
7744
330
1F
100
AcDbEntity
  8
DM-10kV-Wire
 48
0.1
100
AcDbLine
 10
2125.66692220493
 20
2479.33326329201
 30
0.0
 11
2165.66692220493
 21
2479.33326329201
 31
0.0
  0
LINE
  5
77DB
330
1F
100
AcDbEntity
  8
DM-10kV-Wire
 48
0.1
100
AcDbLine
 10
1878.294265607673
 20
2466.33326372784
 30
0.0
 11
1878.29427237459
 21
2622.933262085898
 31
0.0
  0
LINE
  5
77DC
330
1F
100
AcDbEntity
  8
DM-10kV-Wire
100
AcDbLine
 10
1878.294266602409
 20
2326.433263272583
 30
0.0
 11
1878.294265607673
 21
2433.933263727841
 31
0.0
  0
INSERT
  5
77DD
102
{ACAD_XDICTIONARY
360
77DE
102
}
330
1F
100
AcDbEntity
  8
DM-Outgoing Line
370
     0
100
AcDbBlockReference
  2
*U49
 10
1878.29427237459
 20
2622.933262085898
 30
0.0
 41
1.35
 42
1.35
 43
1.35
  0
LINE
  5
77E4
330
1F
100
AcDbEntity
  8
DM-10kV-Wire
100
AcDbLine
 10
1878.294270624522
 20
2541.933262085896
 30
0.0
 11
1844.544270624522
 21
2541.933262085896
 31
0.0
  0
INSERT
  5
77E5
102
{ACAD_XDICTIONARY
360
77E6
102
}
330
1F
100
AcDbEntity
  8
DM-DXN-T-180
370
     0
100
AcDbBlockReference
  2
*U46
 10
1844.544270624522
 20
2548.683262085896
 30
0.0
 41
2.7
 42
2.7
 43
2.7
 50
180.0
  0
INSERT
  5
77EC
102
{ACAD_XDICTIONARY
360
77ED
102
}
330
1F
100
AcDbEntity
  8
DM-GND-180
370
     0
100
AcDbBlockReference
  2
*U47
 10
1844.544270624522
 20
2591.883262085898
 30
0.0
 41
2.7
 42
2.7
 43
2.7
 50
180.0
  0
LINE
  5
77F3
330
1F
100
AcDbEntity
  8
DM-10kV-Wire
100
AcDbLine
 10
1844.544270624522
 20
2541.933262085896
 30
0.0
 11
1844.544270624522
 21
2548.683262085896
 31
0.0
  0
INSERT
  5
77F4
330
1F
100
AcDbEntity
  8
DM-Knife Switch
100
AcDbBlockReference
  2
DM-Knife Switch
 10
-527.0006261428063
 20
2039.535226044081
 30
0.0
 41
1.35
 42
1.35
 43
1.35
  0
INSERT
  5
77F5
102
{ACAD_XDICTIONARY
360
77F6
102
}
330
1F
100
AcDbEntity
  8
DM-GND-270
370
     0
100
AcDbBlockReference
  2
*U48
 10
1860.744265607673
 20
2454.183263727842
 30
0.0
 41
2.7
 42
2.7
 43
2.7
 50
270.0
  0
LINE
  5
77FC
330
1F
100
AcDbEntity
  8
DM-10kV-Wire
100
AcDbLine
 10
1878.29428172166
 20
2643.18326971464
 30
0.0
 11
1878.294281721658
 21
2699.43326372784
 31
0.0
  0
LWPOLYLINE
  5
77FE
330
1F
100
AcDbEntity
  8
DM-Wireframe
  6
ACAD_ISO03W100
370
     0
100
AcDbPolyline
 90
        4
 70
     1
 43
0.0
 10
1808.294266602409
 20
2658.911686925799
 10
1808.294266602409
 20
2365.911686925799
 10
1948.294266602409
 20
2365.911686925799
 10
1948.294266602409
 20
2658.911686925799
  0
MTEXT
  5
77FF
330
1F
100
AcDbEntity
  8
DM-Text
370
     0
100
AcDbMText
 10
1948.294266602409
 20
2663.232251436958
 30
0.0
 40
10.0
 41
51.58707615633011
 46
0.0
 71
     9
 72
     5
  1
G1
 73
     1
 44
1.0
1001
ACAD
1000
ACAD_MTEXT_COLUMN_INFO_BEGIN
1070
    75
1070
     2
1070
    79
1070
     0
1070
    76
1070
     1
1070
    78
1070
     0
1070
    48
1040
51.58707615633011
1070
    49
1040
12.5
1070
    50
1070
     1
1040
0.0
1000
ACAD_MTEXT_COLUMN_INFO_END
  0
LINE
  5
7826
330
1F
100
AcDbEntity
  8
DM-10kV-Wire
100
AcDbLine
 10
2256.964666404303
 20
2276.965330756683
 30
0.0
 11
2256.964666404303
 21
2696.139707427753
 31
0.0
  0
LINE
  5
7828
330
1F
100
AcDbEntity
  8
DM-10kV-Wire
100
AcDbLine
 10
2256.964666404303
 20
2696.139707427753
 30
0.0
 11
2125.666926852336
 21
2696.139707427753
 31
0.0
  0
ENDSEC
  0
SECTION
  2
OBJECTS
  0
DICTIONARY
  5
C
330
0
100
AcDbDictionary
281
     1
  3
ACAD_ASSOCPERSSUBENTMANAGER
350
781C
  3
ACAD_CIP_PREVIOUS_PRODUCT_INFO
350
216
  3
ACAD_COLOR
350
6B
  3
ACAD_DETAILVIEWSTYLE
350
21B
  3
ACAD_GROUP
350
D
  3
ACAD_LAYOUT
350
1A
  3
ACAD_MATERIAL
350
6A
  3
ACAD_MLEADERSTYLE
350
12D
  3
ACAD_MLINESTYLE
350
17
  3
ACAD_PERSUBENTMGR
350
1B7A
  3
ACAD_PLOTSETTINGS
350
19
  3
ACAD_PLOTSTYLENAME
350
E
  3
ACAD_SCALELIST
350
10C
  3
ACAD_SECTIONVIEWSTYLE
350
219
  3
ACAD_TABLESTYLE
350
7E
  3
ACAD_VISUALSTYLE
350
EF
  3
ACDB_RECOMPOSE_DATA
350
78D8
  3
AcDbVariableDictionary
350
5E
  3
AcDsDecomposeData
350
78DE
  0
DICTIONARY
  5
4F8F
330
8
100
AcDbDictionary
280
     1
281
     1
  0
DICTIONARY
  5
1FF
330
2
100
AcDbDictionary
280
     1
281
     1
  3
ACAD_LAYERSTATES
360
200
  0
DICTIONARY
  5
13C
330
10
100
AcDbDictionary
280
     1
281
     1
  0
DICTIONARY
  5
1CE
330
1F
100
AcDbDictionary
280
     1
281
     1
  0
DICTIONARY
  5
260
330
25F
100
AcDbDictionary
280
     1
281
     1
  3
ACAD_ENHANCEDBLOCK
360
261
  3
AcDbDynamicBlockRoundTripPurgePreventer
360
263
  0
DICTIONARY
  5
4AB4
330
26D
100
AcDbDictionary
280
     1
281
     1
  3
ACAD_ENHANCEDBLOCK
360
4AB5
  3
AcDbDynamicBlockRoundTripPurgePreventer
360
4ABB
  0
DICTIONARY
  5
4C05
330
279
100
AcDbDictionary
280
     1
281
     1
  3
ACAD_ENHANCEDBLOCK
360
4C06
  3
AcDbDynamicBlockRoundTripPurgePreventer
360
4C22
  0
DICTIONARY
  5
285
330
284
100
AcDbDictionary
280
     1
281
     1
  3
ACAD_ENHANCEDBLOCK
360
286
  3
AcDbDynamicBlockRoundTripPurgePreventer
360
288
  0
DICTIONARY
  5
291
330
290
100
AcDbDictionary
280
     1
281
     1
  3
ACAD_ENHANCEDBLOCK
360
292
  3
ACAD_SORTENTS
360
294
  3
AcDbDynamicBlockRoundTripPurgePreventer
360
295
  0
DICTIONARY
  5
2A5
330
2A4
100
AcDbDictionary
280
     1
281
     1
  3
ACAD_ENHANCEDBLOCK
360
2A6
  3
AcDbDynamicBlockRoundTripPurgePreventer
360
2A8
  0
DICTIONARY
  5
2BC
330
2BB
100
AcDbDictionary
280
     1
281
     1
  3
ACAD_ENHANCEDBLOCK
360
2BD
  3
AcDbDynamicBlockRoundTripPurgePreventer
360
2BF
  0
DICTIONARY
  5
2CE
330
2CD
100
AcDbDictionary
280
     1
281
     1
  3
ACAD_ENHANCEDBLOCK
360
2CF
  3
AcDbDynamicBlockRoundTripPurgePreventer
360
2D1
  0
DICTIONARY
  5
2E5
330
2E4
100
AcDbDictionary
280
     1
281
     1
  3
ACAD_ENHANCEDBLOCK
360
2E6
  3
AcDbDynamicBlockRoundTripPurgePreventer
360
2E8
  0
DICTIONARY
  5
2F1
330
2F0
100
AcDbDictionary
280
     1
281
     1
  3
ACAD_ENHANCEDBLOCK
360
2F2
  3
AcDbDynamicBlockRoundTripPurgePreventer
360
2F4
  0
DICTIONARY
  5
1B9E
330
1B9D
100
AcDbDictionary
280
     1
281
     1
  3
ACAD_ENHANCEDBLOCK
360
1B9F
  3
AcDbDynamicBlockRoundTripPurgePreventer
360
1BA1
  0
DICTIONARY
  5
3B27
330
3B26
100
AcDbDictionary
280
     1
281
     1
  0
DICTIONARY
  5
3B30
330
3B2F
100
AcDbDictionary
280
     1
281
     1
  3
ACAD_ENHANCEDBLOCK
360
3B31
  3
AcDbDynamicBlockRoundTripPurgePreventer
360
3B33
  0
DICTIONARY
  5
6AA2
330
6A44
100
AcDbDictionary
280
     1
281
     1
  0
DICTIONARY
  5
6AAD
330
6AA5
100
AcDbDictionary
280
     1
281
     1
  0
DICTIONARY
  5
6ABC
330
6AB0
100
AcDbDictionary
280
     1
281
     1
  0
DICTIONARY
  5
6ACE
330
6ABF
100
AcDbDictionary
280
     1
281
     1
  3
ACAD_SORTENTS
360
6ACF
  0
DICTIONARY
  5
6ADA
330
6AD2
100
AcDbDictionary
280
     1
281
     1
  0
DICTIONARY
  5
6AF0
330
6ADD
100
AcDbDictionary
280
     1
281
     1
  0
DICTIONARY
  5
6AFB
330
6AF3
100
AcDbDictionary
280
     1
281
     1
  0
DICTIONARY
  5
6B06
330
6AFE
100
AcDbDictionary
280
     1
281
     1
  0
DICTIONARY
  5
6B11
330
6B09
100
AcDbDictionary
280
     1
281
     1
  0
DICTIONARY
  5
6B1C
330
6B14
100
AcDbDictionary
280
     1
281
     1
  0
DICTIONARY
  5
6B27
330
6B1F
100
AcDbDictionary
280
     1
281
     1
  0
DICTIONARY
  5
6B3D
330
6B2A
100
AcDbDictionary
280
     1
281
     1
  0
DICTIONARY
  5
6B4A
330
6B40
100
AcDbDictionary
280
     1
281
     1
  0
DICTIONARY
  5
73F0
330
73E5
100
AcDbDictionary
280
     1
281
     1
  0
DICTIONARY
  5
73FB
330
73F3
100
AcDbDictionary
280
     1
281
     1
  0
DICTIONARY
  5
7406
330
73FE
100
AcDbDictionary
280
     1
281
     1
  0
DICTIONARY
  5
74D3
330
74C0
100
AcDbDictionary
280
     1
281
     1
  0
DICTIONARY
  5
74DE
330
74D6
100
AcDbDictionary
280
     1
281
     1
  0
DICTIONARY
  5
74E9
330
74E1
100
AcDbDictionary
280
     1
281
     1
  0
DICTIONARY
  5
74F4
330
74EC
100
AcDbDictionary
280
     1
281
     1
  0
DICTIONARY
  5
74FF
330
74F7
100
AcDbDictionary
280
     1
281
     1
  0
DICTIONARY
  5
7511
330
7502
100
AcDbDictionary
280
     1
281
     1
  3
ACAD_SORTENTS
360
7512
  0
DICTIONARY
  5
751D
330
7515
100
AcDbDictionary
280
     1
281
     1
  0
DICTIONARY
  5
7528
330
7520
100
AcDbDictionary
280
     1
281
     1
  0
DICTIONARY
  5
7628
330
7620
100
AcDbDictionary
280
     1
281
     1
  0
DICTIONARY
  5
7633
330
762B
100
AcDbDictionary
280
     1
281
     1
  0
DICTIONARY
  5
763E
330
7636
100
AcDbDictionary
280
     1
281
     1
  0
DICTIONARY
  5
76E7
330
76DF
100
AcDbDictionary
280
     1
281
     1
  0
DICTIONARY
  5
76F8
330
76EA
100
AcDbDictionary
280
     1
281
     1
  0
DICTIONARY
  5
7703
330
76FB
100
AcDbDictionary
280
     1
281
     1
  0
DICTIONARY
  5
770E
330
7706
100
AcDbDictionary
280
     1
281
     1
  0
DICTIONARY
  5
7719
330
7711
100
AcDbDictionary
280
     1
281
     1
  0
DICTIONARY
  5
77B6
330
77A3
100
AcDbDictionary
280
     1
281
     1
  0
DICTIONARY
  5
77C1
330
77B9
100
AcDbDictionary
280
     1
281
     1
  0
DICTIONARY
  5
77CC
330
77C4
100
AcDbDictionary
280
     1
281
     1
  0
DICTIONARY
  5
77D7
330
77CF
100
AcDbDictionary
280
     1
281
     1
  0
DICTIONARY
  5
6A46
330
6A45
100
AcDbDictionary
280
     1
281
     1
  3
AcDbBlockRepresentation
360
6A47
  0
DICTIONARY
  5
6A4D
330
6A4C
100
AcDbDictionary
280
     1
281
     1
  3
AcDbBlockRepresentation
360
6A4E
  0
DICTIONARY
  5
6A5A
330
6A59
100
AcDbDictionary
280
     1
281
     1
  3
AcDbBlockRepresentation
360
6A5B
  0
DICTIONARY
  5
6A61
330
6A60
100
AcDbDictionary
280
     1
281
     1
  3
AcDbBlockRepresentation
360
6A62
  0
DICTIONARY
  5
6A68
330
6A67
100
AcDbDictionary
280
     1
281
     1
  3
AcDbBlockRepresentation
360
6A69
  0
DICTIONARY
  5
6A71
330
6A70
100
AcDbDictionary
280
     1
281
     1
  3
AcDbBlockRepresentation
360
6A72
  0
DICTIONARY
  5
6A78
330
6A77
100
AcDbDictionary
280
     1
281
     1
  3
AcDbBlockRepresentation
360
6A79
  0
DICTIONARY
  5
6A7F
330
6A7E
100
AcDbDictionary
280
     1
281
     1
  3
AcDbBlockRepresentation
360
6A80
  0
DICTIONARY
  5
6A86
330
6A85
100
AcDbDictionary
280
     1
281
     1
  3
AcDbBlockRepresentation
360
6A87
  0
DICTIONARY
  5
6A8D
330
6A8C
100
AcDbDictionary
280
     1
281
     1
  3
AcDbBlockRepresentation
360
6A8E
  0
DICTIONARY
  5
6A94
330
6A93
100
AcDbDictionary
280
     1
281
     1
  3
AcDbBlockRepresentation
360
6A95
  0
DICTIONARY
  5
6A9B
330
6A9A
100
AcDbDictionary
280
     1
281
     1
  3
AcDbBlockRepresentation
360
6A9C
  0
DICTIONARY
  5
740B
330
740A
100
AcDbDictionary
280
     1
281
     1
  3
AcDbBlockRepresentation
360
740C
  0
DICTIONARY
  5
7412
330
7411
100
AcDbDictionary
280
     1
281
     1
  3
AcDbBlockRepresentation
360
7413
  0
DICTIONARY
  5
741A
330
7419
100
AcDbDictionary
280
     1
281
     1
  3
AcDbBlockRepresentation
360
741B
  0
DICTIONARY
  5
752D
330
752C
100
AcDbDictionary
280
     1
281
     1
  3
AcDbBlockRepresentation
360
752E
  0
DICTIONARY
  5
7535
330
7534
100
AcDbDictionary
280
     1
281
     1
  3
AcDbBlockRepresentation
360
7536
  0
DICTIONARY
  5
753C
330
753B
100
AcDbDictionary
280
     1
281
     1
  3
AcDbBlockRepresentation
360
753D
  0
DICTIONARY
  5
7543
330
7542
100
AcDbDictionary
280
     1
281
     1
  3
AcDbBlockRepresentation
360
7544
  0
DICTIONARY
  5
754A
330
7549
100
AcDbDictionary
280
     1
281
     1
  3
AcDbBlockRepresentation
360
754B
  0
DICTIONARY
  5
7552
330
7551
100
AcDbDictionary
280
     1
281
     1
  3
AcDbBlockRepresentation
360
7553
  0
DICTIONARY
  5
7559
330
7558
100
AcDbDictionary
280
     1
281
     1
  3
AcDbBlockRepresentation
360
755A
  0
DICTIONARY
  5
7561
330
7560
100
AcDbDictionary
280
     1
281
     1
  3
AcDbBlockRepresentation
360
7562
  0
DICTIONARY
  5
7645
330
7644
100
AcDbDictionary
280
     1
281
     1
  3
AcDbBlockRepresentation
360
7646
  0
DICTIONARY
  5
764E
330
764D
100
AcDbDictionary
280
     1
281
     1
  3
AcDbBlockRepresentation
360
764F
  0
DICTIONARY
  5
7656
330
7655
100
AcDbDictionary
280
     1
281
     1
  3
AcDbBlockRepresentation
360
7657
  0
DICTIONARY
  5
771F
330
771E
100
AcDbDictionary
280
     1
281
     1
  3
AcDbBlockRepresentation
360
7720
  0
DICTIONARY
  5
7726
330
7725
100
AcDbDictionary
280
     1
281
     1
  3
AcDbBlockRepresentation
360
7727
  0
DICTIONARY
  5
772E
330
772D
100
AcDbDictionary
280
     1
281
     1
  3
AcDbBlockRepresentation
360
772F
  0
DICTIONARY
  5
7736
330
7735
100
AcDbDictionary
280
     1
281
     1
  3
AcDbBlockRepresentation
360
7737
  0
DICTIONARY
  5
773D
330
773C
100
AcDbDictionary
280
     1
281
     1
  3
AcDbBlockRepresentation
360
773E
  0
DICTIONARY
  5
77DE
330
77DD
100
AcDbDictionary
280
     1
281
     1
  3
AcDbBlockRepresentation
360
77DF
  0
DICTIONARY
  5
77E6
330
77E5
100
AcDbDictionary
280
     1
281
     1
  3
AcDbBlockRepresentation
360
77E7
  0
DICTIONARY
  5
77ED
330
77EC
100
AcDbDictionary
280
     1
281
     1
  3
AcDbBlockRepresentation
360
77EE
  0
DICTIONARY
  5
77F6
330
77F5
100
AcDbDictionary
280
     1
281
     1
  3
AcDbBlockRepresentation
360
77F7
  0
ACDBASSOCPERSSUBENTMANAGER
  5
781C
102
{ACAD_REACTORS
330
C
102
}
330
C
100
AcDbAssocPersSubentManager
 90
        1
 90
        3
 90
        0
 90
        2
 90
        0
 90
        0
 90
        0
 90
        0
290
     0
  0
XRECORD
  5
216
102
{ACAD_REACTORS
330
C
102
}
330
C
100
AcDbXrecord
280
     1
300
ACD
300
2016
300
ACD_F_S
  0
DICTIONARY
  5
6B
102
{ACAD_REACTORS
330
C
102
}
330
C
100
AcDbDictionary
281
     1
  0
DICTIONARY
  5
21B
102
{ACAD_REACTORS
330
C
102
}
330
C
100
AcDbDictionary
281
     1
  3
Metric50
350
7833
  0
DICTIONARY
  5
D
102
{ACAD_REACTORS
330
C
102
}
330
C
100
AcDbDictionary
281
     1
  0
DICTIONARY
  5
1A
102
{ACAD_REACTORS
330
C
102
}
330
C
100
AcDbDictionary
281
     1
  3
Model
350
22
  3
布局1
350
D3
  3
布局2
350
D7
  0
DICTIONARY
  5
6A
102
{ACAD_REACTORS
330
C
102
}
330
C
100
AcDbDictionary
281
     1
  3
ByBlock
350
ED
  3
ByLayer
350
EC
  3
Global
350
EE
  0
DICTIONARY
  5
12D
102
{ACAD_REACTORS
330
C
102
}
330
C
100
AcDbDictionary
281
     1
  3
Annotative
350
13B
  3
Standard
350
12E
  0
DICTIONARY
  5
17
102
{ACAD_REACTORS
330
C
102
}
330
C
100
AcDbDictionary
281
     1
  3
Standard
350
18
  0
ACDBPERSSUBENTMANAGER
  5
1B7A
102
{ACAD_REACTORS
330
C
102
}
330
C
100
AcDbPersSubentManager
 90
        2
 90
        0
 90
        2
 90
        0
 90
        0
 90
        0
  0
DICTIONARY
  5
19
102
{ACAD_REACTORS
330
C
102
}
330
C
100
AcDbDictionary
281
     1
  0
ACDBDICTIONARYWDFLT
  5
E
102
{ACAD_REACTORS
330
C
102
}
330
C
100
AcDbDictionary
281
     1
  3
Normal
350
F
100
AcDbDictionaryWithDefault
340
F
  0
DICTIONARY
  5
10C
102
{ACAD_REACTORS
330
C
102
}
330
C
100
AcDbDictionary
281
     1
  3
A0
350
10D
  3
A1
350
1BE
  3
A2
350
1BF
  3
A3
350
1C0
  3
A4
350
1C1
  3
A5
350
1C2
  3
A6
350
1C3
  3
A7
350
1C4
  3
A8
350
1C5
  3
A9
350
1C6
  3
B0
350
1C7
  3
B1
350
1C8
  3
B2
350
1C9
  3
B3
350
1CA
  3
B4
350
1CB
  3
B5
350
1CC
  3
B6
350
1CD
  0
DICTIONARY
  5
219
102
{ACAD_REACTORS
330
C
102
}
330
C
100
AcDbDictionary
281
     1
  3
Metric50
350
7832
  0
DICTIONARY
  5
7E
102
{ACAD_REACTORS
330
C
102
}
330
C
100
AcDbDictionary
281
     1
  3
Standard
350
7F
  0
DICTIONARY
  5
EF
102
{ACAD_REACTORS
330
C
102
}
330
C
100
AcDbDictionary
281
     1
  3
2dWireframe
350
F5
  3
3D Hidden
350
4E1B
  3
3dWireframe
350
549
  3
Basic
350
F4
  3
Brighten
350
FB
  3
ColorChange
350
FF
  3
Conceptual
350
F8
  3
Dim
350
FA
  3
EdgeColorOff
350
1E6
  3
Facepattern
350
FE
  3
Flat
350
F0
  3
FlatWithEdges
350
F1
  3
Gouraud
350
F2
  3
GouraudWithEdges
350
F3
  3
Hidden
350
F7
  3
JitterOff
350
1E4
  3
Linepattern
350
FD
  3
OverhangOff
350
1E5
  3
Realistic
350
F9
  3
Shaded
350
1F3
  3
Shaded with edges
350
1F2
  3
Shades of Gray
350
1EF
  3
Sketchy
350
1F0
  3
Thicken
350
FC
  3
Wireframe
350
F6
  3
X-Ray
350
1F1
  0
XRECORD
  5
78D8
102
{ACAD_REACTORS
330
C
102
}
330
C
100
AcDbXrecord
280
     1
 90
        1
330
7F
330
4E7D
330
4E7E
330
4E80
330
4F35
330
4F38
330
4F40
330
4F41
330
4F4A
330
4F63
330
60D2
330
60D3
330
60D4
330
60DA
330
6A57
330
7418
330
7569
330
764B
330
765F
330
7660
330
7661
330
7662
330
772C
330
77FF
  0
DICTIONARY
  5
5E
102
{ACAD_REACTORS
330
C
102
}
330
C
100
AcDbDictionary
281
     1
  3
CANNOSCALE
350
146
  3
CMLEADERSTYLE
350
145
  3
CTABLESTYLE
350
84
  3
CVIEWDETAILSTYLE
350
227
  3
CVIEWSECTIONSTYLE
350
228
  3
DIMASSOC
350
5F
  3
HIDETEXT
350
63
  3
LAYEREVAL
350
1AE
  3
LAYERNOTIFY
350
1AF
  3
LIGHTINGUNITS
350
4FD2
  3
MSLTSCALE
350
4FD1
  3
SOLIDHIST
350
4FD3
  0
DICTIONARY
  5
78DE
102
{ACAD_REACTORS
330
C
102
}
330
C
100
AcDbDictionary
281
     1
  3
AcDsRecords
350
78E0
  3
AcDsSchemas
350
78DF
1001
ACAD
1070
     2
  0
DICTIONARY
  5
200
102
{ACAD_REACTORS
330
1FF
102
}
330
1FF
100
AcDbDictionary
281
     1
  0
ACAD_EVALUATION_GRAPH
  5
261
102
{ACAD_REACTORS
330
260
102
}
330
260
100
AcDbEvalGraph
 96
        1
 97
        1
 91
        0
 93
       32
 95
        1
360
262
 92
       -1
 92
       -1
 92
       -1
 92
       -1
  0
ACDB_DYNAMICBLOCKPURGEPREVENTER_VERSION
  5
263
102
{ACAD_REACTORS
330
260
102
}
330
260
100
AcDbDynamicBlockPurgePreventer
 70
     1
  0
ACAD_EVALUATION_GRAPH
  5
4AB5
102
{ACAD_REACTORS
330
4AB4
102
}
330
4AB4
100
AcDbEvalGraph
 96
        3
 97
        3
 91
        0
 93
       32
 95
        3
360
4AB6
 92
       -1
 92
       -1
 92
       -1
 92
       -1
  0
ACDB_DYNAMICBLOCKPURGEPREVENTER_VERSION
  5
4ABB
102
{ACAD_REACTORS
330
4AB4
102
}
330
4AB4
100
AcDbDynamicBlockPurgePreventer
 70
     1
  0
ACAD_EVALUATION_GRAPH
  5
4C06
102
{ACAD_REACTORS
330
4C05
102
}
330
4C05
100
AcDbEvalGraph
 96
        1
 97
        1
 91
        0
 93
       32
 95
        1
360
4C07
 92
       -1
 92
       -1
 92
       -1
 92
       -1
  0
ACDB_DYNAMICBLOCKPURGEPREVENTER_VERSION
  5
4C22
102
{ACAD_REACTORS
330
4C05
102
}
330
4C05
100
AcDbDynamicBlockPurgePreventer
 70
     1
  0
ACAD_EVALUATION_GRAPH
  5
286
102
{ACAD_REACTORS
330
285
102
}
330
285
100
AcDbEvalGraph
 96
        1
 97
        1
 91
        0
 93
       32
 95
        1
360
287
 92
       -1
 92
       -1
 92
       -1
 92
       -1
  0
ACDB_DYNAMICBLOCKPURGEPREVENTER_VERSION
  5
288
102
{ACAD_REACTORS
330
285
102
}
330
285
100
AcDbDynamicBlockPurgePreventer
 70
     1
  0
ACAD_EVALUATION_GRAPH
  5
292
102
{ACAD_REACTORS
330
291
102
}
330
291
100
AcDbEvalGraph
 96
        2
 97
        2
 91
        0
 93
       32
 95
        2
360
293
 92
       -1
 92
       -1
 92
       -1
 92
       -1
  0
SORTENTSTABLE
  5
294
102
{ACAD_REACTORS
330
291
102
}
330
291
100
AcDbSortentsTable
330
290
  0
ACDB_DYNAMICBLOCKPURGEPREVENTER_VERSION
  5
295
102
{ACAD_REACTORS
330
291
102
}
330
291
100
AcDbDynamicBlockPurgePreventer
 70
     1
  0
ACAD_EVALUATION_GRAPH
  5
2A6
102
{ACAD_REACTORS
330
2A5
102
}
330
2A5
100
AcDbEvalGraph
 96
        2
 97
        2
 91
        0
 93
       32
 95
        2
360
2A7
 92
       -1
 92
       -1
 92
       -1
 92
       -1
  0
ACDB_DYNAMICBLOCKPURGEPREVENTER_VERSION
  5
2A8
102
{ACAD_REACTORS
330
2A5
102
}
330
2A5
100
AcDbDynamicBlockPurgePreventer
 70
     1
  0
ACAD_EVALUATION_GRAPH
  5
2BD
102
{ACAD_REACTORS
330
2BC
102
}
330
2BC
100
AcDbEvalGraph
 96
        1
 97
        1
 91
        0
 93
       32
 95
        1
360
2BE
 92
       -1
 92
       -1
 92
       -1
 92
       -1
  0
ACDB_DYNAMICBLOCKPURGEPREVENTER_VERSION
  5
2BF
102
{ACAD_REACTORS
330
2BC
102
}
330
2BC
100
AcDbDynamicBlockPurgePreventer
 70
     1
  0
ACAD_EVALUATION_GRAPH
  5
2CF
102
{ACAD_REACTORS
330
2CE
102
}
330
2CE
100
AcDbEvalGraph
 96
        1
 97
        1
 91
        0
 93
       32
 95
        1
360
2D0
 92
       -1
 92
       -1
 92
       -1
 92
       -1
  0
ACDB_DYNAMICBLOCKPURGEPREVENTER_VERSION
  5
2D1
102
{ACAD_REACTORS
330
2CE
102
}
330
2CE
100
AcDbDynamicBlockPurgePreventer
 70
     1
  0
ACAD_EVALUATION_GRAPH
  5
2E6
102
{ACAD_REACTORS
330
2E5
102
}
330
2E5
100
AcDbEvalGraph
 96
        1
 97
        1
 91
        0
 93
       32
 95
        1
360
2E7
 92
       -1
 92
       -1
 92
       -1
 92
       -1
  0
ACDB_DYNAMICBLOCKPURGEPREVENTER_VERSION
  5
2E8
102
{ACAD_REACTORS
330
2E5
102
}
330
2E5
100
AcDbDynamicBlockPurgePreventer
 70
     1
  0
ACAD_EVALUATION_GRAPH
  5
2F2
102
{ACAD_REACTORS
330
2F1
102
}
330
2F1
100
AcDbEvalGraph
 96
        1
 97
        1
 91
        0
 93
       32
 95
        1
360
2F3
 92
       -1
 92
       -1
 92
       -1
 92
       -1
  0
ACDB_DYNAMICBLOCKPURGEPREVENTER_VERSION
  5
2F4
102
{ACAD_REACTORS
330
2F1
102
}
330
2F1
100
AcDbDynamicBlockPurgePreventer
 70
     1
  0
ACAD_EVALUATION_GRAPH
  5
1B9F
102
{ACAD_REACTORS
330
1B9E
102
}
330
1B9E
100
AcDbEvalGraph
 96
        1
 97
        1
 91
        0
 93
       32
 95
        1
360
1BA0
 92
       -1
 92
       -1
 92
       -1
 92
       -1
  0
ACDB_DYNAMICBLOCKPURGEPREVENTER_VERSION
  5
1BA1
102
{ACAD_REACTORS
330
1B9E
102
}
330
1B9E
100
AcDbDynamicBlockPurgePreventer
 70
     1
  0
ACAD_EVALUATION_GRAPH
  5
3B31
102
{ACAD_REACTORS
330
3B30
102
}
330
3B30
100
AcDbEvalGraph
 96
        1
 97
        1
 91
        0
 93
       32
 95
        1
360
3B32
 92
       -1
 92
       -1
 92
       -1
 92
       -1
  0
ACDB_DYNAMICBLOCKPURGEPREVENTER_VERSION
  5
3B33
102
{ACAD_REACTORS
330
3B30
102
}
330
3B30
100
AcDbDynamicBlockPurgePreventer
 70
     1
  0
SORTENTSTABLE
  5
6ACF
102
{ACAD_REACTORS
330
6ACE
102
}
330
6ACE
100
AcDbSortentsTable
330
6ABF
  0
SORTENTSTABLE
  5
7512
102
{ACAD_REACTORS
330
7511
102
}
330
7511
100
AcDbSortentsTable
330
7502
  0
DICTIONARY
  5
6A47
102
{ACAD_REACTORS
330
6A46
102
}
330
6A46
100
AcDbDictionary
280
     1
281
     1
  3
AcDbRepData
360
6A48
  3
AppDataCache
360
6A49
  0
DICTIONARY
  5
6A4E
102
{ACAD_REACTORS
330
6A4D
102
}
330
6A4D
100
AcDbDictionary
280
     1
281
     1
  3
AcDbRepData
360
6A4F
  3
AppDataCache
360
6A50
  0
DICTIONARY
  5
6A5B
102
{ACAD_REACTORS
330
6A5A
102
}
330
6A5A
100
AcDbDictionary
280
     1
281
     1
  3
AcDbRepData
360
6A5C
  3
AppDataCache
360
6A5D
  0
DICTIONARY
  5
6A62
102
{ACAD_REACTORS
330
6A61
102
}
330
6A61
100
AcDbDictionary
280
     1
281
     1
  3
AcDbRepData
360
6A63
  3
AppDataCache
360
6A64
  0
DICTIONARY
  5
6A69
102
{ACAD_REACTORS
330
6A68
102
}
330
6A68
100
AcDbDictionary
280
     1
281
     1
  3
AcDbRepData
360
6A6A
  3
AppDataCache
360
6A6B
  0
DICTIONARY
  5
6A72
102
{ACAD_REACTORS
330
6A71
102
}
330
6A71
100
AcDbDictionary
280
     1
281
     1
  3
AcDbRepData
360
6A73
  3
AppDataCache
360
6A74
  0
DICTIONARY
  5
6A79
102
{ACAD_REACTORS
330
6A78
102
}
330
6A78
100
AcDbDictionary
280
     1
281
     1
  3
AcDbRepData
360
6A7A
  3
AppDataCache
360
6A7B
  0
DICTIONARY
  5
6A80
102
{ACAD_REACTORS
330
6A7F
102
}
330
6A7F
100
AcDbDictionary
280
     1
281
     1
  3
AcDbRepData
360
6A81
  3
AppDataCache
360
6A82
  0
DICTIONARY
  5
6A87
102
{ACAD_REACTORS
330
6A86
102
}
330
6A86
100
AcDbDictionary
280
     1
281
     1
  3
AcDbRepData
360
6A88
  3
AppDataCache
360
6A89
  0
DICTIONARY
  5
6A8E
102
{ACAD_REACTORS
330
6A8D
102
}
330
6A8D
100
AcDbDictionary
280
     1
281
     1
  3
AcDbRepData
360
6A8F
  3
AppDataCache
360
6A90
  0
DICTIONARY
  5
6A95
102
{ACAD_REACTORS
330
6A94
102
}
330
6A94
100
AcDbDictionary
280
     1
281
     1
  3
AcDbRepData
360
6A96
  3
AppDataCache
360
6A97
  0
DICTIONARY
  5
6A9C
102
{ACAD_REACTORS
330
6A9B
102
}
330
6A9B
100
AcDbDictionary
280
     1
281
     1
  3
AcDbRepData
360
6A9D
  3
AppDataCache
360
6A9E
  0
DICTIONARY
  5
740C
102
{ACAD_REACTORS
330
740B
102
}
330
740B
100
AcDbDictionary
280
     1
281
     1
  3
AcDbRepData
360
740D
  3
AppDataCache
360
740E
  0
DICTIONARY
  5
7413
102
{ACAD_REACTORS
330
7412
102
}
330
7412
100
AcDbDictionary
280
     1
281
     1
  3
AcDbRepData
360
7414
  3
AppDataCache
360
7415
  0
DICTIONARY
  5
741B
102
{ACAD_REACTORS
330
741A
102
}
330
741A
100
AcDbDictionary
280
     1
281
     1
  3
AcDbRepData
360
741C
  3
AppDataCache
360
741D
  0
DICTIONARY
  5
752E
102
{ACAD_REACTORS
330
752D
102
}
330
752D
100
AcDbDictionary
280
     1
281
     1
  3
AcDbRepData
360
752F
  3
AppDataCache
360
7530
  0
DICTIONARY
  5
7536
102
{ACAD_REACTORS
330
7535
102
}
330
7535
100
AcDbDictionary
280
     1
281
     1
  3
AcDbRepData
360
7537
  3
AppDataCache
360
7538
  0
DICTIONARY
  5
753D
102
{ACAD_REACTORS
330
753C
102
}
330
753C
100
AcDbDictionary
280
     1
281
     1
  3
AcDbRepData
360
753E
  3
AppDataCache
360
753F
  0
DICTIONARY
  5
7544
102
{ACAD_REACTORS
330
7543
102
}
330
7543
100
AcDbDictionary
280
     1
281
     1
  3
AcDbRepData
360
7545
  3
AppDataCache
360
7546
  0
DICTIONARY
  5
754B
102
{ACAD_REACTORS
330
754A
102
}
330
754A
100
AcDbDictionary
280
     1
281
     1
  3
AcDbRepData
360
754C
  3
AppDataCache
360
754D
  0
DICTIONARY
  5
7553
102
{ACAD_REACTORS
330
7552
102
}
330
7552
100
AcDbDictionary
280
     1
281
     1
  3
AcDbRepData
360
7554
  3
AppDataCache
360
7555
  0
DICTIONARY
  5
755A
102
{ACAD_REACTORS
330
7559
102
}
330
7559
100
AcDbDictionary
280
     1
281
     1
  3
AcDbRepData
360
755B
  3
AppDataCache
360
755C
  0
DICTIONARY
  5
7562
102
{ACAD_REACTORS
330
7561
102
}
330
7561
100
AcDbDictionary
280
     1
281
     1
  3
AcDbRepData
360
7563
  3
AppDataCache
360
7564
  0
DICTIONARY
  5
7646
102
{ACAD_REACTORS
330
7645
102
}
330
7645
100
AcDbDictionary
280
     1
281
     1
  3
AcDbRepData
360
7647
  3
AppDataCache
360
7648
  0
DICTIONARY
  5
764F
102
{ACAD_REACTORS
330
764E
102
}
330
764E
100
AcDbDictionary
280
     1
281
     1
  3
AcDbRepData
360
7650
  3
AppDataCache
360
7651
  0
DICTIONARY
  5
7657
102
{ACAD_REACTORS
330
7656
102
}
330
7656
100
AcDbDictionary
280
     1
281
     1
  3
AcDbRepData
360
7658
  3
AppDataCache
360
7659
  0
DICTIONARY
  5
7720
102
{ACAD_REACTORS
330
771F
102
}
330
771F
100
AcDbDictionary
280
     1
281
     1
  3
AcDbRepData
360
7721
  3
AppDataCache
360
7722
  0
DICTIONARY
  5
7727
102
{ACAD_REACTORS
330
7726
102
}
330
7726
100
AcDbDictionary
280
     1
281
     1
  3
AcDbRepData
360
7728
  3
AppDataCache
360
7729
  0
DICTIONARY
  5
772F
102
{ACAD_REACTORS
330
772E
102
}
330
772E
100
AcDbDictionary
280
     1
281
     1
  3
AcDbRepData
360
7730
  3
AppDataCache
360
7731
  0
DICTIONARY
  5
7737
102
{ACAD_REACTORS
330
7736
102
}
330
7736
100
AcDbDictionary
280
     1
281
     1
  3
AcDbRepData
360
7738
  3
AppDataCache
360
7739
  0
DICTIONARY
  5
773E
102
{ACAD_REACTORS
330
773D
102
}
330
773D
100
AcDbDictionary
280
     1
281
     1
  3
AcDbRepData
360
773F
  3
AppDataCache
360
7740
  0
DICTIONARY
  5
77DF
102
{ACAD_REACTORS
330
77DE
102
}
330
77DE
100
AcDbDictionary
280
     1
281
     1
  3
AcDbRepData
360
77E0
  3
AppDataCache
360
77E1
  0
DICTIONARY
  5
77E7
102
{ACAD_REACTORS
330
77E6
102
}
330
77E6
100
AcDbDictionary
280
     1
281
     1
  3
AcDbRepData
360
77E8
  3
AppDataCache
360
77E9
  0
DICTIONARY
  5
77EE
102
{ACAD_REACTORS
330
77ED
102
}
330
77ED
100
AcDbDictionary
280
     1
281
     1
  3
AcDbRepData
360
77EF
  3
AppDataCache
360
77F0
  0
DICTIONARY
  5
77F7
102
{ACAD_REACTORS
330
77F6
102
}
330
77F6
100
AcDbDictionary
280
     1
281
     1
  3
AcDbRepData
360
77F8
  3
AppDataCache
360
77F9
  0
ACDBDETAILVIEWSTYLE
  5
7833
102
{ACAD_XDICTIONARY
360
7917
102
}
102
{ACAD_REACTORS
330
21B
102
}
330
21B
100
AcDbModelDocViewStyle
 70
     0
  3
Metric50
290
     0
100
AcDbDetailViewStyle
 70
     0
 71
     0
 90
        3
 71
     1
340
11
 62
   256
 40
5.0
340
0
 62
   256
 40
5.0
300

 40
0.0
280
     1
 71
     2
340
16
 90
       25
 62
   256
 71
     3
340
11
 62
   256
 40
5.0
 90
        0
 40
15.0
 90
        1
300
%<\AcVar ViewDetailId>% (%<\AcVar ViewScale \f "%sn">%)
 71
     4
340
16
 90
       25
 62
   256
340
16
 90
       25
 62
   256
280
     0
  0
LAYOUT
  5
22
102
{ACAD_XDICTIONARY
360
205
102
}
102
{ACAD_REACTORS
330
1A
102
}
330
1A
100
AcDbPlotSettings
  1

  2
none_device
  4
ISO_A4_(210.00_x_297.00_MM)
  6

 40
7.5
 41
20.0
 42
7.5
 43
20.0
 44
210.0
 45
297.0
 46
11.54999923706054
 47
-13.65000009536743
 48
0.0
 49
0.0
140
0.0
141
0.0
142
1.0
143
8.704084754739808
 70
 11952
 72
     1
 73
     0
 74
     0
  7

 75
     0
147
0.1148885871608098
 76
     0
 77
     2
 78
   300
148
0.0
149
0.0
100
AcDbLayout
  1
Model
 70
     1
 71
     0
 10
0.0
 20
0.0
 11
12.0
 21
9.0
 12
0.0
 22
0.0
 32
0.0
 14
0.0
 24
0.0
 34
0.0
 15
0.0
 25
0.0
 35
0.0
146
0.0
 13
0.0
 23
0.0
 33
0.0
 16
1.0
 26
0.0
 36
0.0
 17
0.0
 27
1.0
 37
0.0
 76
     0
330
1F
331
EA
1001
ACAD_PSEXT
1000
None
1000
None
1000
Not applicable
1000
The layout will not be plotted unless a new plotter configuration name is selected.
1070
     0
  0
LAYOUT
  5
D3
102
{ACAD_REACTORS
330
1A
102
}
330
1A
100
AcDbPlotSettings
  1

  2
C:\Documents and Settings\basas\Application Data\Autodesk\AutoCAD 2005\R16.1\enu\plotters\Default Windows System Printer.pc3
  4

  6

 40
0.0
 41
0.0
 42
0.0
 43
0.0
 44
0.0
 45
0.0
 46
0.0
 47
0.0
 48
0.0
 49
0.0
140
0.0
141
0.0
142
1.0
143
1.0
 70
   688
 72
     0
 73
     0
 74
     5
  7

 75
    16
147
1.0
 76
     0
 77
     2
 78
   300
148
0.0
149
0.0
100
AcDbLayout
  1
布局1
 70
     1
 71
     1
 10
0.0
 20
0.0
 11
12.0
 21
9.0
 12
0.0
 22
0.0
 32
0.0
 14
0.0
 24
0.0
 34
0.0
 15
0.0
 25
0.0
 35
0.0
146
0.0
 13
0.0
 23
0.0
 33
0.0
 16
1.0
 26
0.0
 36
0.0
 17
0.0
 27
1.0
 37
0.0
 76
     0
330
D2
  0
LAYOUT
  5
D7
102
{ACAD_REACTORS
330
1A
102
}
330
1A
100
AcDbPlotSettings
  1

  2
C:\Documents and Settings\basas\Application Data\Autodesk\AutoCAD 2005\R16.1\enu\plotters\Default Windows System Printer.pc3
  4

  6

 40
0.0
 41
0.0
 42
0.0
 43
0.0
 44
0.0
 45
0.0
 46
0.0
 47
0.0
 48
0.0
 49
0.0
140
0.0
141
0.0
142
1.0
143
1.0
 70
   688
 72
     0
 73
     0
 74
     5
  7

 75
    16
147
1.0
 76
     0
 77
     2
 78
   300
148
0.0
149
0.0
100
AcDbLayout
  1
布局2
 70
     1
 71
     2
 10
0.0
 20
0.0
 11
12.0
 21
9.0
 12
0.0
 22
0.0
 32
0.0
 14
0.0
 24
0.0
 34
0.0
 15
0.0
 25
0.0
 35
0.0
146
0.0
 13
0.0
 23
0.0
 33
0.0
 16
1.0
 26
0.0
 36
0.0
 17
0.0
 27
1.0
 37
0.0
 76
     0
330
D6
  0
MATERIAL
  5
ED
102
{ACAD_XDICTIONARY
360
1F9
102
}
102
{ACAD_REACTORS
330
6A
102
}
330
6A
100
AcDbMaterial
  1
ByBlock
 94
       63
  0
MATERIAL
  5
EC
102
{ACAD_XDICTIONARY
360
1F7
102
}
102
{ACAD_REACTORS
330
6A
102
}
330
6A
100
AcDbMaterial
  1
ByLayer
 94
       63
  0
MATERIAL
  5
EE
102
{ACAD_XDICTIONARY
360
173
102
}
102
{ACAD_REACTORS
330
6A
102
}
330
6A
100
AcDbMaterial
  1
Global
 43
0.0007999999797903
 43
0.0
 43
0.0
 43
0.0
 43
0.0
 43
0.0007999999797903
 43
0.0
 43
0.0
 43
0.0
 43
0.0
 43
1.0
 43
0.0
 43
0.0
 43
0.0
 43
0.0
 43
1.0
 49
0.0007999999797903
 49
0.0
 49
0.0
 49
0.0
 49
0.0
 49
0.0007999999797903
 49
0.0
 49
0.0
 49
0.0
 49
0.0
 49
1.0
 49
0.0
 49
0.0
 49
0.0
 49
0.0
 49
1.0
142
0.0007999999797903
142
0.0
142
0.0
142
0.0
142
0.0
142
0.0007999999797903
142
0.0
142
0.0
142
0.0
142
0.0
142
1.0
142
0.0
142
0.0
142
0.0
142
0.0
142
1.0
144
0.0007999999797903
144
0.0
144
0.0
144
0.0
144
0.0
144
0.0007999999797903
144
0.0
144
0.0
144
0.0
144
0.0
144
1.0
144
0.0
144
0.0
144
0.0
144
0.0
144
1.0
 94
       63
1001
ACAD
1070
    -1
1070
     3
1070
     0
1000

1071
        0
1070
     0
  0
MLEADERSTYLE
  5
13B
102
{ACAD_REACTORS
330
12D
102
}
330
12D
100
AcDbMLeaderStyle
179
     2
170
     2
171
     1
172
     0
 90
        2
 40
0.0
 41
0.0
173
     1
 91
-1056964608
340
14
 92
       -2
290
     1
 42
2.0
291
     1
 43
8.0
  3
Standard
 44
4.0
300

342
11
174
     1
178
     1
175
     1
176
     0
 93
-1056964608
 45
4.0
292
     0
297
     0
 46
4.0
 94
-1056964608
 47
1.0
 49
1.0
140
1.0
293
     1
141
0.0
294
     1
177
     0
142
1.0
295
     0
296
     1
143
3.75
271
     0
272
     9
273
     9
  0
MLEADERSTYLE
  5
12E
102
{ACAD_REACTORS
330
12D
102
}
330
12D
100
AcDbMLeaderStyle
179
     2
170
     2
171
     1
172
     0
 90
        2
 40
0.0
 41
0.0
173
     1
 91
-1056964608
340
14
 92
       -2
290
     1
 42
2.0
291
     1
 43
8.0
  3
Standard
 44
4.0
300

342
11
174
     1
178
     1
175
     1
176
     0
 93
-1056964608
 45
4.0
292
     0
297
     0
 46
4.0
 94
-1056964608
 47
1.0
 49
1.0
140
1.0
293
     1
141
0.0
294
     1
177
     0
142
1.0
295
     0
296
     0
143
3.75
271
     0
272
     9
273
     9
  0
MLINESTYLE
  5
18
102
{ACAD_REACTORS
330
17
102
}
330
17
100
AcDbMlineStyle
  2
STANDARD
 70
     0
  3

 62
   256
 51
90.0
 52
90.0
 71
     2
 49
0.5
 62
   256
  6
BYLAYER
 49
-0.5
 62
   256
  6
BYLAYER
  0
ACDBPLACEHOLDER
  5
F
102
{ACAD_REACTORS
330
E
102
}
330
E
  0
SCALE
  5
10D
102
{ACAD_REACTORS
330
10C
102
}
330
10C
100
AcDbScale
 70
     0
300
1:1
140
1.0
141
1.0
290
     1
  0
SCALE
  5
1BE
102
{ACAD_REACTORS
330
10C
102
}
330
10C
100
AcDbScale
 70
     0
300
1:2
140
1.0
141
2.0
290
     0
  0
SCALE
  5
1BF
102
{ACAD_REACTORS
330
10C
102
}
330
10C
100
AcDbScale
 70
     0
300
1:4
140
1.0
141
4.0
290
     0
  0
SCALE
  5
1C0
102
{ACAD_REACTORS
330
10C
102
}
330
10C
100
AcDbScale
 70
     0
300
1:5
140
1.0
141
5.0
290
     0
  0
SCALE
  5
1C1
102
{ACAD_REACTORS
330
10C
102
}
330
10C
100
AcDbScale
 70
     0
300
1:8
140
1.0
141
8.0
290
     0
  0
SCALE
  5
1C2
102
{ACAD_REACTORS
330
10C
102
}
330
10C
100
AcDbScale
 70
     0
300
1:10
140
1.0
141
10.0
290
     0
  0
SCALE
  5
1C3
102
{ACAD_REACTORS
330
10C
102
}
330
10C
100
AcDbScale
 70
     0
300
1:16
140
1.0
141
16.0
290
     0
  0
SCALE
  5
1C4
102
{ACAD_REACTORS
330
10C
102
}
330
10C
100
AcDbScale
 70
     0
300
1:20
140
1.0
141
20.0
290
     0
  0
SCALE
  5
1C5
102
{ACAD_REACTORS
330
10C
102
}
330
10C
100
AcDbScale
 70
     0
300
1:30
140
1.0
141
30.0
290
     0
  0
SCALE
  5
1C6
102
{ACAD_REACTORS
330
10C
102
}
330
10C
100
AcDbScale
 70
     0
300
1:40
140
1.0
141
40.0
290
     0
  0
SCALE
  5
1C7
102
{ACAD_REACTORS
330
10C
102
}
330
10C
100
AcDbScale
 70
     0
300
1:50
140
1.0
141
50.0
290
     0
  0
SCALE
  5
1C8
102
{ACAD_REACTORS
330
10C
102
}
330
10C
100
AcDbScale
 70
     0
300
1:100
140
1.0
141
100.0
290
     0
  0
SCALE
  5
1C9
102
{ACAD_REACTORS
330
10C
102
}
330
10C
100
AcDbScale
 70
     0
300
2:1
140
2.0
141
1.0
290
     0
  0
SCALE
  5
1CA
102
{ACAD_REACTORS
330
10C
102
}
330
10C
100
AcDbScale
 70
     0
300
4:1
140
4.0
141
1.0
290
     0
  0
SCALE
  5
1CB
102
{ACAD_REACTORS
330
10C
102
}
330
10C
100
AcDbScale
 70
     0
300
8:1
140
8.0
141
1.0
290
     0
  0
SCALE
  5
1CC
102
{ACAD_REACTORS
330
10C
102
}
330
10C
100
AcDbScale
 70
     0
300
10:1
140
10.0
141
1.0
290
     0
  0
SCALE
  5
1CD
102
{ACAD_REACTORS
330
10C
102
}
330
10C
100
AcDbScale
 70
     0
300
100:1
140
100.0
141
1.0
290
     0
  0
ACDBSECTIONVIEWSTYLE
  5
7832
102
{ACAD_XDICTIONARY
360
7915
102
}
102
{ACAD_REACTORS
330
219
102
}
330
219
100
AcDbModelDocViewStyle
 70
     0
  3
Metric50
290
     0
100
AcDbSectionViewStyle
 70
     0
 71
     0
 90
      102
 71
     1
340
11
 62
   256
 40
5.0
340
0
340
0
 62
   256
 40
5.0
300
I, O, Q, S, X, Z
 40
10.0
 90
        0
 40
2.5
 90
        0
 71
     2
340
16
 90
       25
 62
   256
340
16
 90
       50
 62
   256
 40
5.0
 40
2.5
 40
5.0
 71
     3
340
11
 62
   256
 40
5.0
 90
        0
 40
15.0
 90
        1
300
%<\AcVar ViewSectionStartId>%-%<\AcVar ViewSectionEndId>% (%<\AcVar ViewScale \f "%sn">%)
 71
     4
 62
   256
 62
   257
300
ANSI31
 40
1.0
 90
        0
290
     0
290
     0
 90
        6
 40
0.0
 40
1.570796326794896
 40
0.2617993877991494
 40
1.308996938995747
 40
-0.2617993877991494
 40
1.832595714594046
  0
TABLESTYLE
  5
7F
102
{ACAD_XDICTIONARY
360
162
102
}
102
{ACAD_REACTORS
330
7E
102
}
330
7E
100
AcDbTableStyle
280
     0
  3
Standard
 70
     0
 71
     0
 40
1.5
 41
1.5
280
     0
281
     0
  7
Standard
140
4.5
170
     2
 62
     0
 63
     7
283
     0
 90
      512
 91
        0
  1

274
    -2
284
     1
 64
     0
275
    -2
285
     1
 65
     0
276
    -2
286
     1
 66
     0
277
    -2
287
     1
 67
     0
278
    -2
288
     1
 68
     0
279
    -2
289
     1
 69
     0
  7
Standard
140
6.0
170
     5
 62
     0
 63
     7
283
     0
 90
      512
 91
        0
  1

274
    -2
284
     1
 64
     0
275
    -2
285
     1
 65
     0
276
    -2
286
     1
 66
     0
277
    -2
287
     1
 67
     0
278
    -2
288
     1
 68
     0
279
    -2
289
     1
 69
     0
  7
Standard
140
4.5
170
     5
 62
     0
 63
     7
283
     0
 90
      512
 91
        0
  1

274
    -2
284
     1
 64
     0
275
    -2
285
     1
 65
     0
276
    -2
286
     1
 66
     0
277
    -2
287
     1
 67
     0
278
    -2
288
     1
 68
     0
279
    -2
289
     1
 69
     0
  0
VISUALSTYLE
  5
F5
102
{ACAD_XDICTIONARY
360
78EB
102
}
102
{ACAD_REACTORS
330
EF
102
}
330
EF
100
AcDbVisualStyle
  2
2dWireframe
 70
     4
177
     2
291
     0
 71
     0
176
     1
 72
     2
176
     1
 73
     1
176
     1
 90
        0
176
     1
 40
0.6
176
     1
 41
30.0
176
     1
 63
     7
421
 16777215
176
     1
 74
     1
176
     1
 91
        4
176
     1
 64
     7
176
     1
 65
   257
176
     1
 75
     1
176
     1
175
     1
176
     1
 42
1.0
176
     1
 92
        0
176
     1
 66
   257
176
     1
 43
1.0
176
     1
 76
     1
176
     1
 77
     6
176
     1
 78
     2
176
     1
 67
     7
176
     1
 79
     5
176
     1
170
     0
176
     1
171
     0
176
     1
290
     0
176
     1
 93
        1
176
     1
 44
0.0
176
     1
173
     0
176
     1
1001
ACAD
1000
AcDbSavedByObjectVersion
1070
     0
  0
VISUALSTYLE
  5
4E1B
102
{ACAD_XDICTIONARY
360
7913
102
}
102
{ACAD_REACTORS
330
EF
102
}
330
EF
100
AcDbVisualStyle
  2
3D Hidden
 70
     6
177
     2
291
     0
 71
     1
176
     1
 72
     2
176
     1
 73
     2
176
     1
 90
        0
176
     1
 40
0.6
176
     1
 41
30.0
176
     1
 63
     7
421
 16777215
176
     1
 74
     2
176
     1
 91
        2
176
     1
 64
     7
176
     1
 65
   257
176
     1
 75
     2
176
     1
175
     1
176
     1
 42
179.0
176
     1
 92
        0
176
     1
 66
   257
176
     1
 43
1.0
176
     1
 76
     1
176
     1
 77
     6
176
     1
 78
     2
176
     1
 67
     7
176
     1
 79
     3
176
     1
170
     0
176
     1
171
     0
176
     1
290
     0
176
     1
 93
        1
176
     1
 44
0.0
176
     1
173
     0
176
     1
1001
ACAD
1000
AcDbSavedByObjectVersion
1070
     0
  0
VISUALSTYLE
  5
549
102
{ACAD_XDICTIONARY
360
7911
102
}
102
{ACAD_REACTORS
330
EF
102
}
330
EF
100
AcDbVisualStyle
  2
3dWireframe
 70
     5
177
     2
291
     0
 71
     0
176
     1
 72
     2
176
     1
 73
     0
176
     1
 90
        0
176
     1
 40
0.6
176
     1
 41
30.0
176
     1
 63
     7
421
 16777215
176
     1
 74
     1
176
     1
 91
        4
176
     1
 64
     7
176
     1
 65
   257
176
     1
 75
     1
176
     1
175
     1
176
     1
 42
1.0
176
     1
 92
        0
176
     1
 66
   257
176
     1
 43
1.0
176
     1
 76
     1
176
     1
 77
     6
176
     1
 78
     2
176
     1
 67
     7
176
     1
 79
     5
176
     1
170
     0
176
     1
171
     0
176
     1
290
     0
176
     1
 93
        1
176
     1
 44
0.0
176
     1
173
     0
176
     1
1001
ACAD
1000
AcDbSavedByObjectVersion
1070
     0
  0
VISUALSTYLE
  5
F4
102
{ACAD_XDICTIONARY
360
78E9
102
}
102
{ACAD_REACTORS
330
EF
102
}
330
EF
100
AcDbVisualStyle
  2
Basic
 70
     7
177
     2
291
     1
 71
     1
176
     1
 72
     0
176
     1
 73
     1
176
     1
 90
        0
176
     1
 40
0.6
176
     1
 41
30.0
176
     1
 63
     7
421
 16777215
176
     1
 74
     0
176
     1
 91
        4
176
     1
 64
     7
176
     1
 65
   257
176
     1
 75
     1
176
     1
175
     1
176
     1
 42
1.0
176
     1
 92
        8
176
     1
 66
     7
176
     1
 43
1.0
176
     1
 76
     1
176
     1
 77
     6
176
     1
 78
     2
176
     1
 67
     7
176
     1
 79
     5
176
     1
170
     0
176
     1
171
     0
176
     1
290
     0
176
     1
 93
        1
176
     1
 44
0.0
176
     1
173
     0
176
     1
1001
ACAD
1000
AcDbSavedByObjectVersion
1070
     0
  0
VISUALSTYLE
  5
FB
102
{ACAD_XDICTIONARY
360
78F7
102
}
102
{ACAD_REACTORS
330
EF
102
}
330
EF
100
AcDbVisualStyle
  2
Brighten
 70
    12
177
     2
291
     1
 71
     2
176
     1
 72
     2
176
     1
 73
     1
176
     1
 90
        0
176
     1
 40
0.6
176
     1
 41
30.0
176
     1
 63
     7
421
 16777215
176
     1
 74
     1
176
     1
 91
        4
176
     1
 64
     7
176
     1
 65
   257
176
     1
 75
     1
176
     1
175
     1
176
     1
 42
1.0
176
     1
 92
        8
176
     1
 66
     7
176
     1
 43
1.0
176
     1
 76
     1
176
     1
 77
     6
176
     1
 78
     2
176
     1
 67
     7
176
     1
 79
     5
176
     1
170
     0
176
     1
171
     0
176
     1
290
     0
176
     1
 93
        1
176
     1
 44
50.0
176
     1
173
     0
176
     1
1001
ACAD
1000
AcDbSavedByObjectVersion
1070
     0
  0
VISUALSTYLE
  5
FF
102
{ACAD_XDICTIONARY
360
78FF
102
}
102
{ACAD_REACTORS
330
EF
102
}
330
EF
100
AcDbVisualStyle
  2
ColorChange
 70
    16
177
     2
291
     1
 71
     2
176
     1
 72
     2
176
     1
 73
     3
176
     1
 90
        0
176
     1
 40
0.6
176
     1
 41
30.0
176
     1
 63
     8
421
  8421504
176
     1
 74
     1
176
     1
 91
        4
176
     1
 64
     7
176
     1
 65
   257
176
     1
 75
     1
176
     1
175
     1
176
     1
 42
1.0
176
     1
 92
        8
176
     1
 66
     8
424
  8421504
176
     1
 43
1.0
176
     1
 76
     1
176
     1
 77
     6
176
     1
 78
     2
176
     1
 67
     7
176
     1
 79
     5
176
     1
170
     0
176
     1
171
     0
176
     1
290
     0
176
     1
 93
        1
176
     1
 44
0.0
176
     1
173
     0
176
     1
1001
ACAD
1000
AcDbSavedByObjectVersion
1070
     0
  0
VISUALSTYLE
  5
F8
102
{ACAD_XDICTIONARY
360
78F1
102
}
102
{ACAD_REACTORS
330
EF
102
}
330
EF
100
AcDbVisualStyle
  2
Conceptual
 70
     9
177
     2
291
     0
 71
     3
176
     1
 72
     2
176
     1
 73
     1
176
     1
 90
        0
176
     1
 40
0.6
176
     1
 41
30.0
176
     1
 63
     7
421
 16777215
176
     1
 74
     2
176
     1
 91
        2
176
     1
 64
     7
176
     1
 65
   257
176
     1
 75
     1
176
     1
175
     1
176
     1
 42
40.0
176
     1
 92
        8
176
     1
 66
     7
176
     1
 43
1.0
176
     1
 76
     1
176
     1
 77
     6
176
     1
 78
     2
176
     1
 67
     7
176
     1
 79
     3
176
     1
170
     0
176
     1
171
     0
176
     1
290
     0
176
     1
 93
        1
176
     1
 44
0.0
176
     1
173
     0
176
     1
1001
ACAD
1000
AcDbSavedByObjectVersion
1070
     0
  0
VISUALSTYLE
  5
FA
102
{ACAD_XDICTIONARY
360
78F5
102
}
102
{ACAD_REACTORS
330
EF
102
}
330
EF
100
AcDbVisualStyle
  2
Dim
 70
    11
177
     2
291
     1
 71
     2
176
     1
 72
     2
176
     1
 73
     1
176
     1
 90
        0
176
     1
 40
0.6
176
     1
 41
30.0
176
     1
 63
     7
421
 16777215
176
     1
 74
     1
176
     1
 91
        4
176
     1
 64
     7
176
     1
 65
   257
176
     1
 75
     1
176
     1
175
     1
176
     1
 42
1.0
176
     1
 92
        8
176
     1
 66
     7
176
     1
 43
1.0
176
     1
 76
     1
176
     1
 77
     6
176
     1
 78
     2
176
     1
 67
     7
176
     1
 79
     5
176
     1
170
     0
176
     1
171
     0
176
     1
290
     0
176
     1
 93
        1
176
     1
 44
-50.0
176
     1
173
     0
176
     1
1001
ACAD
1000
AcDbSavedByObjectVersion
1070
     0
  0
VISUALSTYLE
  5
1E6
102
{ACAD_XDICTIONARY
360
7905
102
}
102
{ACAD_REACTORS
330
EF
102
}
330
EF
100
AcDbVisualStyle
  2
EdgeColorOff
 70
    22
177
     2
291
     1
 71
     2
176
     0
 72
     2
176
     0
 73
     0
176
     0
 90
        0
176
     0
 40
0.6
176
     0
 41
30.0
176
     0
 63
     7
421
 16777215
176
     0
 74
     1
176
     0
 91
        4
176
     0
 64
     7
176
     0
 65
   257
176
     0
 75
     1
176
     0
175
     1
176
     0
 42
1.0
176
     0
 92
        8
176
     2
 66
     7
176
     0
 43
1.0
176
     0
 76
     1
176
     0
 77
     6
176
     0
 78
     2
176
     0
 67
     7
176
     0
 79
     5
176
     0
170
     0
176
     0
171
     0
176
     0
290
     0
176
     0
 93
        1
176
     0
 44
0.0
176
     0
173
     0
176
     0
1001
ACAD
1000
AcDbSavedByObjectVersion
1070
     0
  0
VISUALSTYLE
  5
FE
102
{ACAD_XDICTIONARY
360
78FD
102
}
102
{ACAD_REACTORS
330
EF
102
}
330
EF
100
AcDbVisualStyle
  2
Facepattern
 70
    15
177
     2
291
     1
 71
     2
176
     1
 72
     2
176
     1
 73
     1
176
     1
 90
        0
176
     1
 40
0.6
176
     1
 41
30.0
176
     1
 63
     7
421
 16777215
176
     1
 74
     1
176
     1
 91
        4
176
     1
 64
     7
176
     1
 65
   257
176
     1
 75
     1
176
     1
175
     1
176
     1
 42
1.0
176
     1
 92
        8
176
     1
 66
     7
176
     1
 43
1.0
176
     1
 76
     1
176
     1
 77
     6
176
     1
 78
     2
176
     1
 67
     7
176
     1
 79
     5
176
     1
170
     0
176
     1
171
     0
176
     1
290
     0
176
     1
 93
        1
176
     1
 44
0.0
176
     1
173
     0
176
     1
1001
ACAD
1000
AcDbSavedByObjectVersion
1070
     0
  0
VISUALSTYLE
  5
F0
102
{ACAD_XDICTIONARY
360
78E1
102
}
102
{ACAD_REACTORS
330
EF
102
}
330
EF
100
AcDbVisualStyle
  2
Flat
 70
     0
177
     2
291
     1
 71
     2
176
     1
 72
     1
176
     1
 73
     1
176
     1
 90
        2
176
     1
 40
0.6
176
     1
 41
30.0
176
     1
 63
     7
421
 16777215
176
     1
 74
     0
176
     1
 91
        0
176
     1
 64
     7
176
     1
 65
   257
176
     1
 75
     1
176
     1
175
     1
176
     1
 42
1.0
176
     1
 92
        8
176
     1
 66
     7
176
     1
 43
1.0
176
     1
 76
     1
176
     1
 77
     6
176
     1
 78
     2
176
     1
 67
     7
176
     1
 79
     5
176
     1
170
     0
176
     1
171
     0
176
     1
290
     0
176
     1
 93
       13
176
     1
 44
0.0
176
     1
173
     0
176
     1
1001
ACAD
1000
AcDbSavedByObjectVersion
1070
     0
  0
VISUALSTYLE
  5
F1
102
{ACAD_XDICTIONARY
360
78E3
102
}
102
{ACAD_REACTORS
330
EF
102
}
330
EF
100
AcDbVisualStyle
  2
FlatWithEdges
 70
     1
177
     2
291
     1
 71
     2
176
     1
 72
     1
176
     1
 73
     1
176
     1
 90
        2
176
     1
 40
0.6
176
     1
 41
30.0
176
     1
 63
     7
421
 16777215
176
     1
 74
     1
176
     1
 91
        0
176
     1
 64
     7
176
     1
 65
   257
176
     1
 75
     1
176
     1
175
     1
176
     1
 42
1.0
176
     1
 92
        0
176
     1
 66
   257
176
     1
 43
1.0
176
     1
 76
     1
176
     1
 77
     6
176
     1
 78
     2
176
     1
 67
     7
176
     1
 79
     5
176
     1
170
     0
176
     1
171
     0
176
     1
290
     0
176
     1
 93
       13
176
     1
 44
0.0
176
     1
173
     0
176
     1
1001
ACAD
1000
AcDbSavedByObjectVersion
1070
     0
  0
VISUALSTYLE
  5
F2
102
{ACAD_XDICTIONARY
360
78E5
102
}
102
{ACAD_REACTORS
330
EF
102
}
330
EF
100
AcDbVisualStyle
  2
Gouraud
 70
     2
177
     2
291
     1
 71
     2
176
     1
 72
     2
176
     1
 73
     1
176
     1
 90
        2
176
     1
 40
0.6
176
     1
 41
30.0
176
     1
 63
     7
421
 16777215
176
     1
 74
     0
176
     1
 91
        0
176
     1
 64
     7
176
     1
 65
   257
176
     1
 75
     1
176
     1
175
     1
176
     1
 42
1.0
176
     1
 92
        0
176
     1
 66
     7
176
     1
 43
1.0
176
     1
 76
     1
176
     1
 77
     6
176
     1
 78
     2
176
     1
 67
     7
176
     1
 79
     5
176
     1
170
     0
176
     1
171
     0
176
     1
290
     0
176
     1
 93
       13
176
     1
 44
0.0
176
     1
173
     0
176
     1
1001
ACAD
1000
AcDbSavedByObjectVersion
1070
     0
  0
VISUALSTYLE
  5
F3
102
{ACAD_XDICTIONARY
360
78E7
102
}
102
{ACAD_REACTORS
330
EF
102
}
330
EF
100
AcDbVisualStyle
  2
GouraudWithEdges
 70
     3
177
     2
291
     1
 71
     2
176
     1
 72
     2
176
     1
 73
     1
176
     1
 90
        2
176
     1
 40
0.6
176
     1
 41
30.0
176
     1
 63
     7
421
 16777215
176
     1
 74
     1
176
     1
 91
        0
176
     1
 64
     7
176
     1
 65
   257
176
     1
 75
     1
176
     1
175
     1
176
     1
 42
1.0
176
     1
 92
        0
176
     1
 66
   257
176
     1
 43
1.0
176
     1
 76
     1
176
     1
 77
     6
176
     1
 78
     2
176
     1
 67
     7
176
     1
 79
     5
176
     1
170
     0
176
     1
171
     0
176
     1
290
     0
176
     1
 93
       13
176
     1
 44
0.0
176
     1
173
     0
176
     1
1001
ACAD
1000
AcDbSavedByObjectVersion
1070
     0
  0
VISUALSTYLE
  5
F7
102
{ACAD_XDICTIONARY
360
78EF
102
}
102
{ACAD_REACTORS
330
EF
102
}
330
EF
100
AcDbVisualStyle
  2
Hidden
 70
     6
177
     2
291
     0
 71
     1
176
     1
 72
     2
176
     1
 73
     2
176
     1
 90
        0
176
     1
 40
0.6
176
     1
 41
30.0
176
     1
 63
     7
421
 16777215
176
     1
 74
     2
176
     1
 91
        2
176
     1
 64
     7
176
     1
 65
   257
176
     1
 75
     2
176
     1
175
     1
176
     1
 42
40.0
176
     1
 92
        0
176
     1
 66
   257
176
     1
 43
1.0
176
     1
 76
     1
176
     1
 77
     6
176
     1
 78
     2
176
     1
 67
     7
176
     1
 79
     3
176
     1
170
     0
176
     1
171
     0
176
     1
290
     0
176
     1
 93
        1
176
     1
 44
0.0
176
     1
173
     0
176
     1
1001
ACAD
1000
AcDbSavedByObjectVersion
1070
     0
  0
VISUALSTYLE
  5
1E4
102
{ACAD_XDICTIONARY
360
7901
102
}
102
{ACAD_REACTORS
330
EF
102
}
330
EF
100
AcDbVisualStyle
  2
JitterOff
 70
    20
177
     2
291
     1
 71
     2
176
     0
 72
     2
176
     0
 73
     0
176
     0
 90
        0
176
     0
 40
0.6
176
     0
 41
30.0
176
     0
 63
     7
421
 16777215
176
     0
 74
     1
176
     0
 91
        4
176
     0
 64
     7
176
     0
 65
   257
176
     0
 75
     1
176
     0
175
     1
176
     0
 42
1.0
176
     0
 92
       10
176
     2
 66
     7
176
     0
 43
1.0
176
     0
 76
     1
176
     0
 77
     6
176
     0
 78
     2
176
     0
 67
     7
176
     0
 79
     5
176
     0
170
     0
176
     0
171
     0
176
     0
290
     0
176
     0
 93
        1
176
     0
 44
0.0
176
     0
173
     0
176
     0
1001
ACAD
1000
AcDbSavedByObjectVersion
1070
     0
  0
VISUALSTYLE
  5
FD
102
{ACAD_XDICTIONARY
360
78FB
102
}
102
{ACAD_REACTORS
330
EF
102
}
330
EF
100
AcDbVisualStyle
  2
Linepattern
 70
    14
177
     2
291
     1
 71
     2
176
     1
 72
     2
176
     1
 73
     1
176
     1
 90
        0
176
     1
 40
0.6
176
     1
 41
30.0
176
     1
 63
     7
421
 16777215
176
     1
 74
     1
176
     1
 91
        4
176
     1
 64
     7
176
     1
 65
   257
176
     1
 75
     7
176
     1
175
     7
176
     1
 42
1.0
176
     1
 92
        8
176
     1
 66
     7
176
     1
 43
1.0
176
     1
 76
     1
176
     1
 77
     6
176
     1
 78
     2
176
     1
 67
     7
176
     1
 79
     5
176
     1
170
     0
176
     1
171
     0
176
     1
290
     0
176
     1
 93
        1
176
     1
 44
0.0
176
     1
173
     0
176
     1
1001
ACAD
1000
AcDbSavedByObjectVersion
1070
     0
  0
VISUALSTYLE
  5
1E5
102
{ACAD_XDICTIONARY
360
7903
102
}
102
{ACAD_REACTORS
330
EF
102
}
330
EF
100
AcDbVisualStyle
  2
OverhangOff
 70
    21
177
     2
291
     1
 71
     2
176
     0
 72
     2
176
     0
 73
     0
176
     0
 90
        0
176
     0
 40
0.6
176
     0
 41
30.0
176
     0
 63
     7
421
 16777215
176
     0
 74
     1
176
     0
 91
        4
176
     0
 64
     7
176
     0
 65
   257
176
     0
 75
     1
176
     0
175
     1
176
     0
 42
1.0
176
     0
 92
        9
176
     2
 66
     7
176
     0
 43
1.0
176
     0
 76
     1
176
     0
 77
     6
176
     0
 78
     2
176
     0
 67
     7
176
     0
 79
     5
176
     0
170
     0
176
     0
171
     0
176
     0
290
     0
176
     0
 93
        1
176
     0
 44
0.0
176
     0
173
     0
176
     0
1001
ACAD
1000
AcDbSavedByObjectVersion
1070
     0
  0
VISUALSTYLE
  5
F9
102
{ACAD_XDICTIONARY
360
78F3
102
}
102
{ACAD_REACTORS
330
EF
102
}
330
EF
100
AcDbVisualStyle
  2
Realistic
 70
     8
177
     2
291
     0
 71
     2
176
     1
 72
     2
176
     1
 73
     0
176
     1
 90
        2
176
     1
 40
0.6
176
     1
 41
30.0
176
     1
 63
     7
421
 16777215
176
     1
 74
     0
176
     1
 91
        0
176
     1
 64
     7
176
     1
 65
   257
176
     1
 75
     1
176
     1
175
     1
176
     1
 42
1.0
176
     1
 92
        8
176
     1
 66
   257
176
     1
 43
1.0
176
     1
 76
     1
176
     1
 77
     6
176
     1
 78
     2
176
     1
 67
     7
176
     1
 79
     3
176
     1
170
     0
176
     1
171
     0
176
     1
290
     0
176
     1
 93
       13
176
     1
 44
0.0
176
     1
173
     0
176
     1
1001
ACAD
1000
AcDbSavedByObjectVersion
1070
     0
  0
VISUALSTYLE
  5
1F3
102
{ACAD_XDICTIONARY
360
790F
102
}
102
{ACAD_REACTORS
330
EF
102
}
330
EF
100
AcDbVisualStyle
  2
Shaded
 70
    27
177
     2
291
     0
 71
     2
176
     1
 72
     2
176
     1
 73
     1
176
     1
 90
        2
176
     1
 40
0.6
176
     1
 41
30.0
176
     1
 63
     7
421
 16777215
176
     1
 74
     0
176
     1
 91
        4
176
     1
 64
     7
176
     1
 65
   257
176
     1
 75
     1
176
     1
175
     1
176
     1
 42
1.0
176
     1
 92
        8
176
     1
 66
   257
176
     1
 43
1.0
176
     1
 76
     1
176
     1
 77
     6
176
     1
 78
     2
176
     1
 67
     8
425
  7895160
176
     1
 79
     3
176
     1
170
     0
176
     1
171
     0
176
     1
290
     0
176
     1
 93
        5
176
     1
 44
0.0
176
     1
173
     0
176
     1
1001
ACAD
1000
AcDbSavedByObjectVersion
1070
     0
  0
VISUALSTYLE
  5
1F2
102
{ACAD_XDICTIONARY
360
790D
102
}
102
{ACAD_REACTORS
330
EF
102
}
330
EF
100
AcDbVisualStyle
  2
Shaded with edges
 70
    26
177
     2
291
     0
 71
     2
176
     1
 72
     2
176
     1
 73
     1
176
     1
 90
        2
176
     1
 40
0.6
176
     1
 41
30.0
176
     1
 63
     7
421
 16777215
176
     1
 74
     1
176
     1
 91
       10
176
     1
 64
     7
176
     1
 65
   257
176
     1
 75
     2
176
     1
175
     1
176
     1
 42
1.0
176
     1
 92
        8
176
     1
 66
   257
176
     1
 43
1.0
176
     1
 76
     1
176
     1
 77
     6
176
     1
 78
     2
176
     1
 67
     7
176
     1
 79
     3
176
     1
170
     0
176
     1
171
     0
176
     1
290
     0
176
     1
 93
        5
176
     1
 44
0.0
176
     1
173
     0
176
     1
1001
ACAD
1000
AcDbSavedByObjectVersion
1070
     0
  0
VISUALSTYLE
  5
1EF
102
{ACAD_XDICTIONARY
360
7907
102
}
102
{ACAD_REACTORS
330
EF
102
}
330
EF
100
AcDbVisualStyle
  2
Shades of Gray
 70
    23
177
     2
291
     0
 71
     2
176
     1
 72
     2
176
     1
 73
     3
176
     1
 90
        0
176
     1
 40
0.6
176
     1
 41
30.0
176
     1
 63
     7
421
 16777215
176
     1
 74
     2
176
     1
 91
        2
176
     1
 64
     7
176
     1
 65
     7
176
     1
 75
     1
176
     1
175
     1
176
     1
 42
40.0
176
     1
 92
        8
176
     1
 66
     7
176
     1
 43
1.0
176
     1
 76
     1
176
     1
 77
     6
176
     1
 78
     2
176
     1
 67
     7
176
     1
 79
     3
176
     1
170
     0
176
     1
171
     0
176
     1
290
     0
176
     1
 93
        1
176
     1
 44
0.0
176
     1
173
     0
176
     1
1001
ACAD
1000
AcDbSavedByObjectVersion
1070
     0
  0
VISUALSTYLE
  5
1F0
102
{ACAD_XDICTIONARY
360
7909
102
}
102
{ACAD_REACTORS
330
EF
102
}
330
EF
100
AcDbVisualStyle
  2
Sketchy
 70
    24
177
     2
291
     0
 71
     1
176
     1
 72
     2
176
     1
 73
     2
176
     1
 90
        0
176
     1
 40
0.6
176
     1
 41
30.0
176
     1
 63
     7
421
 16777215
176
     1
 74
     2
176
     1
 91
        2
176
     1
 64
     7
176
     1
 65
     7
176
     1
 75
     1
176
     1
175
     1
176
     1
 42
40.0
176
     1
 92
       11
176
     1
 66
     7
176
     1
 43
1.0
176
     1
 76
     1
176
     1
 77
     6
176
     1
 78
     2
176
     1
 67
     7
176
     1
 79
     6
176
     1
170
     0
176
     1
171
     0
176
     1
290
     0
176
     1
 93
        1
176
     1
 44
0.0
176
     1
173
     0
176
     1
1001
ACAD
1000
AcDbSavedByObjectVersion
1070
     0
  0
VISUALSTYLE
  5
FC
102
{ACAD_XDICTIONARY
360
78F9
102
}
102
{ACAD_REACTORS
330
EF
102
}
330
EF
100
AcDbVisualStyle
  2
Thicken
 70
    13
177
     2
291
     1
 71
     2
176
     1
 72
     2
176
     1
 73
     1
176
     1
 90
        0
176
     1
 40
0.6
176
     1
 41
30.0
176
     1
 63
     7
421
 16777215
176
     1
 74
     1
176
     1
 91
        4
176
     1
 64
     7
176
     1
 65
   257
176
     1
 75
     1
176
     1
175
     1
176
     1
 42
1.0
176
     1
 92
       12
176
     1
 66
     7
176
     1
 43
1.0
176
     1
 76
     1
176
     1
 77
     6
176
     1
 78
     2
176
     1
 67
     7
176
     1
 79
     5
176
     1
170
     0
176
     1
171
     0
176
     1
290
     0
176
     1
 93
        1
176
     1
 44
0.0
176
     1
173
     0
176
     1
1001
ACAD
1000
AcDbSavedByObjectVersion
1070
     0
  0
VISUALSTYLE
  5
F6
102
{ACAD_XDICTIONARY
360
78ED
102
}
102
{ACAD_REACTORS
330
EF
102
}
330
EF
100
AcDbVisualStyle
  2
Wireframe
 70
     5
177
     2
291
     0
 71
     0
176
     1
 72
     2
176
     1
 73
     0
176
     1
 90
        0
176
     1
 40
0.6
176
     1
 41
30.0
176
     1
 63
     7
421
 16777215
176
     1
 74
     1
176
     1
 91
        4
176
     1
 64
     7
176
     1
 65
   257
176
     1
 75
     1
176
     1
175
     1
176
     1
 42
1.0
176
     1
 92
        0
176
     1
 66
   257
176
     1
 43
1.0
176
     1
 76
     1
176
     1
 77
     6
176
     1
 78
     2
176
     1
 67
     7
176
     1
 79
     3
176
     1
170
     0
176
     1
171
     0
176
     1
290
     0
176
     1
 93
        1
176
     1
 44
0.0
176
     1
173
     0
176
     1
1001
ACAD
1000
AcDbSavedByObjectVersion
1070
     0
  0
VISUALSTYLE
  5
1F1
102
{ACAD_XDICTIONARY
360
790B
102
}
102
{ACAD_REACTORS
330
EF
102
}
330
EF
100
AcDbVisualStyle
  2
X-Ray
 70
    25
177
     2
291
     0
 71
     2
176
     1
 72
     2
176
     1
 73
     1
176
     1
 90
        1
176
     1
 40
0.5
176
     1
 41
30.0
176
     1
 63
     7
421
 16777215
176
     1
 74
     1
176
     1
 91
        0
176
     1
 64
     7
176
     1
 65
   257
176
     1
 75
     1
176
     1
175
     1
176
     1
 42
1.0
176
     1
 92
        8
176
     1
 66
     7
176
     1
 43
1.0
176
     1
 76
     1
176
     1
 77
     6
176
     1
 78
     2
176
     1
 67
     7
176
     1
 79
     3
176
     1
170
     0
176
     1
171
     0
176
     1
290
     0
176
     1
 93
       13
176
     1
 44
0.0
176
     1
173
     0
176
     1
1001
ACAD
1000
AcDbSavedByObjectVersion
1070
     0
  0
DICTIONARYVAR
  5
146
102
{ACAD_REACTORS
330
5E
102
}
330
5E
100
DictionaryVariables
280
     0
  1
1:1
  0
DICTIONARYVAR
  5
145
102
{ACAD_REACTORS
330
5E
102
}
330
5E
100
DictionaryVariables
280
     0
  1
STANDARD
  0
DICTIONARYVAR
  5
84
102
{ACAD_REACTORS
330
5E
102
}
330
5E
100
DictionaryVariables
280
     0
  1
STANDARD
  0
DICTIONARYVAR
  5
227
102
{ACAD_REACTORS
330
5E
102
}
330
5E
100
DictionaryVariables
280
     0
  1
Metric50
  0
DICTIONARYVAR
  5
228
102
{ACAD_REACTORS
330
5E
102
}
330
5E
100
DictionaryVariables
280
     0
  1
Metric50
  0
DICTIONARYVAR
  5
5F
102
{ACAD_REACTORS
330
5E
102
}
330
5E
100
DictionaryVariables
280
     0
  1
2
  0
DICTIONARYVAR
  5
63
102
{ACAD_REACTORS
330
5E
102
}
330
5E
100
DictionaryVariables
280
     0
  1
1
  0
DICTIONARYVAR
  5
1AE
102
{ACAD_REACTORS
330
5E
102
}
330
5E
100
DictionaryVariables
280
     0
  1
0
  0
DICTIONARYVAR
  5
1AF
102
{ACAD_REACTORS
330
5E
102
}
330
5E
100
DictionaryVariables
280
     0
  1
0
  0
DICTIONARYVAR
  5
4FD2
102
{ACAD_REACTORS
330
5E
102
}
330
5E
100
DictionaryVariables
280
     0
  1
2
  0
DICTIONARYVAR
  5
4FD1
102
{ACAD_REACTORS
330
5E
102
}
330
5E
100
DictionaryVariables
280
     0
  1
1
  0
DICTIONARYVAR
  5
4FD3
102
{ACAD_REACTORS
330
5E
102
}
330
5E
100
DictionaryVariables
280
     0
  1
0
  0
DICTIONARY
  5
78E0
102
{ACAD_REACTORS
330
78DE
102
}
330
78DE
100
AcDbDictionary
281
     1
  0
DICTIONARY
  5
78DF
102
{ACAD_REACTORS
330
78DE
102
}
330
78DE
100
AcDbDictionary
281
     1
  3
140696539431312
350
78D9
  3
140696539431328
350
78DA
  3
140696539431344
350
78DB
  3
140696539431360
350
78DC
  3
140696539431376
350
78DD
  0
BLOCKBASEPOINTPARAMETER
  5
262
330
261
100
AcDbEvalExpr
 90
        1
 98
       31
 99
      105
100
AcDbBlockElement
300
基点
 98
       31
 99
      105
1071
        0
100
AcDbBlockParameter
280
     1
281
     0
100
AcDbBlock1PtParameter
1010
574.0
1020
-16.0
1030
0.0
 93
        0
170
     0
171
     0
100
AcDbBlockBasepointParameter
1011
0.0
1021
0.0
1031
0.0
1012
0.0
1022
0.0
1032
0.0
  0
BLOCKBASEPOINTPARAMETER
  5
4AB6
330
4AB5
100
AcDbEvalExpr
 90
        3
 98
       31
 99
      105
100
AcDbBlockElement
300
基点
 98
       31
 99
      105
1071
        0
100
AcDbBlockParameter
280
     1
281
     0
100
AcDbBlock1PtParameter
1010
10.0
1020
8.0
1030
0.0
 93
        0
170
     0
171
     0
100
AcDbBlockBasepointParameter
1011
0.0
1021
0.0
1031
0.0
1012
0.0
1022
0.0
1032
0.0
  0
BLOCKBASEPOINTPARAMETER
  5
4C07
330
4C06
100
AcDbEvalExpr
 90
        1
 98
       31
 99
      105
100
AcDbBlockElement
300
基点
 98
       31
 99
      105
1071
        0
100
AcDbBlockParameter
280
     1
281
     0
100
AcDbBlock1PtParameter
1010
526.0
1020
-12.0
1030
0.0
 93
        0
170
     0
171
     0
100
AcDbBlockBasepointParameter
1011
0.0
1021
0.0
1031
0.0
1012
0.0
1022
0.0
1032
0.0
  0
BLOCKBASEPOINTPARAMETER
  5
287
330
286
100
AcDbEvalExpr
 90
        1
 98
       31
 99
      105
100
AcDbBlockElement
300
基点
 98
       31
 99
      105
1071
        0
100
AcDbBlockParameter
280
     1
281
     0
100
AcDbBlock1PtParameter
1010
760.2617187069327
1020
180.0000006787022
1030
0.0
 93
        0
170
     0
171
     0
100
AcDbBlockBasepointParameter
1011
0.0
1021
0.0
1031
0.0
1012
0.0
1022
0.0
1032
0.0
  0
BLOCKBASEPOINTPARAMETER
  5
293
330
292
100
AcDbEvalExpr
 90
        2
 98
       31
 99
      105
100
AcDbBlockElement
300
基点
 98
       31
 99
      105
1071
        0
100
AcDbBlockParameter
280
     1
281
     0
100
AcDbBlock1PtParameter
1010
8.0
1020
20.0
1030
0.0
 93
        0
170
     0
171
     0
100
AcDbBlockBasepointParameter
1011
0.0
1021
0.0
1031
0.0
1012
0.0
1022
0.0
1032
0.0
  0
BLOCKBASEPOINTPARAMETER
  5
2A7
330
2A6
100
AcDbEvalExpr
 90
        2
 98
       31
 99
      105
100
AcDbBlockElement
300
基点
 98
       31
 99
      105
1071
        0
100
AcDbBlockParameter
280
     1
281
     0
100
AcDbBlock1PtParameter
1010
38.0
1020
26.0
1030
0.0
 93
        0
170
     0
171
     0
100
AcDbBlockBasepointParameter
1011
0.0
1021
0.0
1031
0.0
1012
0.0
1022
0.0
1032
0.0
  0
BLOCKBASEPOINTPARAMETER
  5
2BE
330
2BD
100
AcDbEvalExpr
 90
        1
 98
       31
 99
      105
100
AcDbBlockElement
300
基点
 98
       31
 99
      105
1071
        0
100
AcDbBlockParameter
280
     1
281
     0
100
AcDbBlock1PtParameter
1010
730.0000028050353
1020
329.1974953861529
1030
0.0
 93
        0
170
     0
171
     0
100
AcDbBlockBasepointParameter
1011
0.0
1021
0.0
1031
0.0
1012
0.0
1022
0.0
1032
0.0
  0
BLOCKBASEPOINTPARAMETER
  5
2D0
330
2CF
100
AcDbEvalExpr
 90
        1
 98
       31
 99
      105
100
AcDbBlockElement
300
基点
 98
       31
 99
      105
1071
        0
100
AcDbBlockParameter
280
     1
281
     0
100
AcDbBlock1PtParameter
1010
831.8544171006832
1020
329.1974957089185
1030
0.0
 93
        0
170
     0
171
     0
100
AcDbBlockBasepointParameter
1011
0.0
1021
0.0
1031
0.0
1012
0.0
1022
0.0
1032
0.0
  0
BLOCKBASEPOINTPARAMETER
  5
2E7
330
2E6
100
AcDbEvalExpr
 90
        1
 98
       31
 99
      105
100
AcDbBlockElement
300
基点
 98
       31
 99
      105
1071
        0
100
AcDbBlockParameter
280
     1
281
     0
100
AcDbBlock1PtParameter
1010
574.0
1020
-16.0
1030
0.0
 93
        0
170
     0
171
     0
100
AcDbBlockBasepointParameter
1011
0.0
1021
0.0
1031
0.0
1012
0.0
1022
0.0
1032
0.0
  0
BLOCKBASEPOINTPARAMETER
  5
2F3
330
2F2
100
AcDbEvalExpr
 90
        1
 98
       31
 99
      105
100
AcDbBlockElement
300
基点
 98
       31
 99
      105
1071
        0
100
AcDbBlockParameter
280
     1
281
     0
100
AcDbBlock1PtParameter
1010
914.3409028833502
1020
325.8183246582207
1030
0.0
 93
        0
170
     0
171
     0
100
AcDbBlockBasepointParameter
1011
0.0
1021
0.0
1031
0.0
1012
0.0
1022
0.0
1032
0.0
  0
BLOCKBASEPOINTPARAMETER
  5
1BA0
330
1B9F
100
AcDbEvalExpr
 90
        1
 98
       31
 99
      105
100
AcDbBlockElement
300
基点
 98
       31
 99
      105
1071
        0
100
AcDbBlockParameter
280
     1
281
     0
100
AcDbBlock1PtParameter
1010
428.0
1020
-8.0
1030
0.0
 93
        0
170
     0
171
     0
100
AcDbBlockBasepointParameter
1011
0.0
1021
0.0
1031
0.0
1012
0.0
1022
0.0
1032
0.0
  0
BLOCKBASEPOINTPARAMETER
  5
3B32
330
3B31
100
AcDbEvalExpr
 90
        1
 98
       31
 99
      105
100
AcDbBlockElement
300
基点
 98
       31
 99
      105
1071
        0
100
AcDbBlockParameter
280
     1
281
     0
100
AcDbBlock1PtParameter
1010
9341.869952604467
1020
961.1197016149736
1030
0.0
 93
        0
170
     0
171
     0
100
AcDbBlockBasepointParameter
1011
0.0
1021
0.0
1031
0.0
1012
0.0
1022
0.0
1032
0.0
  0
ACDB_BLOCKREPRESENTATION_DATA
  5
6A48
102
{ACAD_REACTORS
330
6A47
102
}
330
6A47
100
AcDbBlockRepresentationData
 70
     1
340
25F
  0
DICTIONARY
  5
6A49
102
{ACAD_REACTORS
330
6A47
102
}
330
6A47
100
AcDbDictionary
280
     1
281
     1
  3
ACAD_ENHANCEDBLOCKDATA
360
6B4B
  0
ACDB_BLOCKREPRESENTATION_DATA
  5
6A4F
102
{ACAD_REACTORS
330
6A4E
102
}
330
6A4E
100
AcDbBlockRepresentationData
 70
     1
340
284
  0
DICTIONARY
  5
6A50
102
{ACAD_REACTORS
330
6A4E
102
}
330
6A4E
100
AcDbDictionary
280
     1
281
     1
  3
ACAD_ENHANCEDBLOCKDATA
360
6AAE
  0
ACDB_BLOCKREPRESENTATION_DATA
  5
6A5C
102
{ACAD_REACTORS
330
6A5B
102
}
330
6A5B
100
AcDbBlockRepresentationData
 70
     1
340
279
  0
DICTIONARY
  5
6A5D
102
{ACAD_REACTORS
330
6A5B
102
}
330
6A5B
100
AcDbDictionary
280
     1
281
     1
  3
ACAD_ENHANCEDBLOCKDATA
360
6ABD
  0
ACDB_BLOCKREPRESENTATION_DATA
  5
6A63
102
{ACAD_REACTORS
330
6A62
102
}
330
6A62
100
AcDbBlockRepresentationData
 70
     1
340
290
  0
DICTIONARY
  5
6A64
102
{ACAD_REACTORS
330
6A62
102
}
330
6A62
100
AcDbDictionary
280
     1
281
     1
  3
ACAD_ENHANCEDBLOCKDATA
360
6AD0
  0
ACDB_BLOCKREPRESENTATION_DATA
  5
6A6A
102
{ACAD_REACTORS
330
6A69
102
}
330
6A69
100
AcDbBlockRepresentationData
 70
     1
340
26D
  0
DICTIONARY
  5
6A6B
102
{ACAD_REACTORS
330
6A69
102
}
330
6A69
100
AcDbDictionary
280
     1
281
     1
  3
ACAD_ENHANCEDBLOCKDATA
360
6ADB
  0
ACDB_BLOCKREPRESENTATION_DATA
  5
6A73
102
{ACAD_REACTORS
330
6A72
102
}
330
6A72
100
AcDbBlockRepresentationData
 70
     1
340
2A4
  0
DICTIONARY
  5
6A74
102
{ACAD_REACTORS
330
6A72
102
}
330
6A72
100
AcDbDictionary
280
     1
281
     1
  3
ACAD_ENHANCEDBLOCKDATA
360
6AF1
  0
ACDB_BLOCKREPRESENTATION_DATA
  5
6A7A
102
{ACAD_REACTORS
330
6A79
102
}
330
6A79
100
AcDbBlockRepresentationData
 70
     1
340
26D
  0
DICTIONARY
  5
6A7B
102
{ACAD_REACTORS
330
6A79
102
}
330
6A79
100
AcDbDictionary
280
     1
281
     1
  3
ACAD_ENHANCEDBLOCKDATA
360
6AFC
  0
ACDB_BLOCKREPRESENTATION_DATA
  5
6A81
102
{ACAD_REACTORS
330
6A80
102
}
330
6A80
100
AcDbBlockRepresentationData
 70
     1
340
2E4
  0
DICTIONARY
  5
6A82
102
{ACAD_REACTORS
330
6A80
102
}
330
6A80
100
AcDbDictionary
280
     1
281
     1
  3
ACAD_ENHANCEDBLOCKDATA
360
6B07
  0
ACDB_BLOCKREPRESENTATION_DATA
  5
6A88
102
{ACAD_REACTORS
330
6A87
102
}
330
6A87
100
AcDbBlockRepresentationData
 70
     1
340
2E4
  0
DICTIONARY
  5
6A89
102
{ACAD_REACTORS
330
6A87
102
}
330
6A87
100
AcDbDictionary
280
     1
281
     1
  3
ACAD_ENHANCEDBLOCKDATA
360
6B12
  0
ACDB_BLOCKREPRESENTATION_DATA
  5
6A8F
102
{ACAD_REACTORS
330
6A8E
102
}
330
6A8E
100
AcDbBlockRepresentationData
 70
     1
340
2E4
  0
DICTIONARY
  5
6A90
102
{ACAD_REACTORS
330
6A8E
102
}
330
6A8E
100
AcDbDictionary
280
     1
281
     1
  3
ACAD_ENHANCEDBLOCKDATA
360
6B1D
  0
ACDB_BLOCKREPRESENTATION_DATA
  5
6A96
102
{ACAD_REACTORS
330
6A95
102
}
330
6A95
100
AcDbBlockRepresentationData
 70
     1
340
2E4
  0
DICTIONARY
  5
6A97
102
{ACAD_REACTORS
330
6A95
102
}
330
6A95
100
AcDbDictionary
280
     1
281
     1
  3
ACAD_ENHANCEDBLOCKDATA
360
6B28
  0
ACDB_BLOCKREPRESENTATION_DATA
  5
6A9D
102
{ACAD_REACTORS
330
6A9C
102
}
330
6A9C
100
AcDbBlockRepresentationData
 70
     1
340
2CD
  0
DICTIONARY
  5
6A9E
102
{ACAD_REACTORS
330
6A9C
102
}
330
6A9C
100
AcDbDictionary
280
     1
281
     1
  3
ACAD_ENHANCEDBLOCKDATA
360
6B3E
  0
ACDB_BLOCKREPRESENTATION_DATA
  5
740D
102
{ACAD_REACTORS
330
740C
102
}
330
740C
100
AcDbBlockRepresentationData
 70
     1
340
1B9D
  0
DICTIONARY
  5
740E
102
{ACAD_REACTORS
330
740C
102
}
330
740C
100
AcDbDictionary
280
     1
281
     1
  3
ACAD_ENHANCEDBLOCKDATA
360
740F
  0
ACDB_BLOCKREPRESENTATION_DATA
  5
7414
102
{ACAD_REACTORS
330
7413
102
}
330
7413
100
AcDbBlockRepresentationData
 70
     1
340
284
  0
DICTIONARY
  5
7415
102
{ACAD_REACTORS
330
7413
102
}
330
7413
100
AcDbDictionary
280
     1
281
     1
  3
ACAD_ENHANCEDBLOCKDATA
360
7416
  0
ACDB_BLOCKREPRESENTATION_DATA
  5
741C
102
{ACAD_REACTORS
330
741B
102
}
330
741B
100
AcDbBlockRepresentationData
 70
     1
340
284
  0
DICTIONARY
  5
741D
102
{ACAD_REACTORS
330
741B
102
}
330
741B
100
AcDbDictionary
280
     1
281
     1
  3
ACAD_ENHANCEDBLOCKDATA
360
741E
  0
ACDB_BLOCKREPRESENTATION_DATA
  5
752F
102
{ACAD_REACTORS
330
752E
102
}
330
752E
100
AcDbBlockRepresentationData
 70
     1
340
2CD
  0
DICTIONARY
  5
7530
102
{ACAD_REACTORS
330
752E
102
}
330
752E
100
AcDbDictionary
280
     1
281
     1
  3
ACAD_ENHANCEDBLOCKDATA
360
7531
  0
ACDB_BLOCKREPRESENTATION_DATA
  5
7537
102
{ACAD_REACTORS
330
7536
102
}
330
7536
100
AcDbBlockRepresentationData
 70
     1
340
2E4
  0
DICTIONARY
  5
7538
102
{ACAD_REACTORS
330
7536
102
}
330
7536
100
AcDbDictionary
280
     1
281
     1
  3
ACAD_ENHANCEDBLOCKDATA
360
7539
  0
ACDB_BLOCKREPRESENTATION_DATA
  5
753E
102
{ACAD_REACTORS
330
753D
102
}
330
753D
100
AcDbBlockRepresentationData
 70
     1
340
2E4
  0
DICTIONARY
  5
753F
102
{ACAD_REACTORS
330
753D
102
}
330
753D
100
AcDbDictionary
280
     1
281
     1
  3
ACAD_ENHANCEDBLOCKDATA
360
7540
  0
ACDB_BLOCKREPRESENTATION_DATA
  5
7545
102
{ACAD_REACTORS
330
7544
102
}
330
7544
100
AcDbBlockRepresentationData
 70
     1
340
2E4
  0
DICTIONARY
  5
7546
102
{ACAD_REACTORS
330
7544
102
}
330
7544
100
AcDbDictionary
280
     1
281
     1
  3
ACAD_ENHANCEDBLOCKDATA
360
7547
  0
ACDB_BLOCKREPRESENTATION_DATA
  5
754C
102
{ACAD_REACTORS
330
754B
102
}
330
754B
100
AcDbBlockRepresentationData
 70
     1
340
2E4
  0
DICTIONARY
  5
754D
102
{ACAD_REACTORS
330
754B
102
}
330
754B
100
AcDbDictionary
280
     1
281
     1
  3
ACAD_ENHANCEDBLOCKDATA
360
754E
  0
ACDB_BLOCKREPRESENTATION_DATA
  5
7554
102
{ACAD_REACTORS
330
7553
102
}
330
7553
100
AcDbBlockRepresentationData
 70
     1
340
290
  0
DICTIONARY
  5
7555
102
{ACAD_REACTORS
330
7553
102
}
330
7553
100
AcDbDictionary
280
     1
281
     1
  3
ACAD_ENHANCEDBLOCKDATA
360
7556
  0
ACDB_BLOCKREPRESENTATION_DATA
  5
755B
102
{ACAD_REACTORS
330
755A
102
}
330
755A
100
AcDbBlockRepresentationData
 70
     1
340
26D
  0
DICTIONARY
  5
755C
102
{ACAD_REACTORS
330
755A
102
}
330
755A
100
AcDbDictionary
280
     1
281
     1
  3
ACAD_ENHANCEDBLOCKDATA
360
755D
  0
ACDB_BLOCKREPRESENTATION_DATA
  5
7563
102
{ACAD_REACTORS
330
7562
102
}
330
7562
100
AcDbBlockRepresentationData
 70
     1
340
284
  0
DICTIONARY
  5
7564
102
{ACAD_REACTORS
330
7562
102
}
330
7562
100
AcDbDictionary
280
     1
281
     1
  3
ACAD_ENHANCEDBLOCKDATA
360
7565
  0
ACDB_BLOCKREPRESENTATION_DATA
  5
7647
102
{ACAD_REACTORS
330
7646
102
}
330
7646
100
AcDbBlockRepresentationData
 70
     1
340
284
  0
DICTIONARY
  5
7648
102
{ACAD_REACTORS
330
7646
102
}
330
7646
100
AcDbDictionary
280
     1
281
     1
  3
ACAD_ENHANCEDBLOCKDATA
360
7649
  0
ACDB_BLOCKREPRESENTATION_DATA
  5
7650
102
{ACAD_REACTORS
330
764F
102
}
330
764F
100
AcDbBlockRepresentationData
 70
     1
340
284
  0
DICTIONARY
  5
7651
102
{ACAD_REACTORS
330
764F
102
}
330
764F
100
AcDbDictionary
280
     1
281
     1
  3
ACAD_ENHANCEDBLOCKDATA
360
7652
  0
ACDB_BLOCKREPRESENTATION_DATA
  5
7658
102
{ACAD_REACTORS
330
7657
102
}
330
7657
100
AcDbBlockRepresentationData
 70
     1
340
284
  0
DICTIONARY
  5
7659
102
{ACAD_REACTORS
330
7657
102
}
330
7657
100
AcDbDictionary
280
     1
281
     1
  3
ACAD_ENHANCEDBLOCKDATA
360
765A
  0
ACDB_BLOCKREPRESENTATION_DATA
  5
7721
102
{ACAD_REACTORS
330
7720
102
}
330
7720
100
AcDbBlockRepresentationData
 70
     1
340
2F0
  0
DICTIONARY
  5
7722
102
{ACAD_REACTORS
330
7720
102
}
330
7720
100
AcDbDictionary
280
     1
281
     1
  3
ACAD_ENHANCEDBLOCKDATA
360
7723
  0
ACDB_BLOCKREPRESENTATION_DATA
  5
7728
102
{ACAD_REACTORS
330
7727
102
}
330
7727
100
AcDbBlockRepresentationData
 70
     1
340
2BB
  0
DICTIONARY
  5
7729
102
{ACAD_REACTORS
330
7727
102
}
330
7727
100
AcDbDictionary
280
     1
281
     1
  3
ACAD_ENHANCEDBLOCKDATA
360
772A
  0
ACDB_BLOCKREPRESENTATION_DATA
  5
7730
102
{ACAD_REACTORS
330
772F
102
}
330
772F
100
AcDbBlockRepresentationData
 70
     1
340
284
  0
DICTIONARY
  5
7731
102
{ACAD_REACTORS
330
772F
102
}
330
772F
100
AcDbDictionary
280
     1
281
     1
  3
ACAD_ENHANCEDBLOCKDATA
360
7732
  0
ACDB_BLOCKREPRESENTATION_DATA
  5
7738
102
{ACAD_REACTORS
330
7737
102
}
330
7737
100
AcDbBlockRepresentationData
 70
     1
340
2E4
  0
DICTIONARY
  5
7739
102
{ACAD_REACTORS
330
7737
102
}
330
7737
100
AcDbDictionary
280
     1
281
     1
  3
ACAD_ENHANCEDBLOCKDATA
360
773A
  0
ACDB_BLOCKREPRESENTATION_DATA
  5
773F
102
{ACAD_REACTORS
330
773E
102
}
330
773E
100
AcDbBlockRepresentationData
 70
     1
340
2E4
  0
DICTIONARY
  5
7740
102
{ACAD_REACTORS
330
773E
102
}
330
773E
100
AcDbDictionary
280
     1
281
     1
  3
ACAD_ENHANCEDBLOCKDATA
360
7741
  0
ACDB_BLOCKREPRESENTATION_DATA
  5
77E0
102
{ACAD_REACTORS
330
77DF
102
}
330
77DF
100
AcDbBlockRepresentationData
 70
     1
340
284
  0
DICTIONARY
  5
77E1
102
{ACAD_REACTORS
330
77DF
102
}
330
77DF
100
AcDbDictionary
280
     1
281
     1
  3
ACAD_ENHANCEDBLOCKDATA
360
77E2
  0
ACDB_BLOCKREPRESENTATION_DATA
  5
77E8
102
{ACAD_REACTORS
330
77E7
102
}
330
77E7
100
AcDbBlockRepresentationData
 70
     1
340
2A4
  0
DICTIONARY
  5
77E9
102
{ACAD_REACTORS
330
77E7
102
}
330
77E7
100
AcDbDictionary
280
     1
281
     1
  3
ACAD_ENHANCEDBLOCKDATA
360
77EA
  0
ACDB_BLOCKREPRESENTATION_DATA
  5
77EF
102
{ACAD_REACTORS
330
77EE
102
}
330
77EE
100
AcDbBlockRepresentationData
 70
     1
340
26D
  0
DICTIONARY
  5
77F0
102
{ACAD_REACTORS
330
77EE
102
}
330
77EE
100
AcDbDictionary
280
     1
281
     1
  3
ACAD_ENHANCEDBLOCKDATA
360
77F1
  0
ACDB_BLOCKREPRESENTATION_DATA
  5
77F8
102
{ACAD_REACTORS
330
77F7
102
}
330
77F7
100
AcDbBlockRepresentationData
 70
     1
340
26D
  0
DICTIONARY
  5
77F9
102
{ACAD_REACTORS
330
77F7
102
}
330
77F7
100
AcDbDictionary
280
     1
281
     1
  3
ACAD_ENHANCEDBLOCKDATA
360
77FA
  0
DICTIONARY
  5
7917
330
7833
100
AcDbDictionary
280
     1
281
     1
  3
ACAD_XREC_ROUNDTRIP
360
7918
  0
DICTIONARY
  5
205
330
22
100
AcDbDictionary
280
     1
281
     1
  0
DICTIONARY
  5
1F9
330
ED
100
AcDbDictionary
280
     1
281
     1
  3
FBXASSET
360
1FA
  0
DICTIONARY
  5
1F7
330
EC
100
AcDbDictionary
280
     1
281
     1
  3
FBXASSET
360
1F8
  0
DICTIONARY
  5
173
330
EE
100
AcDbDictionary
280
     1
281
     1
  3
BUMPTILE
360
175
  3
DIFFUSETILE
360
174
  3
FBXASSET
360
1FB
  3
OPACITYTILE
360
176
  3
REFLECTIONTILE
360
177
  0
DICTIONARY
  5
7915
330
7832
100
AcDbDictionary
280
     1
281
     1
  3
ACAD_XREC_ROUNDTRIP
360
7916
  0
DICTIONARY
  5
162
330
7F
100
AcDbDictionary
280
     1
281
     1
  3
ACAD_ROUNDTRIP_2008_TABLESTYLE_CELLSTYLEMAP
360
78D7
  0
DICTIONARY
  5
78EB
330
F5
100
AcDbDictionary
280
     1
281
     1
  3
ACAD_XREC_ROUNDTRIP
360
78EC
  0
DICTIONARY
  5
7913
330
4E1B
100
AcDbDictionary
280
     1
281
     1
  3
ACAD_XREC_ROUNDTRIP
360
7914
  0
DICTIONARY
  5
7911
330
549
100
AcDbDictionary
280
     1
281
     1
  3
ACAD_XREC_ROUNDTRIP
360
7912
  0
DICTIONARY
  5
78E9
330
F4
100
AcDbDictionary
280
     1
281
     1
  3
ACAD_XREC_ROUNDTRIP
360
78EA
  0
DICTIONARY
  5
78F7
330
FB
100
AcDbDictionary
280
     1
281
     1
  3
ACAD_XREC_ROUNDTRIP
360
78F8
  0
DICTIONARY
  5
78FF
330
FF
100
AcDbDictionary
280
     1
281
     1
  3
ACAD_XREC_ROUNDTRIP
360
7900
  0
DICTIONARY
  5
78F1
330
F8
100
AcDbDictionary
280
     1
281
     1
  3
ACAD_XREC_ROUNDTRIP
360
78F2
  0
DICTIONARY
  5
78F5
330
FA
100
AcDbDictionary
280
     1
281
     1
  3
ACAD_XREC_ROUNDTRIP
360
78F6
  0
DICTIONARY
  5
7905
330
1E6
100
AcDbDictionary
280
     1
281
     1
  3
ACAD_XREC_ROUNDTRIP
360
7906
  0
DICTIONARY
  5
78FD
330
FE
100
AcDbDictionary
280
     1
281
     1
  3
ACAD_XREC_ROUNDTRIP
360
78FE
  0
DICTIONARY
  5
78E1
330
F0
100
AcDbDictionary
280
     1
281
     1
  3
ACAD_XREC_ROUNDTRIP
360
78E2
  0
DICTIONARY
  5
78E3
330
F1
100
AcDbDictionary
280
     1
281
     1
  3
ACAD_XREC_ROUNDTRIP
360
78E4
  0
DICTIONARY
  5
78E5
330
F2
100
AcDbDictionary
280
     1
281
     1
  3
ACAD_XREC_ROUNDTRIP
360
78E6
  0
DICTIONARY
  5
78E7
330
F3
100
AcDbDictionary
280
     1
281
     1
  3
ACAD_XREC_ROUNDTRIP
360
78E8
  0
DICTIONARY
  5
78EF
330
F7
100
AcDbDictionary
280
     1
281
     1
  3
ACAD_XREC_ROUNDTRIP
360
78F0
  0
DICTIONARY
  5
7901
330
1E4
100
AcDbDictionary
280
     1
281
     1
  3
ACAD_XREC_ROUNDTRIP
360
7902
  0
DICTIONARY
  5
78FB
330
FD
100
AcDbDictionary
280
     1
281
     1
  3
ACAD_XREC_ROUNDTRIP
360
78FC
  0
DICTIONARY
  5
7903
330
1E5
100
AcDbDictionary
280
     1
281
     1
  3
ACAD_XREC_ROUNDTRIP
360
7904
  0
DICTIONARY
  5
78F3
330
F9
100
AcDbDictionary
280
     1
281
     1
  3
ACAD_XREC_ROUNDTRIP
360
78F4
  0
DICTIONARY
  5
790F
330
1F3
100
AcDbDictionary
280
     1
281
     1
  3
ACAD_XREC_ROUNDTRIP
360
7910
  0
DICTIONARY
  5
790D
330
1F2
100
AcDbDictionary
280
     1
281
     1
  3
ACAD_XREC_ROUNDTRIP
360
790E
  0
DICTIONARY
  5
7907
330
1EF
100
AcDbDictionary
280
     1
281
     1
  3
ACAD_XREC_ROUNDTRIP
360
7908
  0
DICTIONARY
  5
7909
330
1F0
100
AcDbDictionary
280
     1
281
     1
  3
ACAD_XREC_ROUNDTRIP
360
790A
  0
DICTIONARY
  5
78F9
330
FC
100
AcDbDictionary
280
     1
281
     1
  3
ACAD_XREC_ROUNDTRIP
360
78FA
  0
DICTIONARY
  5
78ED
330
F6
100
AcDbDictionary
280
     1
281
     1
  3
ACAD_XREC_ROUNDTRIP
360
78EE
  0
DICTIONARY
  5
790B
330
1F1
100
AcDbDictionary
280
     1
281
     1
  3
ACAD_XREC_ROUNDTRIP
360
790C
  0
XRECORD
  5
78D9
102
{ACAD_REACTORS
330
78DF
102
}
330
78DF
100
AcDbXrecord
280
     1
  1
AcDb_Thumbnail_Schema
102
{ATTRRECORD
341
78DA
  2
AcDbDs::TreatedAsObjectData
280
     1
291
     1
102
ATTRRECORD}
102
{ATTRRECORD
341
78DB
  2
AcDbDs::Legacy
280
     1
291
     1
102
ATTRRECORD}
  2
AcDbDs::ID
280
    10
 91
        8
102
{ATTRRECORD
341
78DC
  2
AcDs:Indexable
280
     1
291
     1
102
ATTRRECORD}
102
{ATTRRECORD
341
78DD
  2
AcDbDs::HandleAttribute
280
     7
282
     1
102
ATTRRECORD}
  2
Thumbnail_Data
280
    15
 91
        0
  0
XRECORD
  5
78DA
102
{ACAD_REACTORS
330
78DF
102
}
330
78DF
100
AcDbXrecord
280
     1
  1
AcDbDs::TreatedAsObjectDataSchema
  2
AcDbDs::TreatedAsObjectData
280
     1
 91
        0
  0
XRECORD
  5
78DB
102
{ACAD_REACTORS
330
78DF
102
}
330
78DF
100
AcDbXrecord
280
     1
  1
AcDbDs::LegacySchema
  2
AcDbDs::Legacy
280
     1
 91
        0
  0
XRECORD
  5
78DC
102
{ACAD_REACTORS
330
78DF
102
}
330
78DF
100
AcDbXrecord
280
     1
  1
AcDbDs::IndexedPropertySchema
  2
AcDs:Indexable
280
     1
 91
        0
  0
XRECORD
  5
78DD
102
{ACAD_REACTORS
330
78DF
102
}
330
78DF
100
AcDbXrecord
280
     1
  1
AcDbDs::HandleAttributeSchema
  2
AcDbDs::HandleAttribute
280
     7
 91
        1
284
     1
  0
DICTIONARY
  5
6B4B
102
{ACAD_REACTORS
330
6A49
102
}
330
6A49
100
AcDbDictionary
280
     1
281
     1
  3
1
360
6B4C
  0
DICTIONARY
  5
6AAE
102
{ACAD_REACTORS
330
6A50
102
}
330
6A50
100
AcDbDictionary
280
     1
281
     1
  3
1
360
6AAF
  0
DICTIONARY
  5
6ABD
102
{ACAD_REACTORS
330
6A5D
102
}
330
6A5D
100
AcDbDictionary
280
     1
281
     1
  3
1
360
6ABE
  0
DICTIONARY
  5
6AD0
102
{ACAD_REACTORS
330
6A64
102
}
330
6A64
100
AcDbDictionary
280
     1
281
     1
  3
2
360
6AD1
  0
DICTIONARY
  5
6ADB
102
{ACAD_REACTORS
330
6A6B
102
}
330
6A6B
100
AcDbDictionary
280
     1
281
     1
  3
3
360
6ADC
  0
DICTIONARY
  5
6AF1
102
{ACAD_REACTORS
330
6A74
102
}
330
6A74
100
AcDbDictionary
280
     1
281
     1
  3
2
360
6AF2
  0
DICTIONARY
  5
6AFC
102
{ACAD_REACTORS
330
6A7B
102
}
330
6A7B
100
AcDbDictionary
280
     1
281
     1
  3
3
360
6AFD
  0
DICTIONARY
  5
6B07
102
{ACAD_REACTORS
330
6A82
102
}
330
6A82
100
AcDbDictionary
280
     1
281
     1
  3
1
360
6B08
  0
DICTIONARY
  5
6B12
102
{ACAD_REACTORS
330
6A89
102
}
330
6A89
100
AcDbDictionary
280
     1
281
     1
  3
1
360
6B13
  0
DICTIONARY
  5
6B1D
102
{ACAD_REACTORS
330
6A90
102
}
330
6A90
100
AcDbDictionary
280
     1
281
     1
  3
1
360
6B1E
  0
DICTIONARY
  5
6B28
102
{ACAD_REACTORS
330
6A97
102
}
330
6A97
100
AcDbDictionary
280
     1
281
     1
  3
1
360
6B29
  0
DICTIONARY
  5
6B3E
102
{ACAD_REACTORS
330
6A9E
102
}
330
6A9E
100
AcDbDictionary
280
     1
281
     1
  3
1
360
6B3F
  0
DICTIONARY
  5
740F
102
{ACAD_REACTORS
330
740E
102
}
330
740E
100
AcDbDictionary
280
     1
281
     1
  3
1
360
7410
  0
DICTIONARY
  5
7416
102
{ACAD_REACTORS
330
7415
102
}
330
7415
100
AcDbDictionary
280
     1
281
     1
  3
1
360
7417
  0
DICTIONARY
  5
741E
102
{ACAD_REACTORS
330
741D
102
}
330
741D
100
AcDbDictionary
280
     1
281
     1
  3
1
360
741F
  0
DICTIONARY
  5
7531
102
{ACAD_REACTORS
330
7530
102
}
330
7530
100
AcDbDictionary
280
     1
281
     1
  3
1
360
7532
  0
DICTIONARY
  5
7539
102
{ACAD_REACTORS
330
7538
102
}
330
7538
100
AcDbDictionary
280
     1
281
     1
  3
1
360
753A
  0
DICTIONARY
  5
7540
102
{ACAD_REACTORS
330
753F
102
}
330
753F
100
AcDbDictionary
280
     1
281
     1
  3
1
360
7541
  0
DICTIONARY
  5
7547
102
{ACAD_REACTORS
330
7546
102
}
330
7546
100
AcDbDictionary
280
     1
281
     1
  3
1
360
7548
  0
DICTIONARY
  5
754E
102
{ACAD_REACTORS
330
754D
102
}
330
754D
100
AcDbDictionary
280
     1
281
     1
  3
1
360
754F
  0
DICTIONARY
  5
7556
102
{ACAD_REACTORS
330
7555
102
}
330
7555
100
AcDbDictionary
280
     1
281
     1
  3
2
360
7557
  0
DICTIONARY
  5
755D
102
{ACAD_REACTORS
330
755C
102
}
330
755C
100
AcDbDictionary
280
     1
281
     1
  3
3
360
755E
  0
DICTIONARY
  5
7565
102
{ACAD_REACTORS
330
7564
102
}
330
7564
100
AcDbDictionary
280
     1
281
     1
  3
1
360
7566
  0
DICTIONARY
  5
7649
102
{ACAD_REACTORS
330
7648
102
}
330
7648
100
AcDbDictionary
280
     1
281
     1
  3
1
360
764A
  0
DICTIONARY
  5
7652
102
{ACAD_REACTORS
330
7651
102
}
330
7651
100
AcDbDictionary
280
     1
281
     1
  3
1
360
7653
  0
DICTIONARY
  5
765A
102
{ACAD_REACTORS
330
7659
102
}
330
7659
100
AcDbDictionary
280
     1
281
     1
  3
1
360
765B
  0
DICTIONARY
  5
7723
102
{ACAD_REACTORS
330
7722
102
}
330
7722
100
AcDbDictionary
280
     1
281
     1
  3
1
360
7724
  0
DICTIONARY
  5
772A
102
{ACAD_REACTORS
330
7729
102
}
330
7729
100
AcDbDictionary
280
     1
281
     1
  3
1
360
772B
  0
DICTIONARY
  5
7732
102
{ACAD_REACTORS
330
7731
102
}
330
7731
100
AcDbDictionary
280
     1
281
     1
  3
1
360
7733
  0
DICTIONARY
  5
773A
102
{ACAD_REACTORS
330
7739
102
}
330
7739
100
AcDbDictionary
280
     1
281
     1
  3
1
360
773B
  0
DICTIONARY
  5
7741
102
{ACAD_REACTORS
330
7740
102
}
330
7740
100
AcDbDictionary
280
     1
281
     1
  3
1
360
7742
  0
DICTIONARY
  5
77E2
102
{ACAD_REACTORS
330
77E1
102
}
330
77E1
100
AcDbDictionary
280
     1
281
     1
  3
1
360
77E3
  0
DICTIONARY
  5
77EA
102
{ACAD_REACTORS
330
77E9
102
}
330
77E9
100
AcDbDictionary
280
     1
281
     1
  3
2
360
77EB
  0
DICTIONARY
  5
77F1
102
{ACAD_REACTORS
330
77F0
102
}
330
77F0
100
AcDbDictionary
280
     1
281
     1
  3
3
360
77F2
  0
DICTIONARY
  5
77FA
102
{ACAD_REACTORS
330
77F9
102
}
330
77F9
100
AcDbDictionary
280
     1
281
     1
  3
3
360
77FB
  0
XRECORD
  5
7918
102
{ACAD_REACTORS
330
7917
102
}
330
7917
100
AcDbXrecord
280
     1
102
DISPLAYNAME
  1
Metric50
102
FLAGS
 90
        0
  0
XRECORD
  5
1FA
102
{ACAD_REACTORS
330
1F9
102
}
330
1F9
100
AcDbXrecord
280
     1
 70
     1
 90
429727718
  1
D62C5603-E3A1-4AEA-B7FB-FE5D8D0755AF
310
504B03040A0000080000CC70623B3DEE336E79000000790000001B0000006175746F6465736B2D64657369676E2D7061636B6167652E786D6C3C3F786D6C2076657273696F6E3D22312E302220656E636F64696E673D227574662D3822203F3E3C666F726D6174733E3C666F726D61743E687474703A2F2F736368656D612E
310
6175746F6465736B2E636F6D2F64657369676E2D7061636B6167652F323030393C2F666F726D61743E3C2F666F726D6174733E504B0304140006080800CC70623BD486FD9CA0000000F4000000130000005B436F6E74656E745F54797065735D2E786D6C7D8EC10E82300C865F65E91D8A1E8C310C0EEA1BF002731658846E
310
D98AC1B77784ABF1D8FE5FBFBF75BBCE937A534CCEB38643598122B6FEE978D0B0485F9C41B54DDD7D022595594E1A469170414C76A4D9A4D207E29CF43ECE46F218070CC6BECC4078ACAA135ACF422C856C0E68EA1BF5669944DDD7BCDE7B1F8E415D77AECB980613C2E4AC91FC167A2B244592486606FC29C8FD7F045B9A
310
EF7053A7E60B504B0304140006080800CC70623B853B8169EB0000007C01000008000000636F72652E786D6C8D90416EC3201045AF62CDB6C206821CC7C244919D9CA01740401C94182C03558F5F9C3852BBEB6A467FFE9B197D7EFC9E1EC5975982F5AE035262288C535E5B377690E21535501C055FBC8FBF6C503839990E
310
5619041F179FE64D52DE45E362569DD7661365082642A11EB9E920A89B99642953CC8E702F67A9EE7234257977194EC9EAE275C4EABCCF5EAD5940D4AC6F0E35A568B8F43562CD7046CD199FD07E60174276A7BE677B5EADB0E0D14EEFFB6A31321A0D82627C4084204C3F096B71DD52F6819B16635EADF63F509AF53FA164
310
5DDCD1EDDD17164090FCC8732078B56691CB33A85CD7DCC40F504B0304140006080800CC70623B55019EA25F0000007C00000007000000636E782E786D6C4DCB3B0E80201045D1AD90E915ED2CF8AC45050C11660C8261F98AB1B07AC9C97D42D718D865D3E909258CFD00CCE24AC6E326A164D74DC0B4128928FF32603847
310
2BA13128B1252AC747C6BAB984FC68F0B87FE8960A5C09FE86CFB69FBA01504B0304140006080800CC70623BDBABAAF470010000D40300000C0000006662782F636F72652E786D6CC553D16E823014FD95A6AF4B694182CC941A83FA05FB810A9511A125A5257EFE2E82712ECEB8A7F100CD39F7F69E734AF9FADC366850B6
310
AF8DCE7018308C942E4C59EB2AC3DE1D498AD15A706B8CFB56869196ADCAF00863C12B6B7C374385D14E6907A836A59A41D9F7CA615434B0C8705F7CAA5606D23BA8E84F41278B93AC54100640439DE0BDB320004D43C63716C7C399D30917DCFBBA9CD9BA8469F5B156168B24CED3F7248AC8769F27244EB73B92EED8862C
310
B7F13E0C179B3C8F979C8ECD82BBBABDAA2BAC924E9558448CBD9330242CFA08E3154B5651FCC6D215639C8EE5774DBE2B5F6CF2B5768B68963BB5F5588420E442FC700B1139D4CB01F450C1E918227C2E09DF070D8140C84E1E9AAB8F1340832A9CB13130A5F1376A908D57309505ECF2A0DF179C4E9D30F5B239B87E3823
310
7A79C6F31DE1A8A5AEC08474B03C7837EAE4938639B44E5932B833D2C6B6B279CDC613877FA26EE21F4A2A4C63EC7F29A2F301D1F9F7A0E37D145F504B0304140006080800CC70623B9C113CC27E0000009D0000000B0000006662782F636E782E786D6C4DCCDF0A83201C86E15B91DFB94BFB330DD428C8FB886521330DA7
310
6397BF1A1DECE883878F57749FCDA1B7892F1BBC047A23808C7F84D9FA55424E0BE6803A256208E9EF06C84F9B91703228B1C690F78B66B34CD9A5439DF5CF0BFBF65E35BCA1B8D6A5C6F540381E886698B5741C695F9503EBA150A2F8958E3DC3EA0B504B0304140006080800CC70623B7DF2F77C2A010000120200003100
310
00006662782F41393633353835312D344632462D344230382D423046372D3739314545314133324237412F636F72652E786D6C8D51DB8EC22014FC15C2939B0D2DB4B45643319AE817EC0F6041255A68B86CFCFC856D4D76DF7CE190393373060EDB3DC707F856CE6B6B7A480A0C81328395DA5C7B18C3057510EC3873D686
310
3F34088C18550F330C39BB3A1BA7051AAC09CA84841A2BD5020AEF55806078A44B0FFD7053A328440C89E1EFC52486BBB8AA8214A99D789CF9E05200300FC927E4FB4D5B375D43103D5527440FB843077C5AA3F5861C8F645F5787F59E95B390B318B55CE45AA638FAA2957BD7248B390B7A7CC51F9C124149C82B8C378810
310
84AB2F42B7B8DD56F413775B8C5999E9FF4471926F8AA236A1AE96B8B3CC434E5839373893369E1FAF30EA395917409EB7F26AF8801C171837A4A6AC9C89E9F9C9B1A58BA30FD6A5EF5DDDCF894B9AD9B6A59C957943A9FCAE2FD5BC4DFE03504B0304140006080800CC70623BAD7543B64E01000033030000300000006662
310
782F41393633353835312D344632462D344230382D423046372D3739314545314133324237412F636E782E786D6CD593CD6EC32010845F0571AD6CE3D48AD20813A9873E410FBD12D82434182C7EAAE6EDBB2424CD25871E7B41D6EC30B3FA84F9E67BB2E40B4234DE8DB46F1925E094D7C6ED479AD3AE5951B2113C789FEE
310
6C943839C1488B4C05DF079FE72A69D8C96C13AAD6B8631503449F83828872B949AC57D26200B826A308D316B4064D6E46FCDA41C05550DC9E483A00797BFD207EFB092A45DE9514C1BBD22178396BD39D891265658C238DEA00936C654E5E433CB65A26D9F6EDB5EBC14EBF49A45CB856E66048291F6939A9A81BB5C89177
310
38143CA680F4AA299D66A042CEB3354A2684DC9D8D178FE0D9B8B41CAAD720F880EE7EF93C0C18769E099ECC04D5A102C8049A8A05632F4DDF376CF1DE0F6BB65C2F8627B65A33C6BB62177CEBBDAD973006829F89F22E814B54F4BC2BE347F8AA8F681390B50FA73F804400B5F542E796F19FF974E7F78DB802FE05E20750
310
4B0304140006080800CC70623BE75B7789680500003C100000340000006662782F41393633353835312D344632462D344230382D423046372D3739314545314133324237412F6F626A656374732E786D6CAD575B8F9B3818FD2B887D06C22499CB8AA1CA655245D5B455A356FB305264C061D8018C6C3393D95FBFC7600890
310
A4CD5EF210B0B1BFEBF98E3F7B1FF6596ABC522E1296DF9BAE3D320D9A872C4AF2F8DE2CE5CEBA358D0FBEC719939D65A691938CDE9B6ADAF4BD98B3B2D05311DD91329583D9D5FC0F438434A7A611A644887B5384CF34233629258BA878B12322891DEFF6B66BD70BFB62634E8AE781D082709A4B588AF91C528CDA28B73F
310
1C998EEF39EABBEFA97FBD6A7C7E9553F9D3D79FE442923C3C523610337627CB87ABE99D359D4CC6D6E4FACAB5E6ABF9D2726FC6A3C5F56271377BB88362213924694B38DD99FE47C48627A1E7D49F5A8BB5E1A74C0A599ED3B0F21F1E56366B89112D681E218F0915D0D6F17AD41FBA2A369DCF6335D62ABBD39779D5DDD1
310
11D4D8DE3CBB96B2E04FB8202E41051754A1AA8E8F76B4C6DFE810B580B1547F4B84911149794252234D024EF8BBE963A95AE27B3D310A9D5C215C7960FAEE415ED75694C6AFB17BCACA5D99A60A9AA65F217B0BFC53292ACB92BF283FAD0D3621576592CB5BED907C2FA8E9DF794E35E97BEA31BED21FEB401ABB94C44839
310
DCACBF0E1C5DA8DA5B2F4DFFD32AD86F543D9E565E7056502E157C00AD2671CD534549AB752FCA9CDA00677A313F04E51B22FF19E57B300579E3C97EB29F682D92935CEC18CF901B7B54FD8C51F362B56FC72FE0B3C1EAE335EDCCBF5AEC39ADB17DC238973F804BA5E6F6BFE7AF1FB32E523BE9F3BD571418E3631DCA4D48
310
5250CF639223210A9446CA30052EDF057BD35F8329C1ECD84552BF0DC8D18BE7BCE23BFE6BD960AB4A7DE79923A103BEBD80F911CBAA2C60DB19B01CF164A5583B772EE6D3FFA56666CBCDA74DC97724A48F9A58967497E489C4D979006FD7A05E227A1EBDD0F737C623387A9C844D3709995625106D157315F8B8392CD4E0
310
A0B9A720C4BE9829CEF37EA1E13111214D53925356365ADA634861B52519DD27A00AEB808EAF0628E6F435519D446F45CF2C9CF5214F0A15B2F6D06B79DA3EE3CBF7F56780D2F4E7EF73A0F5E5B02A38D07DC852C6B7C1FBB6664213E0C39E3EBA7FF4E1AD23EA2829407C85E586727488B751B2DB9502BC7B228A3FD68B6E
310
A65A22397E690AA8D158D7E404EC8CDA235CC3B7D1898680131CEC2CDF2638C65196279577750F15884AEE19F94199155B92B13297978469D4F8D358DF0AEF7631E28DC8F0D9F437D5D39A83B2231A1D52D543813A824EF8D44BCFF2FA6A31BD1E8DAD87F1CCB526B3879935BF59CDADD5C37479BB1CDD4CA7B3556B516589
310
EF352754B706114D9C885EC9131DE6EFEB43D99AFE2391C2F958179413D7CFEF6B1B6DB1E7600F00DE6E5C67454A339A4BA2E0FBA85ED26F045D454F463DBFCE484C2F90F2E5E3666003662ED8F755951A7D1BECD5B30B550B2785C8E7320B7292A4838DDA71BBC863ED7613CAF659337A3354231D4FF4A182A54904C2898C
310
98B28C4AD0CE056CCF332A80986E571EE9DBC305BB5FEB7E509220A58D25CF042D712A806AC0AD0C657FDEF80D2D9CEAA2EE4D1C76F60BFE74219A06527D6F82DF6412526107381E55E353090704D085B52408A8913C4ED159D79BDA71BB4BC506F4831350EB6F975CD22D69BF7AC49B91A2C0A9DDA3D5CA36AD20FC478E37
310
E61844E2352865EBCB61A275A65283CAAA9DD27703B4102F5AF51EF5F573B75CBB5AD38BC845F7A49F82A0966A49C2E3EA5EA0ECD326CD965F1DB402C6FA8B51A4658C5C5E2EC9E214602E55810345408596591009A82E7E7FFACA19EEA299B14A0081A705CB3296EBC14CDF658DCD336EA6D1136881AAEB87B81AB9EE53D5
310
F5EB8BC8362082DA24122F98680A4E7930C01A0079749CEA14382A0783E5EBA5A10F8C098456A03D6A4AEB6BB881E2513747552A5DB22C7EDAF83BD5528081A365F7FF06504B0304140006080000CC70623B000000000000000000000000350000006662782F41393633353835312D344632462D344230382D423046372D37
310
39314545314133324237412F76657274696365732E62696E504B0304140006080800CC70623BF270F1330600000004000000360000006662782F41393633353835312D344632462D344230382D423046372D3739314545314133324237412F747269616E676C65732E62696E636660600000504B0304140006080000CC7062
310
3B000000000000000000000000370000006662782F41393633353835312D344632462D344230382D423046372D3739314545314133324237412F617474726962757465732E62696E504B0304140006080800CC70623B08DA0BD19000000041010000360000006662782F41393633353835312D344632462D344230382D4230
310
46372D3739314545314133324237412F6469726563746F72792E786D6C858F410AC3201045AF22B36F53E9A60B35CBEEBAE80D244E44489C6234F4F835464A48035D0DF398FF9F8AF63D0E6CC63039F212F8F9020C7D47C6792B21C5FE7403D62A1188E2E60C98D7234A5830286103A55745067B9D86B8A3CF9C7F90C11DE6
310
07FB144396D7B6A82D282E9A152AD114D5EF2CB866EEE831B8EEA07A7BB5A8D7D61A2BAAEB7FD5F70921FF497D00504B0304140006080800CC70623BEDD1DC58FD000000A00100003B0000006662782F41393633353835312D344632462D344230382D423046372D3739314545314133324237412F7265736F75726365732F
310
636F72652E786D6C8D504B6E833010BD0A9A6D65B00922041947112427E8052C33A156828DFCA97AFC9A40A576D7CDCCE87D344F8F9FBFE667F689CE6B6B3A6039850C8DB2A336530731DC4903D95970676DF82583CCC8193B5861107C72362E3BA4AC096842428D1D7107A5F7182053CF7474E0D507CE32973124857FE48B
310
540F3961CEF244279DE03EB81420DB9EAC1384436FA353E879B1B182C7A8C75DA3C7F453DF353A1075D537A7BA6464B8F535A99AE14A9A2BBD90E350DD183B5CFABE3AF262350B1EF4FC9351399401471025A527C218A1E53BAB5A5AB765F5469B96525EACF23FA6B88CFF34456DC2A1DCE36E360F82A5202F42F062ED2BAD
310
579969AFDD8A6F504B010214000A0000080000CC70623B3DEE336E79000000790000001B00000000000000000000000000000000006175746F6465736B2D64657369676E2D7061636B6167652E786D6C504B01021400140006080800CC70623BD486FD9CA0000000F40000001300000000000000000000000000B20000005B
310
436F6E74656E745F54797065735D2E786D6C504B01021400140006080800CC70623B853B8169EB0000007C010000080000000000000000000000000083010000636F72652E786D6C504B01021400140006080800CC70623B55019EA25F0000007C000000070000000000000000000000000094020000636E782E786D6C504B
310
01021400140006080800CC70623BDBABAAF470010000D40300000C00000000000000000000000000180300006662782F636F72652E786D6C504B01021400140006080800CC70623B9C113CC27E0000009D0000000B00000000000000000000000000B20400006662782F636E782E786D6C504B01021400140006080800CC70
310
623B7DF2F77C2A010000120200003100000000000000000000000000590500006662782F41393633353835312D344632462D344230382D423046372D3739314545314133324237412F636F72652E786D6C504B01021400140006080800CC70623BAD7543B64E010000330300003000000000000000000000000000D2060000
310
6662782F41393633353835312D344632462D344230382D423046372D3739314545314133324237412F636E782E786D6C504B01021400140006080800CC70623BE75B7789680500003C10000034000000000000000000000000006E0800006662782F41393633353835312D344632462D344230382D423046372D3739314545
310
314133324237412F6F626A656374732E786D6C504B01021400140006080000CC70623B0000000000000000000000003500000000000000000000000000280E00006662782F41393633353835312D344632462D344230382D423046372D3739314545314133324237412F76657274696365732E62696E504B01021400140006
310
080800CC70623BF270F133060000000400000036000000000000000000000000007B0E00006662782F41393633353835312D344632462D344230382D423046372D3739314545314133324237412F747269616E676C65732E62696E504B01021400140006080000CC70623B0000000000000000000000003700000000000000
310
000000000000D50E00006662782F41393633353835312D344632462D344230382D423046372D3739314545314133324237412F617474726962757465732E62696E504B01021400140006080800CC70623B08DA0BD1900000004101000036000000000000000000000000002A0F00006662782F41393633353835312D344632
310
462D344230382D423046372D3739314545314133324237412F6469726563746F72792E786D6C504B01021400140006080800CC70623BEDD1DC58FD000000A00100003B000000000000000000000000000E1000006662782F41393633353835312D344632462D344230382D423046372D3739314545314133324237412F7265
310
736F75726365732F636F72652E786D6C504B0506000000000E000E0080040000641100000000
  0
XRECORD
  5
1F8
102
{ACAD_REACTORS
330
1F7
102
}
330
1F7
100
AcDbXrecord
280
     1
 70
     1
 90
429727718
  1
30362254-06B7-45E0-A893-8CFA70E3D6BC
310
504B03040A0000080000CC70623B3DEE336E79000000790000001B0000006175746F6465736B2D64657369676E2D7061636B6167652E786D6C3C3F786D6C2076657273696F6E3D22312E302220656E636F64696E673D227574662D3822203F3E3C666F726D6174733E3C666F726D61743E687474703A2F2F736368656D612E
310
6175746F6465736B2E636F6D2F64657369676E2D7061636B6167652F323030393C2F666F726D61743E3C2F666F726D6174733E504B0304140006080800CC70623BD486FD9CA0000000F4000000130000005B436F6E74656E745F54797065735D2E786D6C7D8EC10E82300C865F65E91D8A1E8C310C0EEA1BF002731658846E
310
D98AC1B77784ABF1D8FE5FBFBF75BBCE937A534CCEB38643598122B6FEE978D0B0485F9C41B54DDD7D022595594E1A469170414C76A4D9A4D207E29CF43ECE46F218070CC6BECC4078ACAA135ACF422C856C0E68EA1BF5669944DDD7BCDE7B1F8E415D77AECB980613C2E4AC91FC167A2B244592486606FC29C8FD7F045B9A
310
EF7053A7E60B504B0304140006080800CC70623B1EC5D7A3EB0000007C01000008000000636F72652E786D6C8D90416EC3201045AF82665B6103C6756C6122AB4D4ED00B204C5C94182C03558F5F9C3852BBEB6A467FFE9B197D71FC9E6FE8CBACC17AD7032D0820E3B41FAD9B7A48F1820F808E52ACDEC75F36404ECDA687
310
4D0629A6D5A76597B477D1B89855E747B38B2A041301E95B6E7A08FAD3CCAA50296647B8168BD2573599823EBB0CA76447F43862C7BCCF5EAC59410E4DDD9C7973C2755553CCCFA4C603E3040F1565ED3B1FDE4E432BCA0D9622DAF9795FAF464533826484B498524CD807E51D79ED187F21878E10516EF63F505AC67F42C9
310
BA58B1FDDD071640D2FCC87D2045B96591CB3DA85CB7DCE40F504B0304140006080800CC70623B55019EA25F0000007C00000007000000636E782E786D6C4DCB3B0E80201045D1AD90E915ED2CF8AC45050C11660C8261F98AB1B07AC9C97D42D718D865D3E909258CFD00CCE24AC6E326A164D74DC0B4128928FF32603847
310
2BA13128B1252AC747C6BAB984FC68F0B87FE8960A5C09FE86CFB69FBA01504B0304140006080800CC70623B8C9102E971010000D40300000C0000006662782F636F72652E786D6CC5535B6E833010BC8AE5DF0A6C08340F1947A84D4ED00B38C6A128602363A31CBFCB234A53A551FA553EC09AD9F5CE8C31DB9E9B1AF5CA
310
7695D1198E428A91D2D214952E33ECDD315861B4E5CC1AE3BE9561A445A3323CC098B3D21ADFCE9034DA29ED00D5A6503328BA4E398C640D8B0C77F253352214DE4145770A5B214FA2546114020D759C75CE8200340D19DE981F0F6746269C33EFAB6266AB02A655C74A59CCF365BADC27CB5D902ED22848F6340DF238A141
310
BE88E2F57B92BFEDF23523433367AE6A2EEAA455C2A902F398D2751045018D3FA264435F3771F242571B4A1919CA6F9A7C5B3CD9E42BED16F12C776AEB308F40C848FC700B1139D4891EF410CEC810227CC6846F8386402064270EF5C5C709A05E49676C024C61FC95EA45ED154CA5211D1FF4FB8291A913A68E9B83EBBB33
310
E2A7673CDE118E5AE8124C0807CB8377834E366998436B950D7A7746DAD846D4CFD978E0F04FD455FC5D49D2D4C6FE9722321F10997F0F32DC47FE05504B0304140006080800CC70623BFFEA85907E0000009D0000000B0000006662782F636E782E786D6C4DCCD10A83201886E15B91FFDC95D95A811AB6F23E625948A6C3
310
E9D8E5AF46073BFAE0E1E365ED67B3E8ADC3CB78C7815C7240DA3DFC64DCC221C519D7805AC182F7F1EF06C88D9BE6703008B6049F9E274D7A1E938DBB5AE3D6131B2589BA0D3D965551E0B2EA732C9B9A624AAEB41E3A557677029960D9AFB4EF11165F504B0304140006080800CC70623B4FEEA4082C0100001202000031
310
0000006662782F39464131463745442D413632322D343644302D413938332D3331353338454246344243312F636F72652E786D6C8D515B6EC32010BC0AE2AB55850DD871ED0813254D72825EC00192A2C460F1A872FC42ED48ED5F7E00CDCECCCEB26C731F6FE05B39AFADE921293004CA082BB5B9F43086336A21D870E6AC
310
0D7F68109861543DCC30E4ECE26C9C164858139409093556AA051CBC570102714B8F1E7AF1A5C6A11862480C7F2DA6415C878B2A4891CA89C7990F2E050073937C42DE1DB7E4F87ED8A36D4329AA9B3D46DBAEAD504556557BD81DEBDD0761E52CE42C462D17B996298E3E6BE59E35C962CE821E1FF18553435012728A7187
310
0841987E927A8D9B35ADDF70BBC6989599FE4F1427F9A4286A132ABAC49D651EF234CD5CE04CDA78BA3DC2A8FB645D00B9DF8B57E215725C60BCA2A463E54C4CE327C7A65E1C7DB02E7DEFCBF594B864C5CA6CDBD49C957943E9FA5D5FBAF336F90F504B0304140006080800CC70623BAD7543B64E01000033030000300000
310
006662782F39464131463745442D413632322D343644302D413938332D3331353338454246344243312F636E782E786D6CD593CD6EC32010845F0571AD6CE3D48AD20813A9873E410FBD12D82434182C7EAAE6EDBB2424CD25871E7B41D6EC30B3FA84F9E67BB2E40B4234DE8DB46F1925E094D7C6ED479AD3AE5951B2113C
310
789FEE6C943839C1488B4C05DF079FE72A69D8C96C13AAD6B8631503449F83828872B949AC57D26200B826A308D316B4064D6E46FCDA41C05550DC9E483A00797BFD207EFB092A45DE9514C1BBD22178396BD39D891265658C238DEA00936C654E5E433CB65A26D9F6EDB5EBC14EBF49A45CB856E66048291F6939A9A81BB5
310
C8917738143CA680F4AA299D66A042CEB3354A2684DC9D8D178FE0D9B8B41CAAD720F880EE7EF93C0C18769E099ECC04D5A102C8049A8A05632F4DDF376CF1DE0F6BB65C2F8627B65A33C6BB62177CEBBDAD973006829F89F22E814B54F4BC2BE347F8AA8F681390B50FA73F804400B5F542E796F19FF974E7F78DB802FE05
310
E207504B0304140006080800CC70623B16AB87BA640500003C100000340000006662782F39464131463745442D413632322D343644302D413938332D3331353338454246344243312F6F626A656374732E786D6CAD575B6FA33818FD2B887DE6924B3BED8A326A92B68A663B534DD4D13E548A0C38942D60649B369D5FBFC7
310
600890A493BDE42160637FD7F31D7FF63E6FB3D478A55C242CBF3247B66B1A340F5994E4F19559CA8D75611A9F7D8F33263BCB4C232719BD32D5B4E97B316765A1A722BA21652A07B3B7B33F0D11D29C9A46981221AE4C113ED38CD8A4942CA2E2C58E882476BCD9DA23BB5ED8171B73523C0F841684D35CC252CCE79062D4
310
468DFA43D7747CCF51DF7D4FFDEB5593E3AB9CCA9FBEFE241792E4E19EB28198C968BAB8199F5D5A67D3E9C49A9E8F47D6EC76B6B0469F26EEFC7C3EBFBCBEB98462213924694B38DD98FE1D62C393D073EA4FADC5DAF04326852CCF6958F90F0F2B9BB5C48816348F90C7840A68EB78EDF68723159BCEE7891A6B95DDE9D3
310
BCEAEEE8086A6C6F9E5D4B59F0175C10A7A0820BAA5055C7473B5AE3CFDD452D602CD5DF12616444529E90D448938013FE6EFA58AA96F85E4F8C42275708571E98FE6827AF6B2B4AE3D7D83D64E5A64C53054DD3AF90BD06FEA9149565C94FCA0F6B834DC85599E4F2423B24DF0B6AFA979E534DFA9E7A4CC6FA631D486393
310
921829879BF5D781A373557BCB85E97FB90DB62B558F8795179C15944B051F40AB495CF35451D26A4727654E6D8033BD98EF82F21D91FF8AF2DD9982BCF1643BDD4EB516C9492E368C67C88DED563FC36D5EACF66DFF057C3658BDBFA69DF9578B3DA735B64F18C7F20770A9D45CFCF7FCF563D6456A277DBEF78A02637CA2
310
43B90A490AEAB94F72244481D24819A6C0E59B606BFA4B3025981DBB48EAB701D97BF19C577CC77F2D1B6C55A9EF3C732474C0B727303F625995056C3B02963D9EAC146BE78EC5FCEC7FA999EBC5EACBAAE41B12D27B4D2C0BBA49F244E2ECDC81B76B502F113D8F5EE8FB1BE3111CDD4FC2AA9B844CAB1288B68AB90A7CDC
310
1C166AB0D3DC5310625FCC14E779BFD0709F8890A629C9292B1B2DED31A4B0DA928CEE135085754027E3018A397D4D5427D15BD1330B677DC8934285AC3DF45A9EB68FF8F2B8FC0A509AFEECFD0FF2DE25CC6047F7214B195F07EFEB9A094D800F7BFAE8FED187B78EA8A3A400F115961BCAD1215E47C966530AF0EE8128FE
310
58CEBB996A8964FFA529A046635D9353B0336A8F700DDF46271A024E70B0B37C9DE01847591E54DED53D54202AB947E4076556AC49C6CA5C9E1226B7F1A7B1BE15DEED62C41B91E1B3E9AFAAA735036547343A925075041DF0A9979E893B391F8FCFA6967B3EFB644DCF6E5CEBFAE272625DCC6FAF3FB93793C5F90CE1EF57
310
407342756B10D1C489E8953CD1617E5CEECAD6F4EF8914CE5D5D504E5C3F1F9736DA62CFC11E00BCDDB8CC8A9466349744C1F75EBDA4DF09BA8A9E8C7A7E9991989E20E5DBDD6A6003664ED8F7A04A8DBE0DF6EAD9B9AA858342E47399053949D2C146EDB85DE4B176BB0965FBAC19BD19AA918E27FA50C1D22402E144464C
310
59462568E704B6E71915404CB72B8FF4EDE184DDAF753F284990D2C6926782963815403548A70C657FDEF80D2D9CEAA2AE4C1C76F60BFE74219A06527D6582DF6412526107381E55E353090704D085B52408D0933C4ED159D79BDA71BB4BC506F4831350EB6F979CD22D69BF7AC49B91A2C0A9DDA3D5CA36AD20FC478E37E6
310
1844E2352865EBCB6EA275A652E3836BE04EFB400BF1A2556F515F1FBB35B2AB35BD889C744FFA1004B5544B121E57F70215746DD2F5E2C1412B602CBF19455AC6C8E5E9922C4E01E65215385004546899059180EAFCF7A707CE7017CD8CDB0410789AB32C63B91E5CEBBBACB17AC6CD347A022D5075FD106377347AAABA7E
310
7D11590744509B44E205134DC1290F06580320F78E537D3D73540E06CB970B431F185308AD40BBD794D6D77003C5A36E8EAA54BA64597CD8F83BD552A080A365F7FF06504B0304140006080000CC70623B000000000000000000000000350000006662782F39464131463745442D413632322D343644302D413938332D3331
310
353338454246344243312F76657274696365732E62696E504B0304140006080800CC70623BF270F1330600000004000000360000006662782F39464131463745442D413632322D343644302D413938332D3331353338454246344243312F747269616E676C65732E62696E636660600000504B0304140006080000CC70623B
310
000000000000000000000000370000006662782F39464131463745442D413632322D343644302D413938332D3331353338454246344243312F617474726962757465732E62696E504B0304140006080800CC70623B08DA0BD19000000041010000360000006662782F39464131463745442D413632322D343644302D413938
310
332D3331353338454246344243312F6469726563746F72792E786D6C858F410AC3201045AF22B36F53E9A60B35CBEEBAE80D244E44489C6234F4F835464A48035D0DF398FF9F8AF63D0E6CC63039F212F8F9020C7D47C6792B21C5FE7403D62A1188E2E60C98D7234A5830286103A55745067B9D86B8A3CF9C7F90C11DE607
310
FB144396D7B6A82D282E9A152AD114D5EF2CB866EEE831B8EEA07A7BB5A8D7D61A2BAAEB7FD5F70921FF497D00504B0304140006080800CC70623B0D6EF93BFE000000A00100003B0000006662782F39464131463745442D413632322D343644302D413938332D3331353338454246344243312F7265736F75726365732F63
310
6F72652E786D6C8D50596E833010BD0A9ADFCA60B334011947A8694ED00B586642AC041B79A97AFC9A40A5F6AF3F33A3B7689E1E3F7DCD8FEC139DD7D6F4C0720A191A65476DA61E62B892236427C19DB5E1970C322367EC618541F0C9D9B8EC90B226A009093576C41D94DE63804C3DD2D18357379C652E63480A7FCF17A9
310
EE72C29CE5894E3AC17D702940B63D59270887DE46A7D0F36263058F518FBB468FE9A7BE6A7420864373B8D4873369AA8691FA421B3294352543C5CAF65C0F6FEF43CB8BD52C78D0F34F46E550061C419494B6843142CB0F5677F4B52BEB177AEC28E5C52AFF638ACBF84F53D42654E51E77B379102C05791282176B5F693D
310
CB4C7BED567C03504B010214000A0000080000CC70623B3DEE336E79000000790000001B00000000000000000000000000000000006175746F6465736B2D64657369676E2D7061636B6167652E786D6C504B01021400140006080800CC70623BD486FD9CA0000000F40000001300000000000000000000000000B20000005B
310
436F6E74656E745F54797065735D2E786D6C504B01021400140006080800CC70623B1EC5D7A3EB0000007C010000080000000000000000000000000083010000636F72652E786D6C504B01021400140006080800CC70623B55019EA25F0000007C000000070000000000000000000000000094020000636E782E786D6C504B
310
01021400140006080800CC70623B8C9102E971010000D40300000C00000000000000000000000000180300006662782F636F72652E786D6C504B01021400140006080800CC70623BFFEA85907E0000009D0000000B00000000000000000000000000B30400006662782F636E782E786D6C504B01021400140006080800CC70
310
623B4FEEA4082C0100001202000031000000000000000000000000005A0500006662782F39464131463745442D413632322D343644302D413938332D3331353338454246344243312F636F72652E786D6C504B01021400140006080800CC70623BAD7543B64E010000330300003000000000000000000000000000D5060000
310
6662782F39464131463745442D413632322D343644302D413938332D3331353338454246344243312F636E782E786D6C504B01021400140006080800CC70623B16AB87BA640500003C1000003400000000000000000000000000710800006662782F39464131463745442D413632322D343644302D413938332D3331353338
310
454246344243312F6F626A656374732E786D6C504B01021400140006080000CC70623B0000000000000000000000003500000000000000000000000000270E00006662782F39464131463745442D413632322D343644302D413938332D3331353338454246344243312F76657274696365732E62696E504B01021400140006
310
080800CC70623BF270F133060000000400000036000000000000000000000000007A0E00006662782F39464131463745442D413632322D343644302D413938332D3331353338454246344243312F747269616E676C65732E62696E504B01021400140006080000CC70623B0000000000000000000000003700000000000000
310
000000000000D40E00006662782F39464131463745442D413632322D343644302D413938332D3331353338454246344243312F617474726962757465732E62696E504B01021400140006080800CC70623B08DA0BD190000000410100003600000000000000000000000000290F00006662782F39464131463745442D413632
310
322D343644302D413938332D3331353338454246344243312F6469726563746F72792E786D6C504B01021400140006080800CC70623B0D6EF93BFE000000A00100003B000000000000000000000000000D1000006662782F39464131463745442D413632322D343644302D413938332D3331353338454246344243312F7265
310
736F75726365732F636F72652E786D6C504B0506000000000E000E0080040000641100000000
  0
XRECORD
  5
175
102
{ACAD_REACTORS
330
173
102
}
330
173
100
AcDbXrecord
280
     1
270
     1
271
     1
  0
XRECORD
  5
174
102
{ACAD_REACTORS
330
173
102
}
330
173
100
AcDbXrecord
280
     1
270
     1
271
     1
  0
XRECORD
  5
1FB
102
{ACAD_REACTORS
330
173
102
}
330
173
100
AcDbXrecord
280
     1
 70
     0
 90
1673772943
  1
ECE7A1D2-D628-4531-984C-D00F80459256
310
504B03040A0000080000CC70623B3DEE336E79000000790000001B0000006175746F6465736B2D64657369676E2D7061636B6167652E786D6C3C3F786D6C2076657273696F6E3D22312E302220656E636F64696E673D227574662D3822203F3E3C666F726D6174733E3C666F726D61743E687474703A2F2F736368656D612E
310
6175746F6465736B2E636F6D2F64657369676E2D7061636B6167652F323030393C2F666F726D61743E3C2F666F726D6174733E504B0304140006080800CC70623BD486FD9CA0000000F4000000130000005B436F6E74656E745F54797065735D2E786D6C7D8EC10E82300C865F65E91D8A1E8C310C0EEA1BF002731658846E
310
D98AC1B77784ABF1D8FE5FBFBF75BBCE937A534CCEB38643598122B6FEE978D0B0485F9C41B54DDD7D022595594E1A469170414C76A4D9A4D207E29CF43ECE46F218070CC6BECC4078ACAA135ACF422C856C0E68EA1BF5669944DDD7BCDE7B1F8E415D77AECB980613C2E4AC91FC167A2B244592486606FC29C8FD7F045B9A
310
EF7053A7E60B504B0304140006080800CC70623BD9DDAED0EC0000007C01000008000000636F72652E786D6C8D90416EC3201045AF82665B61836D9CD8C2444DD39CA01740405C94182C03558F5F9C3852BBEB6A467FFE9B197D7EF89E6EE8CB2CC17A37002D0820E394D7D68D03A478C17B4007C117EFE32F1B20272733C0
310
2A83E0E3E2D3BC49CABB685CCCAAF3DA6CA20CC14440EA969B0182FA34932C648AD911AEC52CD5558EA6A0CF2EC329598D1E47ACCEFBECC59A050463A7EA5833865FEBDD0E37353BE3EE8DBDE3F6786A48D375FBF6CC78B9C282473B3DEFABC5C86834888A900E538A49F5419B9EB47DD5BC907D4F082F57FB1F28CDFA9F50
310
B22ED6D5F6EE030B20687EE43E10BC5CB3C8E51E54AE6B6EE207504B0304140006080800CC70623B55019EA25F0000007C00000007000000636E782E786D6C4DCB3B0E80201045D1AD90E915ED2CF8AC45050C11660C8261F98AB1B07AC9C97D42D718D865D3E909258CFD00CCE24AC6E326A164D74DC0B4128928FF326038
310
472BA13128B1252AC747C6BAB984FC68F0B87FE8960A5C09FE86CFB69FBA01504B0304140006080800CC70623BA24EB22D72010000D40300000C0000006662782F636F72652E786D6CC5535B6E833010BC8AE5DF0A6C5E49888CA3A6694ED00B38E05014B091B1518EDFE511A5A9D228FD2A1F60CDEC7A67C6986DCE4D8D7A
310
69BA4AAB0C073EC548AA5C17952A33ECECD15B61B4E1CC686DBF9561A44423333CC098B3D268D7CE50AE9595CA02AA74216750749DB418E5352C32DCE59FB211BE70162ABA93DF8AFC244AE9073ED050C759670D0840D390E18DF9F1706664C23973AE2A66B62A605A75ACA4C13C4976E1364A12EF355A2EBD384AF65EFA96
310
BC7B8BED2EA6719AAE16FB8491A199335B351775B991C2CA02F390D2D40B028F861F41BCA68B7518BFD0D59A524686F29B26D7164F36B94AD9289CE54E6D1DE6010819891F6E21228B3AD1831EC219194284CF98F06DD01008846CC5A1BEF83801D4CBDC6A1303536877A57A513B0953A94FC707FDBE6064EA84A9E3E6E0FA
310
EE8CF0E9198F7784A316AA0413C2C2F2E0ECA0934D1AE6D05A69BCDE9E91D2A611F573361E38FC1375157F5752AE6B6DFE4B11990F88CCBF0719EE23FF02504B0304140006080800CC70623B408A7D3B7C0000009D0000000B0000006662782F636E782E786D6C4DCCD10A83201886E15B91FFDC552A92A0064DBC8F581632
310
D3703A76F9ABD1C18E3E78F878E5F0D9027ABBFCF2292AE86E2D20171F69F6715550CB827B40839639A5F2770314A7CD293819B45C73AAFB45B35BA61ACAA1C1C7E7855C58C15BC331339661262CC762340413D68D77DA5B42298546CBE6573AF60CEB2F504B0304140006080800CC70623B449FB9BD290100001202000031
310
0000006662782F36394639363044362D344446342D343946362D394244322D3234314243333846323333332F636F72652E786D6C8D515B6EC32010BC0AE22B55850D98B871848994463E412FE002495162B07854397EA176A4F62F3F2C9A9D991D587EB84F37F0AD7D30CEF6905418026DA553C65E7A98E219ED203808EE9D
310
8B7F6810D871D23D2C3014FCE25D9A57483A1BB58D19B54EE9151C43D0110279CB971E06F9A5A7B11A53CC8C70ADE6515EC78BAE4895DB992778883E0700CB907242D17643D7E2538BD869608875438BBAE38922CAC8F1BDD90DB4691A5E2F42C153326A951B95E398B3D1FE599322163C9AE9115F7A3D46ADA0A018778810
310
84E907617BDCEE297BC5BB3DC6BC2EF47FA234AB2745C9D8D8D035EE220B50105E2F0DC1954B9FB747187D9F9D8FA0CCDB042D5FA0C015C65B42DF78BD10F3F3B363CB56C7109DCFDFBBB97E662ED92EB62D13BC2E1BCAE5777DB9966D8A1F504B0304140006080800CC70623BAD7543B64E01000033030000300000006662
310
782F36394639363044362D344446342D343946362D394244322D3234314243333846323333332F636E782E786D6CD593CD6EC32010845F0571AD6CE3D48AD20813A9873E410FBD12D82434182C7EAAE6EDBB2424CD25871E7B41D6EC30B3FA84F9E67BB2E40B4234DE8DB46F1925E094D7C6ED479AD3AE5951B2113C789FEE
310
6C943839C1488B4C05DF079FE72A69D8C96C13AAD6B8631503449F83828872B949AC57D26200B826A308D316B4064D6E46FCDA41C05550DC9E483A00797BFD207EFB092A45DE9514C1BBD22178396BD39D891265658C238DEA00936C654E5E433CB65A26D9F6EDB5EBC14EBF49A45CB856E66048291F6939A9A81BB5C89177
310
38143CA680F4AA299D66A042CEB3354A2684DC9D8D178FE0D9B8B41CAAD720F880EE7EF93C0C18769E099ECC04D5A102C8049A8A05632F4DDF376CF1DE0F6BB65C2F8627B65A33C6BB62177CEBBDAD973006829F89F22E814B54F4BC2BE347F8AA8F681390B50FA73F804400B5F542E796F19FF974E7F78DB802FE05E20750
310
4B0304140006080800CC70623B8D05915C650500003B100000340000006662782F36394639363044362D344446342D343946362D394244322D3234314243333846323333332F6F626A656374732E786D6CAD575B6FA33814FE2B887D06429276DA1565D4266D158D3A339A6846FB502932E050B66023DB74D2FDF5FB190C01
310
9276B2973C046C8ECFF53B17071F77456EBD502133CEAE6CDF9DD81665314F32965ED995DA3A17B6F5310C04E7AA47665B8C14F4CAD6DB7618A48257A5D94AE89654B91AEDDEDDFC61C998326A5B714EA4BCB265FC440BE2924AF184CA6737218AB8E976E7FA6E4338649B0A523E8D98964450A6A029F619B8588D52FE7039
310
B1BD30F0F4F730D0FF866AF6369557DB33949F31A9088B0F848DD8CCFCF9F2767A76E99CCDE733677E3EF59D9BBB9BA5E37F984D16E78BC5E5F5ED25044B25C0C96822E8D60EEFE11B91C581D77CEA34368A1F5329E68CD1B8B61F16D63A1B8E092D294B10C78C4A48EB593D192E7DED9BDEE7995E1B91FDEDD3ACEA9FE831
310
6A756F9F7D4D79F4274C90A7A04248AA51D5F8C718DAE06FB2F75AC4796EBE65D22A88A22223B995679120E2D50E41AA49C260C046A35368846B0BECD0DFF3EBEB8AD4F835768F69B9ADF25C43D30E6B646F807FAA64AD59F61715C7A54127C4AACA98BA3006A9D792DAE165E0D59B61A01FB3A9F9D838D2DAE62445C86166
310
F37564E842E7DE6A69879FEEA2DD5AE7E371E1A5E025154AC307D06A03D73EB5978C58FFA4C8E9033066E0F3BD53BEC1F39F91BE7B55103791EDE6BBB991A2046172CB4581D8B893FA674DDA17A77B3B7C413D1B511FD2743BFF8A38F03A658705E3ADF8015C3A3417FF3D7E439FF591DA0B5F18BC20C1B8981957AE6392A3
310
F43C640C01D1A0B4728E2DD4F26DB4B3C3152A252A3B4E913CEC1C72F012782FF88EFF8637AA552DBEF76408E8A8DE9E50F9E1CB3A2DA0DB1B6039A893B56063DC5B3E3FFB5F72E67AB9FEB4AEC496C4F4C1149625DD662C53E89D7BF0F6151A046260D1337DFDC94502430F83B0EE07A130A224BCAD7DAE1D9FB6CD422FF6
310
920702629C4BB9AE79C12F243C6432A6794E18E5552BA56B431AAB5D91317302B2B071E86C3A42B1A02F999E24061403B5D0EB639195DA655DD3EBEAB4FB862DDF579F014AD0E73C22F99E28DA57FB98E75C6CA2D74D53086D600F4786E0FE3144B771A8A7B900F03594DB8A633CBC49B2EDB69228BB479CF863B5E807AAAB
310
23872F6DFEB4129B949CA33823F58830E86D65621E10047D9DB34D862E8EAC3C2ABC2F7B2C40D67CDFE01F5545B92105AF983AC54D93D69E56FB8E797F88913F898A9FEC705D3F9D1B54EC8426FB500D40A03BD0119B06E1B95DDC7EB8F6975367793EBD70E66733DFB9BC982F9CE564727731999F5D4ECFCE3B8D6A4DC2A0
310
6D50FD148437D110834A64C6CDDF57FBACB5C307A2A477DFE4939736CFEF2B175371E0E10CF0DD1D5C15654E0BCA14D1E87DD02FF93782A162C0A3D95F1524A52770F972BF1EE9809D13CE7DD599467F8ECE9ADD85CE85A34CD45355448C64F9E8A031DC2D596ACC6E5DD93D9B82DE2EF5CAF81363A8E47996A0DE24564A79
310
4115AACE09C55E14540231FDA13C319787134EBF34E3A022514E5B4D9E0826E25C02D5805B15ABE1BEF51B26383D445DD9E875EE33FE4C22DA16427D65A3BCA92CA6D28DD01DF5DC53330704308475351050232CCD31583787BA75774AFB06E5070DD0C8EF484E19968C5D83BA5B90B244D31E54D55A372320FE4786B7EA58
310
44E135AA5467CB7EA333A61683CC6A8C3257034C10CF46F40EF9F5BE59BE5BD30C3C72D235E95D10345C1D45445A5F0BB47E46A5EBE5570F9380B5FA629579952296A773720405982B9DE04011506178964401AA8BDF1FBF0A8EAB6861DD6580C0E38217056766716DAEB2D6FA0917D3E4116581EADB879C4E7CFFB11EFACD
310
3D641311495D92C8676CB409A72D18610D803CE8A626049E8EC1887CB5B44CC39883690DDA8399B4B9855B481E7D71D4A9D22F96E5BB73BF5793020C02137BF837504B0304140006080000CC70623B000000000000000000000000350000006662782F36394639363044362D344446342D343946362D394244322D32343142
310
43333846323333332F76657274696365732E62696E504B0304140006080800CC70623BF270F1330600000004000000360000006662782F36394639363044362D344446342D343946362D394244322D3234314243333846323333332F747269616E676C65732E62696E636660600000504B0304140006080000CC70623B0000
310
00000000000000000000370000006662782F36394639363044362D344446342D343946362D394244322D3234314243333846323333332F617474726962757465732E62696E504B0304140006080800CC70623B08DA0BD19000000041010000360000006662782F36394639363044362D344446342D343946362D394244322D
310
3234314243333846323333332F6469726563746F72792E786D6C858F410AC3201045AF22B36F53E9A60B35CBEEBAE80D244E44489C6234F4F835464A48035D0DF398FF9F8AF63D0E6CC63039F212F8F9020C7D47C6792B21C5FE7403D62A1188E2E60C98D7234A5830286103A55745067B9D86B8A3CF9C7F90C11DE607FB14
310
4396D7B6A82D282E9A152AD114D5EF2CB866EEE831B8EEA07A7BB5A8D7D61A2BAAEB7FD5F70921FF497D00504B0304140006080800CC70623BCA768048FE000000A00100003B0000006662782F36394639363044362D344446342D343946362D394244322D3234314243333846323333332F7265736F75726365732F636F72
310
652E786D6C8D50596E833010BD0A9ADFCA60D600328E9AA639412F609909B1126CE4A5EAF16B0295DABFFECC8CDEA2797AECF8353F924FB44E193D409E5248504B332A3D0D10FC95B4901C39B3C6F85F3248B49871801506CE266BC2B243D2688FDA47549B11775038871E12F988C7004EDE7016A9083E2ADC3D5D84BC8B09
310
D33C8D74D471E6BC8D0192EDC93A815B742658898E651BCB59086ADC356A8C3FD555A1055ED7E7E254D615792D0F075295F585746FF53B694EE78A565DD736979A65AB9933AFE69F8CD2A2F038022F28ED489E135A7CE4554F9BBEA85E68DB53CAB255FEC71496F19FA6A0B42F8B3DEE6673C0F318E4497096AD7DC5F52C33
310
EEB55BFE0D504B010214000A0000080000CC70623B3DEE336E79000000790000001B00000000000000000000000000000000006175746F6465736B2D64657369676E2D7061636B6167652E786D6C504B01021400140006080800CC70623BD486FD9CA0000000F40000001300000000000000000000000000B20000005B436F
310
6E74656E745F54797065735D2E786D6C504B01021400140006080800CC70623BD9DDAED0EC0000007C010000080000000000000000000000000083010000636F72652E786D6C504B01021400140006080800CC70623B55019EA25F0000007C000000070000000000000000000000000095020000636E782E786D6C504B0102
310
1400140006080800CC70623BA24EB22D72010000D40300000C00000000000000000000000000190300006662782F636F72652E786D6C504B01021400140006080800CC70623B408A7D3B7C0000009D0000000B00000000000000000000000000B50400006662782F636E782E786D6C504B01021400140006080800CC70623B
310
449FB9BD290100001202000031000000000000000000000000005A0500006662782F36394639363044362D344446342D343946362D394244322D3234314243333846323333332F636F72652E786D6C504B01021400140006080800CC70623BAD7543B64E010000330300003000000000000000000000000000D20600006662
310
782F36394639363044362D344446342D343946362D394244322D3234314243333846323333332F636E782E786D6C504B01021400140006080800CC70623B8D05915C650500003B10000034000000000000000000000000006E0800006662782F36394639363044362D344446342D343946362D394244322D32343142433338
310
46323333332F6F626A656374732E786D6C504B01021400140006080000CC70623B0000000000000000000000003500000000000000000000000000250E00006662782F36394639363044362D344446342D343946362D394244322D3234314243333846323333332F76657274696365732E62696E504B010214001400060808
310
00CC70623BF270F13306000000040000003600000000000000000000000000780E00006662782F36394639363044362D344446342D343946362D394244322D3234314243333846323333332F747269616E676C65732E62696E504B01021400140006080000CC70623B00000000000000000000000037000000000000000000
310
00000000D20E00006662782F36394639363044362D344446342D343946362D394244322D3234314243333846323333332F617474726962757465732E62696E504B01021400140006080800CC70623B08DA0BD190000000410100003600000000000000000000000000270F00006662782F36394639363044362D344446342D
310
343946362D394244322D3234314243333846323333332F6469726563746F72792E786D6C504B01021400140006080800CC70623BCA768048FE000000A00100003B000000000000000000000000000B1000006662782F36394639363044362D344446342D343946362D394244322D3234314243333846323333332F7265736F
310
75726365732F636F72652E786D6C504B0506000000000E000E0080040000621100000000
  0
XRECORD
  5
176
102
{ACAD_REACTORS
330
173
102
}
330
173
100
AcDbXrecord
280
     1
270
     1
271
     1
  0
XRECORD
  5
177
102
{ACAD_REACTORS
330
173
102
}
330
173
100
AcDbXrecord
280
     1
270
     1
271
     1
  0
XRECORD
  5
7916
102
{ACAD_REACTORS
330
7915
102
}
330
7915
100
AcDbXrecord
280
     1
102
DISPLAYNAME
  1
Metric50
102
FLAGS
 90
        0
  0
CELLSTYLEMAP
  5
78D7
102
{ACAD_REACTORS
330
162
102
}
330
162
100
AcDbCellStyleMap
 90
        3
300
CELLSTYLE
  1
TABLEFORMAT_BEGIN
 90
        5
170
     1
 91
        0
 92
    32768
 62
   257
 93
        1
300
CONTENTFORMAT
  1
CONTENTFORMAT_BEGIN
 90
        0
 91
        0
 92
      512
 93
        0
300

 40
0.0
140
1.0
 94
        5
 62
     0
340
11
144
6.0
309
CONTENTFORMAT_END
171
     1
301
MARGIN
  1
CELLMARGIN_BEGIN
 40
1.5
 40
1.5
 40
1.5
 40
1.5
 40
4.5
 40
4.5
309
CELLMARGIN_END
 94
        6
 95
        1
302
GRIDFORMAT
  1
GRIDFORMAT_BEGIN
 90
        0
 91
        1
 62
     0
 92
       -2
340
14
 93
        0
 40
1.125
309
GRIDFORMAT_END
 95
        2
302
GRIDFORMAT
  1
GRIDFORMAT_BEGIN
 90
        0
 91
        1
 62
     0
 92
       -2
340
14
 93
        0
 40
1.125
309
GRIDFORMAT_END
 95
        4
302
GRIDFORMAT
  1
GRIDFORMAT_BEGIN
 90
        0
 91
        1
 62
     0
 92
       -2
340
14
 93
        0
 40
1.125
309
GRIDFORMAT_END
 95
        8
302
GRIDFORMAT
  1
GRIDFORMAT_BEGIN
 90
        0
 91
        1
 62
     0
 92
       -2
340
14
 93
        0
 40
1.125
309
GRIDFORMAT_END
 95
       16
302
GRIDFORMAT
  1
GRIDFORMAT_BEGIN
 90
        0
 91
        1
 62
     0
 92
       -2
340
14
 93
        0
 40
1.125
309
GRIDFORMAT_END
 95
       32
302
GRIDFORMAT
  1
GRIDFORMAT_BEGIN
 90
        0
 91
        1
 62
     0
 92
       -2
340
14
 93
        0
 40
1.125
309
GRIDFORMAT_END
309
TABLEFORMAT_END
  1
CELLSTYLE_BEGIN
 90
        1
 91
        1
300
_TITLE
309
CELLSTYLE_END
300
CELLSTYLE
  1
TABLEFORMAT_BEGIN
 90
        5
170
     1
 91
        0
 92
        0
 62
   257
 93
        1
300
CONTENTFORMAT
  1
CONTENTFORMAT_BEGIN
 90
        0
 91
        0
 92
      512
 93
        0
300

 40
0.0
140
1.0
 94
        5
 62
     0
340
11
144
4.5
309
CONTENTFORMAT_END
171
     1
301
MARGIN
  1
CELLMARGIN_BEGIN
 40
1.5
 40
1.5
 40
1.5
 40
1.5
 40
4.5
 40
4.5
309
CELLMARGIN_END
 94
        6
 95
        1
302
GRIDFORMAT
  1
GRIDFORMAT_BEGIN
 90
        0
 91
        1
 62
     0
 92
       -2
340
14
 93
        0
 40
1.125
309
GRIDFORMAT_END
 95
        2
302
GRIDFORMAT
  1
GRIDFORMAT_BEGIN
 90
        0
 91
        1
 62
     0
 92
       -2
340
14
 93
        0
 40
1.125
309
GRIDFORMAT_END
 95
        4
302
GRIDFORMAT
  1
GRIDFORMAT_BEGIN
 90
        0
 91
        1
 62
     0
 92
       -2
340
14
 93
        0
 40
1.125
309
GRIDFORMAT_END
 95
        8
302
GRIDFORMAT
  1
GRIDFORMAT_BEGIN
 90
        0
 91
        1
 62
     0
 92
       -2
340
14
 93
        0
 40
1.125
309
GRIDFORMAT_END
 95
       16
302
GRIDFORMAT
  1
GRIDFORMAT_BEGIN
 90
        0
 91
        1
 62
     0
 92
       -2
340
14
 93
        0
 40
1.125
309
GRIDFORMAT_END
 95
       32
302
GRIDFORMAT
  1
GRIDFORMAT_BEGIN
 90
        0
 91
        1
 62
     0
 92
       -2
340
14
 93
        0
 40
1.125
309
GRIDFORMAT_END
309
TABLEFORMAT_END
  1
CELLSTYLE_BEGIN
 90
        2
 91
        1
300
_HEADER
309
CELLSTYLE_END
300
CELLSTYLE
  1
TABLEFORMAT_BEGIN
 90
        5
170
     1
 91
        0
 92
        0
 62
   257
 93
        1
300
CONTENTFORMAT
  1
CONTENTFORMAT_BEGIN
 90
        0
 91
        0
 92
      512
 93
        0
300

 40
0.0
140
1.0
 94
        2
 62
     0
340
11
144
4.5
309
CONTENTFORMAT_END
171
     1
301
MARGIN
  1
CELLMARGIN_BEGIN
 40
1.5
 40
1.5
 40
1.5
 40
1.5
 40
4.5
 40
4.5
309
CELLMARGIN_END
 94
        6
 95
        1
302
GRIDFORMAT
  1
GRIDFORMAT_BEGIN
 90
        0
 91
        1
 62
     0
 92
       -2
340
14
 93
        0
 40
1.125
309
GRIDFORMAT_END
 95
        2
302
GRIDFORMAT
  1
GRIDFORMAT_BEGIN
 90
        0
 91
        1
 62
     0
 92
       -2
340
14
 93
        0
 40
1.125
309
GRIDFORMAT_END
 95
        4
302
GRIDFORMAT
  1
GRIDFORMAT_BEGIN
 90
        0
 91
        1
 62
     0
 92
       -2
340
14
 93
        0
 40
1.125
309
GRIDFORMAT_END
 95
        8
302
GRIDFORMAT
  1
GRIDFORMAT_BEGIN
 90
        0
 91
        1
 62
     0
 92
       -2
340
14
 93
        0
 40
1.125
309
GRIDFORMAT_END
 95
       16
302
GRIDFORMAT
  1
GRIDFORMAT_BEGIN
 90
        0
 91
        1
 62
     0
 92
       -2
340
14
 93
        0
 40
1.125
309
GRIDFORMAT_END
 95
       32
302
GRIDFORMAT
  1
GRIDFORMAT_BEGIN
 90
        0
 91
        1
 62
     0
 92
       -2
340
14
 93
        0
 40
1.125
309
GRIDFORMAT_END
309
TABLEFORMAT_END
  1
CELLSTYLE_BEGIN
 90
        3
 91
        2
300
_DATA
309
CELLSTYLE_END
  0
XRECORD
  5
78EC
102
{ACAD_REACTORS
330
78EB
102
}
330
78EB
100
AcDbXrecord
280
     1
102
RTVSPost2010Prop28
280
     1
102
RTVSPost2010PropOp28
 70
     1
102
RTVSPost2010Prop29
280
     1
102
RTVSPost2010PropOp29
 70
     1
102
RTVSPost2010Prop30
280
     0
102
RTVSPost2010PropOp30
 70
     1
102
RTVSPost2010Prop31
280
     0
102
RTVSPost2010PropOp31
 70
     1
102
RTVSPost2010Prop32
280
     0
102
RTVSPost2010PropOp32
 70
     1
102
RTVSPost2010Prop33
280
     0
102
RTVSPost2010PropOp33
 70
     1
102
RTVSPost2010Prop34
280
     0
102
RTVSPost2010PropOp34
 70
     1
102
RTVSPost2010Prop35
280
     0
102
RTVSPost2010PropOp35
 70
     1
102
RTVSPost2010Prop36
280
     0
102
RTVSPost2010PropOp36
 70
     1
102
RTVSPost2010Prop37
 90
       50
102
RTVSPost2010PropOp37
 70
     1
102
RTVSPost2010Prop38
140
0.0
102
RTVSPost2010PropOp38
 70
     1
102
RTVSPost2010Prop39
140
1.0
102
RTVSPost2010PropOp39
 70
     1
102
RTVSPost2010Prop40
 90
        0
102
RTVSPost2010PropOp40
 70
     1
102
RTVSPost2010Prop41ColorIndex
 90
       18
102
RTVSPost2010Prop41ColorRGB
 90
        0
102
RTVSPost2010PropOp41
 70
     1
102
RTVSPost2010Prop42
 90
       50
102
RTVSPost2010PropOp42
 70
     1
102
RTVSPost2010Prop43
 90
        3
102
RTVSPost2010PropOp43
 70
     1
102
RTVSPost2010Prop44ColorIndex
 90
        5
102
RTVSPost2010Prop44ColorRGB
 90
      255
102
RTVSPost2010PropOp44
 70
     1
102
RTVSPost2010Prop45
280
     0
102
RTVSPost2010PropOp45
 70
     1
102
RTVSPost2010Prop46
 90
       50
102
RTVSPost2010PropOp46
 70
     1
102
RTVSPost2010Prop47
 90
       50
102
RTVSPost2010PropOp47
 70
     1
102
RTVSPost2010Prop48
 90
       50
102
RTVSPost2010PropOp48
 70
     1
102
RTVSPost2010Prop49
280
     0
102
RTVSPost2010PropOp49
 70
     1
102
RTVSPost2010Prop50
 90
       50
102
RTVSPost2010PropOp50
 70
     1
102
RTVSPost2010Prop51ColorIndex
 90
      256
102
RTVSPost2010Prop51ColorRGB
 90
-16777216
102
RTVSPost2010PropOp51
 70
     0
102
RTVSPost2010Prop52
140
1.0
102
RTVSPost2010PropOp52
 70
     0
102
RTVSPost2010Prop53
 90
        2
102
RTVSPost2010PropOp53
 70
     1
102
RTVSPost2010Prop54
  1
strokes_ogs.tif
102
RTVSPost2010PropOp54
 70
     1
102
RTVSPost2010Prop55
280
     0
102
RTVSPost2010PropOp55
 70
     1
102
RTVSPost2010Prop56
140
1.0
102
RTVSPost2010PropOp56
 70
     1
102
RTVSPost2010Prop57
140
1.0
102
RTVSPost2010PropOp57
 70
     1
  0
XRECORD
  5
7914
102
{ACAD_REACTORS
330
7913
102
}
330
7913
100
AcDbXrecord
280
     1
102
RTVSPost2010Prop28
280
     0
102
RTVSPost2010PropOp28
 70
     1
102
RTVSPost2010Prop29
280
     1
102
RTVSPost2010PropOp29
 70
     1
102
RTVSPost2010Prop30
280
     1
102
RTVSPost2010PropOp30
 70
     1
102
RTVSPost2010Prop31
280
     0
102
RTVSPost2010PropOp31
 70
     1
102
RTVSPost2010Prop32
280
     0
102
RTVSPost2010PropOp32
 70
     1
102
RTVSPost2010Prop33
280
     0
102
RTVSPost2010PropOp33
 70
     1
102
RTVSPost2010Prop34
280
     0
102
RTVSPost2010PropOp34
 70
     1
102
RTVSPost2010Prop35
280
     0
102
RTVSPost2010PropOp35
 70
     1
102
RTVSPost2010Prop36
280
     0
102
RTVSPost2010PropOp36
 70
     1
102
RTVSPost2010Prop37
 90
       50
102
RTVSPost2010PropOp37
 70
     1
102
RTVSPost2010Prop38
140
0.0
102
RTVSPost2010PropOp38
 70
     1
102
RTVSPost2010Prop39
140
1.0
102
RTVSPost2010PropOp39
 70
     1
102
RTVSPost2010Prop40
 90
        0
102
RTVSPost2010PropOp40
 70
     1
102
RTVSPost2010Prop41ColorIndex
 90
       18
102
RTVSPost2010Prop41ColorRGB
 90
        0
102
RTVSPost2010PropOp41
 70
     1
102
RTVSPost2010Prop42
 90
       50
102
RTVSPost2010PropOp42
 70
     1
102
RTVSPost2010Prop43
 90
        3
102
RTVSPost2010PropOp43
 70
     1
102
RTVSPost2010Prop44ColorIndex
 90
        5
102
RTVSPost2010Prop44ColorRGB
 90
      255
102
RTVSPost2010PropOp44
 70
     1
102
RTVSPost2010Prop45
280
     0
102
RTVSPost2010PropOp45
 70
     1
102
RTVSPost2010Prop46
 90
       50
102
RTVSPost2010PropOp46
 70
     1
102
RTVSPost2010Prop47
 90
       50
102
RTVSPost2010PropOp47
 70
     1
102
RTVSPost2010Prop48
 90
       50
102
RTVSPost2010PropOp48
 70
     1
102
RTVSPost2010Prop49
280
     0
102
RTVSPost2010PropOp49
 70
     1
102
RTVSPost2010Prop50
 90
       50
102
RTVSPost2010PropOp50
 70
     1
102
RTVSPost2010Prop51ColorIndex
 90
      256
102
RTVSPost2010Prop51ColorRGB
 90
-16777216
102
RTVSPost2010PropOp51
 70
     0
102
RTVSPost2010Prop52
140
1.0
102
RTVSPost2010PropOp52
 70
     0
102
RTVSPost2010Prop53
 90
        2
102
RTVSPost2010PropOp53
 70
     1
102
RTVSPost2010Prop54
  1
strokes_ogs.tif
102
RTVSPost2010PropOp54
 70
     1
102
RTVSPost2010Prop55
280
     0
102
RTVSPost2010PropOp55
 70
     1
102
RTVSPost2010Prop56
140
1.0
102
RTVSPost2010PropOp56
 70
     1
102
RTVSPost2010Prop57
140
1.0
102
RTVSPost2010PropOp57
 70
     1
  0
XRECORD
  5
7912
102
{ACAD_REACTORS
330
7911
102
}
330
7911
100
AcDbXrecord
280
     1
102
RTVSPost2010Prop28
280
     0
102
RTVSPost2010PropOp28
 70
     1
102
RTVSPost2010Prop29
280
     1
102
RTVSPost2010PropOp29
 70
     1
102
RTVSPost2010Prop30
280
     1
102
RTVSPost2010PropOp30
 70
     1
102
RTVSPost2010Prop31
280
     0
102
RTVSPost2010PropOp31
 70
     1
102
RTVSPost2010Prop32
280
     0
102
RTVSPost2010PropOp32
 70
     1
102
RTVSPost2010Prop33
280
     0
102
RTVSPost2010PropOp33
 70
     1
102
RTVSPost2010Prop34
280
     0
102
RTVSPost2010PropOp34
 70
     1
102
RTVSPost2010Prop35
280
     0
102
RTVSPost2010PropOp35
 70
     1
102
RTVSPost2010Prop36
280
     0
102
RTVSPost2010PropOp36
 70
     1
102
RTVSPost2010Prop37
 90
       50
102
RTVSPost2010PropOp37
 70
     1
102
RTVSPost2010Prop38
140
0.0
102
RTVSPost2010PropOp38
 70
     1
102
RTVSPost2010Prop39
140
1.0
102
RTVSPost2010PropOp39
 70
     1
102
RTVSPost2010Prop40
 90
        0
102
RTVSPost2010PropOp40
 70
     1
102
RTVSPost2010Prop41ColorIndex
 90
       18
102
RTVSPost2010Prop41ColorRGB
 90
        0
102
RTVSPost2010PropOp41
 70
     1
102
RTVSPost2010Prop42
 90
       50
102
RTVSPost2010PropOp42
 70
     1
102
RTVSPost2010Prop43
 90
        3
102
RTVSPost2010PropOp43
 70
     1
102
RTVSPost2010Prop44ColorIndex
 90
        5
102
RTVSPost2010Prop44ColorRGB
 90
      255
102
RTVSPost2010PropOp44
 70
     1
102
RTVSPost2010Prop45
280
     0
102
RTVSPost2010PropOp45
 70
     1
102
RTVSPost2010Prop46
 90
       50
102
RTVSPost2010PropOp46
 70
     1
102
RTVSPost2010Prop47
 90
       50
102
RTVSPost2010PropOp47
 70
     1
102
RTVSPost2010Prop48
 90
       50
102
RTVSPost2010PropOp48
 70
     1
102
RTVSPost2010Prop49
280
     0
102
RTVSPost2010PropOp49
 70
     1
102
RTVSPost2010Prop50
 90
       50
102
RTVSPost2010PropOp50
 70
     1
102
RTVSPost2010Prop51ColorIndex
 90
      256
102
RTVSPost2010Prop51ColorRGB
 90
-16777216
102
RTVSPost2010PropOp51
 70
     0
102
RTVSPost2010Prop52
140
1.0
102
RTVSPost2010PropOp52
 70
     0
102
RTVSPost2010Prop53
 90
        2
102
RTVSPost2010PropOp53
 70
     1
102
RTVSPost2010Prop54
  1
strokes_ogs.tif
102
RTVSPost2010PropOp54
 70
     1
102
RTVSPost2010Prop55
280
     0
102
RTVSPost2010PropOp55
 70
     1
102
RTVSPost2010Prop56
140
1.0
102
RTVSPost2010PropOp56
 70
     1
102
RTVSPost2010Prop57
140
1.0
102
RTVSPost2010PropOp57
 70
     1
  0
XRECORD
  5
78EA
102
{ACAD_REACTORS
330
78E9
102
}
330
78E9
100
AcDbXrecord
280
     1
102
RTVSPost2010Prop28
280
     0
102
RTVSPost2010PropOp28
 70
     1
102
RTVSPost2010Prop29
280
     1
102
RTVSPost2010PropOp29
 70
     1
102
RTVSPost2010Prop30
280
     1
102
RTVSPost2010PropOp30
 70
     1
102
RTVSPost2010Prop31
280
     0
102
RTVSPost2010PropOp31
 70
     1
102
RTVSPost2010Prop32
280
     0
102
RTVSPost2010PropOp32
 70
     1
102
RTVSPost2010Prop33
280
     0
102
RTVSPost2010PropOp33
 70
     1
102
RTVSPost2010Prop34
280
     0
102
RTVSPost2010PropOp34
 70
     1
102
RTVSPost2010Prop35
280
     0
102
RTVSPost2010PropOp35
 70
     1
102
RTVSPost2010Prop36
280
     0
102
RTVSPost2010PropOp36
 70
     1
102
RTVSPost2010Prop37
 90
       50
102
RTVSPost2010PropOp37
 70
     1
102
RTVSPost2010Prop38
140
0.0
102
RTVSPost2010PropOp38
 70
     1
102
RTVSPost2010Prop39
140
1.0
102
RTVSPost2010PropOp39
 70
     1
102
RTVSPost2010Prop40
 90
        0
102
RTVSPost2010PropOp40
 70
     1
102
RTVSPost2010Prop41ColorIndex
 90
       18
102
RTVSPost2010Prop41ColorRGB
 90
        0
102
RTVSPost2010PropOp41
 70
     1
102
RTVSPost2010Prop42
 90
       50
102
RTVSPost2010PropOp42
 70
     1
102
RTVSPost2010Prop43
 90
        3
102
RTVSPost2010PropOp43
 70
     1
102
RTVSPost2010Prop44ColorIndex
 90
        5
102
RTVSPost2010Prop44ColorRGB
 90
      255
102
RTVSPost2010PropOp44
 70
     1
102
RTVSPost2010Prop45
280
     0
102
RTVSPost2010PropOp45
 70
     1
102
RTVSPost2010Prop46
 90
       50
102
RTVSPost2010PropOp46
 70
     1
102
RTVSPost2010Prop47
 90
       50
102
RTVSPost2010PropOp47
 70
     1
102
RTVSPost2010Prop48
 90
       50
102
RTVSPost2010PropOp48
 70
     1
102
RTVSPost2010Prop49
280
     0
102
RTVSPost2010PropOp49
 70
     1
102
RTVSPost2010Prop50
 90
       50
102
RTVSPost2010PropOp50
 70
     1
102
RTVSPost2010Prop51ColorIndex
 90
      256
102
RTVSPost2010Prop51ColorRGB
 90
-16777216
102
RTVSPost2010PropOp51
 70
     0
102
RTVSPost2010Prop52
140
1.0
102
RTVSPost2010PropOp52
 70
     0
102
RTVSPost2010Prop53
 90
        2
102
RTVSPost2010PropOp53
 70
     1
102
RTVSPost2010Prop54
  1
strokes_ogs.tif
102
RTVSPost2010PropOp54
 70
     1
102
RTVSPost2010Prop55
280
     0
102
RTVSPost2010PropOp55
 70
     1
102
RTVSPost2010Prop56
140
1.0
102
RTVSPost2010PropOp56
 70
     1
102
RTVSPost2010Prop57
140
1.0
102
RTVSPost2010PropOp57
 70
     1
  0
XRECORD
  5
78F8
102
{ACAD_REACTORS
330
78F7
102
}
330
78F7
100
AcDbXrecord
280
     1
102
RTVSPost2010Prop28
280
     0
102
RTVSPost2010PropOp28
 70
     1
102
RTVSPost2010Prop29
280
     1
102
RTVSPost2010PropOp29
 70
     1
102
RTVSPost2010Prop30
280
     1
102
RTVSPost2010PropOp30
 70
     1
102
RTVSPost2010Prop31
280
     0
102
RTVSPost2010PropOp31
 70
     1
102
RTVSPost2010Prop32
280
     0
102
RTVSPost2010PropOp32
 70
     1
102
RTVSPost2010Prop33
280
     0
102
RTVSPost2010PropOp33
 70
     1
102
RTVSPost2010Prop34
280
     0
102
RTVSPost2010PropOp34
 70
     1
102
RTVSPost2010Prop35
280
     0
102
RTVSPost2010PropOp35
 70
     1
102
RTVSPost2010Prop36
280
     0
102
RTVSPost2010PropOp36
 70
     1
102
RTVSPost2010Prop37
 90
       50
102
RTVSPost2010PropOp37
 70
     1
102
RTVSPost2010Prop38
140
0.0
102
RTVSPost2010PropOp38
 70
     1
102
RTVSPost2010Prop39
140
1.0
102
RTVSPost2010PropOp39
 70
     1
102
RTVSPost2010Prop40
 90
        0
102
RTVSPost2010PropOp40
 70
     1
102
RTVSPost2010Prop41ColorIndex
 90
       18
102
RTVSPost2010Prop41ColorRGB
 90
        0
102
RTVSPost2010PropOp41
 70
     1
102
RTVSPost2010Prop42
 90
       50
102
RTVSPost2010PropOp42
 70
     1
102
RTVSPost2010Prop43
 90
        3
102
RTVSPost2010PropOp43
 70
     1
102
RTVSPost2010Prop44ColorIndex
 90
        5
102
RTVSPost2010Prop44ColorRGB
 90
      255
102
RTVSPost2010PropOp44
 70
     1
102
RTVSPost2010Prop45
280
     0
102
RTVSPost2010PropOp45
 70
     1
102
RTVSPost2010Prop46
 90
       50
102
RTVSPost2010PropOp46
 70
     1
102
RTVSPost2010Prop47
 90
       50
102
RTVSPost2010PropOp47
 70
     1
102
RTVSPost2010Prop48
 90
       50
102
RTVSPost2010PropOp48
 70
     1
102
RTVSPost2010Prop49
280
     0
102
RTVSPost2010PropOp49
 70
     1
102
RTVSPost2010Prop50
 90
       50
102
RTVSPost2010PropOp50
 70
     1
102
RTVSPost2010Prop51ColorIndex
 90
      256
102
RTVSPost2010Prop51ColorRGB
 90
-16777216
102
RTVSPost2010PropOp51
 70
     0
102
RTVSPost2010Prop52
140
1.0
102
RTVSPost2010PropOp52
 70
     0
102
RTVSPost2010Prop53
 90
        2
102
RTVSPost2010PropOp53
 70
     1
102
RTVSPost2010Prop54
  1
strokes_ogs.tif
102
RTVSPost2010PropOp54
 70
     1
102
RTVSPost2010Prop55
280
     0
102
RTVSPost2010PropOp55
 70
     1
102
RTVSPost2010Prop56
140
1.0
102
RTVSPost2010PropOp56
 70
     1
102
RTVSPost2010Prop57
140
1.0
102
RTVSPost2010PropOp57
 70
     1
  0
XRECORD
  5
7900
102
{ACAD_REACTORS
330
78FF
102
}
330
78FF
100
AcDbXrecord
280
     1
102
RTVSPost2010Prop28
280
     0
102
RTVSPost2010PropOp28
 70
     1
102
RTVSPost2010Prop29
280
     1
102
RTVSPost2010PropOp29
 70
     1
102
RTVSPost2010Prop30
280
     1
102
RTVSPost2010PropOp30
 70
     1
102
RTVSPost2010Prop31
280
     0
102
RTVSPost2010PropOp31
 70
     1
102
RTVSPost2010Prop32
280
     0
102
RTVSPost2010PropOp32
 70
     1
102
RTVSPost2010Prop33
280
     0
102
RTVSPost2010PropOp33
 70
     1
102
RTVSPost2010Prop34
280
     0
102
RTVSPost2010PropOp34
 70
     1
102
RTVSPost2010Prop35
280
     0
102
RTVSPost2010PropOp35
 70
     1
102
RTVSPost2010Prop36
280
     0
102
RTVSPost2010PropOp36
 70
     1
102
RTVSPost2010Prop37
 90
       50
102
RTVSPost2010PropOp37
 70
     1
102
RTVSPost2010Prop38
140
0.0
102
RTVSPost2010PropOp38
 70
     1
102
RTVSPost2010Prop39
140
1.0
102
RTVSPost2010PropOp39
 70
     1
102
RTVSPost2010Prop40
 90
        0
102
RTVSPost2010PropOp40
 70
     1
102
RTVSPost2010Prop41ColorIndex
 90
       18
102
RTVSPost2010Prop41ColorRGB
 90
        0
102
RTVSPost2010PropOp41
 70
     1
102
RTVSPost2010Prop42
 90
       50
102
RTVSPost2010PropOp42
 70
     1
102
RTVSPost2010Prop43
 90
        3
102
RTVSPost2010PropOp43
 70
     1
102
RTVSPost2010Prop44ColorIndex
 90
        5
102
RTVSPost2010Prop44ColorRGB
 90
      255
102
RTVSPost2010PropOp44
 70
     1
102
RTVSPost2010Prop45
280
     0
102
RTVSPost2010PropOp45
 70
     1
102
RTVSPost2010Prop46
 90
       50
102
RTVSPost2010PropOp46
 70
     1
102
RTVSPost2010Prop47
 90
       50
102
RTVSPost2010PropOp47
 70
     1
102
RTVSPost2010Prop48
 90
       50
102
RTVSPost2010PropOp48
 70
     1
102
RTVSPost2010Prop49
280
     0
102
RTVSPost2010PropOp49
 70
     1
102
RTVSPost2010Prop50
 90
       50
102
RTVSPost2010PropOp50
 70
     1
102
RTVSPost2010Prop51ColorIndex
 90
      256
102
RTVSPost2010Prop51ColorRGB
 90
-16777216
102
RTVSPost2010PropOp51
 70
     0
102
RTVSPost2010Prop52
140
1.0
102
RTVSPost2010PropOp52
 70
     0
102
RTVSPost2010Prop53
 90
        2
102
RTVSPost2010PropOp53
 70
     1
102
RTVSPost2010Prop54
  1
strokes_ogs.tif
102
RTVSPost2010PropOp54
 70
     1
102
RTVSPost2010Prop55
280
     0
102
RTVSPost2010PropOp55
 70
     1
102
RTVSPost2010Prop56
140
1.0
102
RTVSPost2010PropOp56
 70
     1
102
RTVSPost2010Prop57
140
1.0
102
RTVSPost2010PropOp57
 70
     1
  0
XRECORD
  5
78F2
102
{ACAD_REACTORS
330
78F1
102
}
330
78F1
100
AcDbXrecord
280
     1
102
RTVSPost2010Prop28
280
     0
102
RTVSPost2010PropOp28
 70
     1
102
RTVSPost2010Prop29
280
     1
102
RTVSPost2010PropOp29
 70
     1
102
RTVSPost2010Prop30
280
     1
102
RTVSPost2010PropOp30
 70
     1
102
RTVSPost2010Prop31
280
     0
102
RTVSPost2010PropOp31
 70
     1
102
RTVSPost2010Prop32
280
     0
102
RTVSPost2010PropOp32
 70
     1
102
RTVSPost2010Prop33
280
     0
102
RTVSPost2010PropOp33
 70
     1
102
RTVSPost2010Prop34
280
     0
102
RTVSPost2010PropOp34
 70
     1
102
RTVSPost2010Prop35
280
     0
102
RTVSPost2010PropOp35
 70
     1
102
RTVSPost2010Prop36
280
     0
102
RTVSPost2010PropOp36
 70
     1
102
RTVSPost2010Prop37
 90
       50
102
RTVSPost2010PropOp37
 70
     1
102
RTVSPost2010Prop38
140
0.0
102
RTVSPost2010PropOp38
 70
     1
102
RTVSPost2010Prop39
140
1.0
102
RTVSPost2010PropOp39
 70
     1
102
RTVSPost2010Prop40
 90
        0
102
RTVSPost2010PropOp40
 70
     1
102
RTVSPost2010Prop41ColorIndex
 90
       18
102
RTVSPost2010Prop41ColorRGB
 90
        0
102
RTVSPost2010PropOp41
 70
     1
102
RTVSPost2010Prop42
 90
       50
102
RTVSPost2010PropOp42
 70
     1
102
RTVSPost2010Prop43
 90
        3
102
RTVSPost2010PropOp43
 70
     1
102
RTVSPost2010Prop44ColorIndex
 90
        5
102
RTVSPost2010Prop44ColorRGB
 90
      255
102
RTVSPost2010PropOp44
 70
     1
102
RTVSPost2010Prop45
280
     0
102
RTVSPost2010PropOp45
 70
     1
102
RTVSPost2010Prop46
 90
       50
102
RTVSPost2010PropOp46
 70
     1
102
RTVSPost2010Prop47
 90
       50
102
RTVSPost2010PropOp47
 70
     1
102
RTVSPost2010Prop48
 90
       50
102
RTVSPost2010PropOp48
 70
     1
102
RTVSPost2010Prop49
280
     0
102
RTVSPost2010PropOp49
 70
     1
102
RTVSPost2010Prop50
 90
       50
102
RTVSPost2010PropOp50
 70
     1
102
RTVSPost2010Prop51ColorIndex
 90
      256
102
RTVSPost2010Prop51ColorRGB
 90
-16777216
102
RTVSPost2010PropOp51
 70
     0
102
RTVSPost2010Prop52
140
1.0
102
RTVSPost2010PropOp52
 70
     0
102
RTVSPost2010Prop53
 90
        2
102
RTVSPost2010PropOp53
 70
     1
102
RTVSPost2010Prop54
  1
strokes_ogs.tif
102
RTVSPost2010PropOp54
 70
     1
102
RTVSPost2010Prop55
280
     0
102
RTVSPost2010PropOp55
 70
     1
102
RTVSPost2010Prop56
140
1.0
102
RTVSPost2010PropOp56
 70
     1
102
RTVSPost2010Prop57
140
1.0
102
RTVSPost2010PropOp57
 70
     1
  0
XRECORD
  5
78F6
102
{ACAD_REACTORS
330
78F5
102
}
330
78F5
100
AcDbXrecord
280
     1
102
RTVSPost2010Prop28
280
     0
102
RTVSPost2010PropOp28
 70
     1
102
RTVSPost2010Prop29
280
     1
102
RTVSPost2010PropOp29
 70
     1
102
RTVSPost2010Prop30
280
     1
102
RTVSPost2010PropOp30
 70
     1
102
RTVSPost2010Prop31
280
     0
102
RTVSPost2010PropOp31
 70
     1
102
RTVSPost2010Prop32
280
     0
102
RTVSPost2010PropOp32
 70
     1
102
RTVSPost2010Prop33
280
     0
102
RTVSPost2010PropOp33
 70
     1
102
RTVSPost2010Prop34
280
     0
102
RTVSPost2010PropOp34
 70
     1
102
RTVSPost2010Prop35
280
     0
102
RTVSPost2010PropOp35
 70
     1
102
RTVSPost2010Prop36
280
     0
102
RTVSPost2010PropOp36
 70
     1
102
RTVSPost2010Prop37
 90
       50
102
RTVSPost2010PropOp37
 70
     1
102
RTVSPost2010Prop38
140
0.0
102
RTVSPost2010PropOp38
 70
     1
102
RTVSPost2010Prop39
140
1.0
102
RTVSPost2010PropOp39
 70
     1
102
RTVSPost2010Prop40
 90
        0
102
RTVSPost2010PropOp40
 70
     1
102
RTVSPost2010Prop41ColorIndex
 90
       18
102
RTVSPost2010Prop41ColorRGB
 90
        0
102
RTVSPost2010PropOp41
 70
     1
102
RTVSPost2010Prop42
 90
       50
102
RTVSPost2010PropOp42
 70
     1
102
RTVSPost2010Prop43
 90
        3
102
RTVSPost2010PropOp43
 70
     1
102
RTVSPost2010Prop44ColorIndex
 90
        5
102
RTVSPost2010Prop44ColorRGB
 90
      255
102
RTVSPost2010PropOp44
 70
     1
102
RTVSPost2010Prop45
280
     0
102
RTVSPost2010PropOp45
 70
     1
102
RTVSPost2010Prop46
 90
       50
102
RTVSPost2010PropOp46
 70
     1
102
RTVSPost2010Prop47
 90
       50
102
RTVSPost2010PropOp47
 70
     1
102
RTVSPost2010Prop48
 90
       50
102
RTVSPost2010PropOp48
 70
     1
102
RTVSPost2010Prop49
280
     0
102
RTVSPost2010PropOp49
 70
     1
102
RTVSPost2010Prop50
 90
       50
102
RTVSPost2010PropOp50
 70
     1
102
RTVSPost2010Prop51ColorIndex
 90
      256
102
RTVSPost2010Prop51ColorRGB
 90
-16777216
102
RTVSPost2010PropOp51
 70
     0
102
RTVSPost2010Prop52
140
1.0
102
RTVSPost2010PropOp52
 70
     0
102
RTVSPost2010Prop53
 90
        2
102
RTVSPost2010PropOp53
 70
     1
102
RTVSPost2010Prop54
  1
strokes_ogs.tif
102
RTVSPost2010PropOp54
 70
     1
102
RTVSPost2010Prop55
280
     0
102
RTVSPost2010PropOp55
 70
     1
102
RTVSPost2010Prop56
140
1.0
102
RTVSPost2010PropOp56
 70
     1
102
RTVSPost2010Prop57
140
1.0
102
RTVSPost2010PropOp57
 70
     1
  0
XRECORD
  5
7906
102
{ACAD_REACTORS
330
7905
102
}
330
7905
100
AcDbXrecord
280
     1
102
RTVSPost2010Prop28
280
     0
102
RTVSPost2010PropOp28
 70
     1
102
RTVSPost2010Prop29
280
     1
102
RTVSPost2010PropOp29
 70
     1
102
RTVSPost2010Prop30
280
     1
102
RTVSPost2010PropOp30
 70
     1
102
RTVSPost2010Prop31
280
     0
102
RTVSPost2010PropOp31
 70
     1
102
RTVSPost2010Prop32
280
     0
102
RTVSPost2010PropOp32
 70
     1
102
RTVSPost2010Prop33
280
     0
102
RTVSPost2010PropOp33
 70
     1
102
RTVSPost2010Prop34
280
     0
102
RTVSPost2010PropOp34
 70
     1
102
RTVSPost2010Prop35
280
     0
102
RTVSPost2010PropOp35
 70
     1
102
RTVSPost2010Prop36
280
     0
102
RTVSPost2010PropOp36
 70
     1
102
RTVSPost2010Prop37
 90
       50
102
RTVSPost2010PropOp37
 70
     1
102
RTVSPost2010Prop38
140
0.0
102
RTVSPost2010PropOp38
 70
     1
102
RTVSPost2010Prop39
140
1.0
102
RTVSPost2010PropOp39
 70
     1
102
RTVSPost2010Prop40
 90
        0
102
RTVSPost2010PropOp40
 70
     1
102
RTVSPost2010Prop41ColorIndex
 90
       18
102
RTVSPost2010Prop41ColorRGB
 90
        0
102
RTVSPost2010PropOp41
 70
     1
102
RTVSPost2010Prop42
 90
       50
102
RTVSPost2010PropOp42
 70
     1
102
RTVSPost2010Prop43
 90
        3
102
RTVSPost2010PropOp43
 70
     1
102
RTVSPost2010Prop44ColorIndex
 90
        5
102
RTVSPost2010Prop44ColorRGB
 90
      255
102
RTVSPost2010PropOp44
 70
     1
102
RTVSPost2010Prop45
280
     0
102
RTVSPost2010PropOp45
 70
     1
102
RTVSPost2010Prop46
 90
       50
102
RTVSPost2010PropOp46
 70
     1
102
RTVSPost2010Prop47
 90
       50
102
RTVSPost2010PropOp47
 70
     1
102
RTVSPost2010Prop48
 90
       50
102
RTVSPost2010PropOp48
 70
     1
102
RTVSPost2010Prop49
280
     0
102
RTVSPost2010PropOp49
 70
     1
102
RTVSPost2010Prop50
 90
       50
102
RTVSPost2010PropOp50
 70
     1
102
RTVSPost2010Prop51ColorIndex
 90
      256
102
RTVSPost2010Prop51ColorRGB
 90
-16777216
102
RTVSPost2010PropOp51
 70
     0
102
RTVSPost2010Prop52
140
1.0
102
RTVSPost2010PropOp52
 70
     0
102
RTVSPost2010Prop53
 90
        2
102
RTVSPost2010PropOp53
 70
     1
102
RTVSPost2010Prop54
  1
strokes_ogs.tif
102
RTVSPost2010PropOp54
 70
     1
102
RTVSPost2010Prop55
280
     0
102
RTVSPost2010PropOp55
 70
     1
102
RTVSPost2010Prop56
140
1.0
102
RTVSPost2010PropOp56
 70
     1
102
RTVSPost2010Prop57
140
1.0
102
RTVSPost2010PropOp57
 70
     1
  0
XRECORD
  5
78FE
102
{ACAD_REACTORS
330
78FD
102
}
330
78FD
100
AcDbXrecord
280
     1
102
RTVSPost2010Prop28
280
     0
102
RTVSPost2010PropOp28
 70
     1
102
RTVSPost2010Prop29
280
     1
102
RTVSPost2010PropOp29
 70
     1
102
RTVSPost2010Prop30
280
     1
102
RTVSPost2010PropOp30
 70
     1
102
RTVSPost2010Prop31
280
     0
102
RTVSPost2010PropOp31
 70
     1
102
RTVSPost2010Prop32
280
     0
102
RTVSPost2010PropOp32
 70
     1
102
RTVSPost2010Prop33
280
     0
102
RTVSPost2010PropOp33
 70
     1
102
RTVSPost2010Prop34
280
     0
102
RTVSPost2010PropOp34
 70
     1
102
RTVSPost2010Prop35
280
     0
102
RTVSPost2010PropOp35
 70
     1
102
RTVSPost2010Prop36
280
     0
102
RTVSPost2010PropOp36
 70
     1
102
RTVSPost2010Prop37
 90
       50
102
RTVSPost2010PropOp37
 70
     1
102
RTVSPost2010Prop38
140
0.0
102
RTVSPost2010PropOp38
 70
     1
102
RTVSPost2010Prop39
140
1.0
102
RTVSPost2010PropOp39
 70
     1
102
RTVSPost2010Prop40
 90
        0
102
RTVSPost2010PropOp40
 70
     1
102
RTVSPost2010Prop41ColorIndex
 90
       18
102
RTVSPost2010Prop41ColorRGB
 90
        0
102
RTVSPost2010PropOp41
 70
     1
102
RTVSPost2010Prop42
 90
       50
102
RTVSPost2010PropOp42
 70
     1
102
RTVSPost2010Prop43
 90
        3
102
RTVSPost2010PropOp43
 70
     1
102
RTVSPost2010Prop44ColorIndex
 90
        5
102
RTVSPost2010Prop44ColorRGB
 90
      255
102
RTVSPost2010PropOp44
 70
     1
102
RTVSPost2010Prop45
280
     0
102
RTVSPost2010PropOp45
 70
     1
102
RTVSPost2010Prop46
 90
       50
102
RTVSPost2010PropOp46
 70
     1
102
RTVSPost2010Prop47
 90
       50
102
RTVSPost2010PropOp47
 70
     1
102
RTVSPost2010Prop48
 90
       50
102
RTVSPost2010PropOp48
 70
     1
102
RTVSPost2010Prop49
280
     0
102
RTVSPost2010PropOp49
 70
     1
102
RTVSPost2010Prop50
 90
       50
102
RTVSPost2010PropOp50
 70
     1
102
RTVSPost2010Prop51ColorIndex
 90
      256
102
RTVSPost2010Prop51ColorRGB
 90
-16777216
102
RTVSPost2010PropOp51
 70
     0
102
RTVSPost2010Prop52
140
1.0
102
RTVSPost2010PropOp52
 70
     0
102
RTVSPost2010Prop53
 90
        2
102
RTVSPost2010PropOp53
 70
     1
102
RTVSPost2010Prop54
  1
strokes_ogs.tif
102
RTVSPost2010PropOp54
 70
     1
102
RTVSPost2010Prop55
280
     0
102
RTVSPost2010PropOp55
 70
     1
102
RTVSPost2010Prop56
140
1.0
102
RTVSPost2010PropOp56
 70
     1
102
RTVSPost2010Prop57
140
1.0
102
RTVSPost2010PropOp57
 70
     1
  0
XRECORD
  5
78E2
102
{ACAD_REACTORS
330
78E1
102
}
330
78E1
100
AcDbXrecord
280
     1
102
RTVSPost2010Prop28
280
     0
102
RTVSPost2010PropOp28
 70
     1
102
RTVSPost2010Prop29
280
     1
102
RTVSPost2010PropOp29
 70
     1
102
RTVSPost2010Prop30
280
     1
102
RTVSPost2010PropOp30
 70
     1
102
RTVSPost2010Prop31
280
     0
102
RTVSPost2010PropOp31
 70
     1
102
RTVSPost2010Prop32
280
     0
102
RTVSPost2010PropOp32
 70
     1
102
RTVSPost2010Prop33
280
     0
102
RTVSPost2010PropOp33
 70
     1
102
RTVSPost2010Prop34
280
     0
102
RTVSPost2010PropOp34
 70
     1
102
RTVSPost2010Prop35
280
     0
102
RTVSPost2010PropOp35
 70
     1
102
RTVSPost2010Prop36
280
     0
102
RTVSPost2010PropOp36
 70
     1
102
RTVSPost2010Prop37
 90
       50
102
RTVSPost2010PropOp37
 70
     1
102
RTVSPost2010Prop38
140
0.0
102
RTVSPost2010PropOp38
 70
     1
102
RTVSPost2010Prop39
140
1.0
102
RTVSPost2010PropOp39
 70
     1
102
RTVSPost2010Prop40
 90
        0
102
RTVSPost2010PropOp40
 70
     1
102
RTVSPost2010Prop41ColorIndex
 90
       18
102
RTVSPost2010Prop41ColorRGB
 90
        0
102
RTVSPost2010PropOp41
 70
     1
102
RTVSPost2010Prop42
 90
       50
102
RTVSPost2010PropOp42
 70
     1
102
RTVSPost2010Prop43
 90
        3
102
RTVSPost2010PropOp43
 70
     1
102
RTVSPost2010Prop44ColorIndex
 90
        5
102
RTVSPost2010Prop44ColorRGB
 90
      255
102
RTVSPost2010PropOp44
 70
     1
102
RTVSPost2010Prop45
280
     0
102
RTVSPost2010PropOp45
 70
     1
102
RTVSPost2010Prop46
 90
       50
102
RTVSPost2010PropOp46
 70
     1
102
RTVSPost2010Prop47
 90
       50
102
RTVSPost2010PropOp47
 70
     1
102
RTVSPost2010Prop48
 90
       50
102
RTVSPost2010PropOp48
 70
     1
102
RTVSPost2010Prop49
280
     0
102
RTVSPost2010PropOp49
 70
     1
102
RTVSPost2010Prop50
 90
       50
102
RTVSPost2010PropOp50
 70
     1
102
RTVSPost2010Prop51ColorIndex
 90
      256
102
RTVSPost2010Prop51ColorRGB
 90
-16777216
102
RTVSPost2010PropOp51
 70
     0
102
RTVSPost2010Prop52
140
1.0
102
RTVSPost2010PropOp52
 70
     0
102
RTVSPost2010Prop53
 90
        2
102
RTVSPost2010PropOp53
 70
     1
102
RTVSPost2010Prop54
  1
strokes_ogs.tif
102
RTVSPost2010PropOp54
 70
     1
102
RTVSPost2010Prop55
280
     0
102
RTVSPost2010PropOp55
 70
     1
102
RTVSPost2010Prop56
140
1.0
102
RTVSPost2010PropOp56
 70
     1
102
RTVSPost2010Prop57
140
1.0
102
RTVSPost2010PropOp57
 70
     1
  0
XRECORD
  5
78E4
102
{ACAD_REACTORS
330
78E3
102
}
330
78E3
100
AcDbXrecord
280
     1
102
RTVSPost2010Prop28
280
     0
102
RTVSPost2010PropOp28
 70
     1
102
RTVSPost2010Prop29
280
     1
102
RTVSPost2010PropOp29
 70
     1
102
RTVSPost2010Prop30
280
     1
102
RTVSPost2010PropOp30
 70
     1
102
RTVSPost2010Prop31
280
     0
102
RTVSPost2010PropOp31
 70
     1
102
RTVSPost2010Prop32
280
     0
102
RTVSPost2010PropOp32
 70
     1
102
RTVSPost2010Prop33
280
     0
102
RTVSPost2010PropOp33
 70
     1
102
RTVSPost2010Prop34
280
     0
102
RTVSPost2010PropOp34
 70
     1
102
RTVSPost2010Prop35
280
     0
102
RTVSPost2010PropOp35
 70
     1
102
RTVSPost2010Prop36
280
     0
102
RTVSPost2010PropOp36
 70
     1
102
RTVSPost2010Prop37
 90
       50
102
RTVSPost2010PropOp37
 70
     1
102
RTVSPost2010Prop38
140
0.0
102
RTVSPost2010PropOp38
 70
     1
102
RTVSPost2010Prop39
140
1.0
102
RTVSPost2010PropOp39
 70
     1
102
RTVSPost2010Prop40
 90
        0
102
RTVSPost2010PropOp40
 70
     1
102
RTVSPost2010Prop41ColorIndex
 90
       18
102
RTVSPost2010Prop41ColorRGB
 90
        0
102
RTVSPost2010PropOp41
 70
     1
102
RTVSPost2010Prop42
 90
       50
102
RTVSPost2010PropOp42
 70
     1
102
RTVSPost2010Prop43
 90
        3
102
RTVSPost2010PropOp43
 70
     1
102
RTVSPost2010Prop44ColorIndex
 90
        5
102
RTVSPost2010Prop44ColorRGB
 90
      255
102
RTVSPost2010PropOp44
 70
     1
102
RTVSPost2010Prop45
280
     0
102
RTVSPost2010PropOp45
 70
     1
102
RTVSPost2010Prop46
 90
       50
102
RTVSPost2010PropOp46
 70
     1
102
RTVSPost2010Prop47
 90
       50
102
RTVSPost2010PropOp47
 70
     1
102
RTVSPost2010Prop48
 90
       50
102
RTVSPost2010PropOp48
 70
     1
102
RTVSPost2010Prop49
280
     0
102
RTVSPost2010PropOp49
 70
     1
102
RTVSPost2010Prop50
 90
       50
102
RTVSPost2010PropOp50
 70
     1
102
RTVSPost2010Prop51ColorIndex
 90
      256
102
RTVSPost2010Prop51ColorRGB
 90
-16777216
102
RTVSPost2010PropOp51
 70
     0
102
RTVSPost2010Prop52
140
1.0
102
RTVSPost2010PropOp52
 70
     0
102
RTVSPost2010Prop53
 90
        2
102
RTVSPost2010PropOp53
 70
     1
102
RTVSPost2010Prop54
  1
strokes_ogs.tif
102
RTVSPost2010PropOp54
 70
     1
102
RTVSPost2010Prop55
280
     0
102
RTVSPost2010PropOp55
 70
     1
102
RTVSPost2010Prop56
140
1.0
102
RTVSPost2010PropOp56
 70
     1
102
RTVSPost2010Prop57
140
1.0
102
RTVSPost2010PropOp57
 70
     1
  0
XRECORD
  5
78E6
102
{ACAD_REACTORS
330
78E5
102
}
330
78E5
100
AcDbXrecord
280
     1
102
RTVSPost2010Prop28
280
     0
102
RTVSPost2010PropOp28
 70
     1
102
RTVSPost2010Prop29
280
     1
102
RTVSPost2010PropOp29
 70
     1
102
RTVSPost2010Prop30
280
     1
102
RTVSPost2010PropOp30
 70
     1
102
RTVSPost2010Prop31
280
     0
102
RTVSPost2010PropOp31
 70
     1
102
RTVSPost2010Prop32
280
     0
102
RTVSPost2010PropOp32
 70
     1
102
RTVSPost2010Prop33
280
     0
102
RTVSPost2010PropOp33
 70
     1
102
RTVSPost2010Prop34
280
     0
102
RTVSPost2010PropOp34
 70
     1
102
RTVSPost2010Prop35
280
     0
102
RTVSPost2010PropOp35
 70
     1
102
RTVSPost2010Prop36
280
     0
102
RTVSPost2010PropOp36
 70
     1
102
RTVSPost2010Prop37
 90
       50
102
RTVSPost2010PropOp37
 70
     1
102
RTVSPost2010Prop38
140
0.0
102
RTVSPost2010PropOp38
 70
     1
102
RTVSPost2010Prop39
140
1.0
102
RTVSPost2010PropOp39
 70
     1
102
RTVSPost2010Prop40
 90
        0
102
RTVSPost2010PropOp40
 70
     1
102
RTVSPost2010Prop41ColorIndex
 90
       18
102
RTVSPost2010Prop41ColorRGB
 90
        0
102
RTVSPost2010PropOp41
 70
     1
102
RTVSPost2010Prop42
 90
       50
102
RTVSPost2010PropOp42
 70
     1
102
RTVSPost2010Prop43
 90
        3
102
RTVSPost2010PropOp43
 70
     1
102
RTVSPost2010Prop44ColorIndex
 90
        5
102
RTVSPost2010Prop44ColorRGB
 90
      255
102
RTVSPost2010PropOp44
 70
     1
102
RTVSPost2010Prop45
280
     0
102
RTVSPost2010PropOp45
 70
     1
102
RTVSPost2010Prop46
 90
       50
102
RTVSPost2010PropOp46
 70
     1
102
RTVSPost2010Prop47
 90
       50
102
RTVSPost2010PropOp47
 70
     1
102
RTVSPost2010Prop48
 90
       50
102
RTVSPost2010PropOp48
 70
     1
102
RTVSPost2010Prop49
280
     0
102
RTVSPost2010PropOp49
 70
     1
102
RTVSPost2010Prop50
 90
       50
102
RTVSPost2010PropOp50
 70
     1
102
RTVSPost2010Prop51ColorIndex
 90
      256
102
RTVSPost2010Prop51ColorRGB
 90
-16777216
102
RTVSPost2010PropOp51
 70
     0
102
RTVSPost2010Prop52
140
1.0
102
RTVSPost2010PropOp52
 70
     0
102
RTVSPost2010Prop53
 90
        2
102
RTVSPost2010PropOp53
 70
     1
102
RTVSPost2010Prop54
  1
strokes_ogs.tif
102
RTVSPost2010PropOp54
 70
     1
102
RTVSPost2010Prop55
280
     0
102
RTVSPost2010PropOp55
 70
     1
102
RTVSPost2010Prop56
140
1.0
102
RTVSPost2010PropOp56
 70
     1
102
RTVSPost2010Prop57
140
1.0
102
RTVSPost2010PropOp57
 70
     1
  0
XRECORD
  5
78E8
102
{ACAD_REACTORS
330
78E7
102
}
330
78E7
100
AcDbXrecord
280
     1
102
RTVSPost2010Prop28
280
     0
102
RTVSPost2010PropOp28
 70
     1
102
RTVSPost2010Prop29
280
     1
102
RTVSPost2010PropOp29
 70
     1
102
RTVSPost2010Prop30
280
     1
102
RTVSPost2010PropOp30
 70
     1
102
RTVSPost2010Prop31
280
     0
102
RTVSPost2010PropOp31
 70
     1
102
RTVSPost2010Prop32
280
     0
102
RTVSPost2010PropOp32
 70
     1
102
RTVSPost2010Prop33
280
     0
102
RTVSPost2010PropOp33
 70
     1
102
RTVSPost2010Prop34
280
     0
102
RTVSPost2010PropOp34
 70
     1
102
RTVSPost2010Prop35
280
     0
102
RTVSPost2010PropOp35
 70
     1
102
RTVSPost2010Prop36
280
     0
102
RTVSPost2010PropOp36
 70
     1
102
RTVSPost2010Prop37
 90
       50
102
RTVSPost2010PropOp37
 70
     1
102
RTVSPost2010Prop38
140
0.0
102
RTVSPost2010PropOp38
 70
     1
102
RTVSPost2010Prop39
140
1.0
102
RTVSPost2010PropOp39
 70
     1
102
RTVSPost2010Prop40
 90
        0
102
RTVSPost2010PropOp40
 70
     1
102
RTVSPost2010Prop41ColorIndex
 90
       18
102
RTVSPost2010Prop41ColorRGB
 90
        0
102
RTVSPost2010PropOp41
 70
     1
102
RTVSPost2010Prop42
 90
       50
102
RTVSPost2010PropOp42
 70
     1
102
RTVSPost2010Prop43
 90
        3
102
RTVSPost2010PropOp43
 70
     1
102
RTVSPost2010Prop44ColorIndex
 90
        5
102
RTVSPost2010Prop44ColorRGB
 90
      255
102
RTVSPost2010PropOp44
 70
     1
102
RTVSPost2010Prop45
280
     0
102
RTVSPost2010PropOp45
 70
     1
102
RTVSPost2010Prop46
 90
       50
102
RTVSPost2010PropOp46
 70
     1
102
RTVSPost2010Prop47
 90
       50
102
RTVSPost2010PropOp47
 70
     1
102
RTVSPost2010Prop48
 90
       50
102
RTVSPost2010PropOp48
 70
     1
102
RTVSPost2010Prop49
280
     0
102
RTVSPost2010PropOp49
 70
     1
102
RTVSPost2010Prop50
 90
       50
102
RTVSPost2010PropOp50
 70
     1
102
RTVSPost2010Prop51ColorIndex
 90
      256
102
RTVSPost2010Prop51ColorRGB
 90
-16777216
102
RTVSPost2010PropOp51
 70
     0
102
RTVSPost2010Prop52
140
1.0
102
RTVSPost2010PropOp52
 70
     0
102
RTVSPost2010Prop53
 90
        2
102
RTVSPost2010PropOp53
 70
     1
102
RTVSPost2010Prop54
  1
strokes_ogs.tif
102
RTVSPost2010PropOp54
 70
     1
102
RTVSPost2010Prop55
280
     0
102
RTVSPost2010PropOp55
 70
     1
102
RTVSPost2010Prop56
140
1.0
102
RTVSPost2010PropOp56
 70
     1
102
RTVSPost2010Prop57
140
1.0
102
RTVSPost2010PropOp57
 70
     1
  0
XRECORD
  5
78F0
102
{ACAD_REACTORS
330
78EF
102
}
330
78EF
100
AcDbXrecord
280
     1
102
RTVSPost2010Prop28
280
     0
102
RTVSPost2010PropOp28
 70
     1
102
RTVSPost2010Prop29
280
     1
102
RTVSPost2010PropOp29
 70
     1
102
RTVSPost2010Prop30
280
     1
102
RTVSPost2010PropOp30
 70
     1
102
RTVSPost2010Prop31
280
     0
102
RTVSPost2010PropOp31
 70
     1
102
RTVSPost2010Prop32
280
     0
102
RTVSPost2010PropOp32
 70
     1
102
RTVSPost2010Prop33
280
     0
102
RTVSPost2010PropOp33
 70
     1
102
RTVSPost2010Prop34
280
     0
102
RTVSPost2010PropOp34
 70
     1
102
RTVSPost2010Prop35
280
     0
102
RTVSPost2010PropOp35
 70
     1
102
RTVSPost2010Prop36
280
     0
102
RTVSPost2010PropOp36
 70
     1
102
RTVSPost2010Prop37
 90
       50
102
RTVSPost2010PropOp37
 70
     1
102
RTVSPost2010Prop38
140
0.0
102
RTVSPost2010PropOp38
 70
     1
102
RTVSPost2010Prop39
140
1.0
102
RTVSPost2010PropOp39
 70
     1
102
RTVSPost2010Prop40
 90
        0
102
RTVSPost2010PropOp40
 70
     1
102
RTVSPost2010Prop41ColorIndex
 90
       18
102
RTVSPost2010Prop41ColorRGB
 90
        0
102
RTVSPost2010PropOp41
 70
     1
102
RTVSPost2010Prop42
 90
       50
102
RTVSPost2010PropOp42
 70
     1
102
RTVSPost2010Prop43
 90
        3
102
RTVSPost2010PropOp43
 70
     1
102
RTVSPost2010Prop44ColorIndex
 90
        5
102
RTVSPost2010Prop44ColorRGB
 90
      255
102
RTVSPost2010PropOp44
 70
     1
102
RTVSPost2010Prop45
280
     0
102
RTVSPost2010PropOp45
 70
     1
102
RTVSPost2010Prop46
 90
       50
102
RTVSPost2010PropOp46
 70
     1
102
RTVSPost2010Prop47
 90
       50
102
RTVSPost2010PropOp47
 70
     1
102
RTVSPost2010Prop48
 90
       50
102
RTVSPost2010PropOp48
 70
     1
102
RTVSPost2010Prop49
280
     0
102
RTVSPost2010PropOp49
 70
     1
102
RTVSPost2010Prop50
 90
       50
102
RTVSPost2010PropOp50
 70
     1
102
RTVSPost2010Prop51ColorIndex
 90
      256
102
RTVSPost2010Prop51ColorRGB
 90
-16777216
102
RTVSPost2010PropOp51
 70
     0
102
RTVSPost2010Prop52
140
1.0
102
RTVSPost2010PropOp52
 70
     0
102
RTVSPost2010Prop53
 90
        2
102
RTVSPost2010PropOp53
 70
     1
102
RTVSPost2010Prop54
  1
strokes_ogs.tif
102
RTVSPost2010PropOp54
 70
     1
102
RTVSPost2010Prop55
280
     0
102
RTVSPost2010PropOp55
 70
     1
102
RTVSPost2010Prop56
140
1.0
102
RTVSPost2010PropOp56
 70
     1
102
RTVSPost2010Prop57
140
1.0
102
RTVSPost2010PropOp57
 70
     1
  0
XRECORD
  5
7902
102
{ACAD_REACTORS
330
7901
102
}
330
7901
100
AcDbXrecord
280
     1
102
RTVSPost2010Prop28
280
     0
102
RTVSPost2010PropOp28
 70
     1
102
RTVSPost2010Prop29
280
     1
102
RTVSPost2010PropOp29
 70
     1
102
RTVSPost2010Prop30
280
     1
102
RTVSPost2010PropOp30
 70
     1
102
RTVSPost2010Prop31
280
     0
102
RTVSPost2010PropOp31
 70
     1
102
RTVSPost2010Prop32
280
     0
102
RTVSPost2010PropOp32
 70
     1
102
RTVSPost2010Prop33
280
     0
102
RTVSPost2010PropOp33
 70
     1
102
RTVSPost2010Prop34
280
     0
102
RTVSPost2010PropOp34
 70
     1
102
RTVSPost2010Prop35
280
     0
102
RTVSPost2010PropOp35
 70
     1
102
RTVSPost2010Prop36
280
     0
102
RTVSPost2010PropOp36
 70
     1
102
RTVSPost2010Prop37
 90
       50
102
RTVSPost2010PropOp37
 70
     1
102
RTVSPost2010Prop38
140
0.0
102
RTVSPost2010PropOp38
 70
     1
102
RTVSPost2010Prop39
140
1.0
102
RTVSPost2010PropOp39
 70
     1
102
RTVSPost2010Prop40
 90
        0
102
RTVSPost2010PropOp40
 70
     1
102
RTVSPost2010Prop41ColorIndex
 90
       18
102
RTVSPost2010Prop41ColorRGB
 90
        0
102
RTVSPost2010PropOp41
 70
     1
102
RTVSPost2010Prop42
 90
       50
102
RTVSPost2010PropOp42
 70
     1
102
RTVSPost2010Prop43
 90
        3
102
RTVSPost2010PropOp43
 70
     1
102
RTVSPost2010Prop44ColorIndex
 90
        5
102
RTVSPost2010Prop44ColorRGB
 90
      255
102
RTVSPost2010PropOp44
 70
     1
102
RTVSPost2010Prop45
280
     0
102
RTVSPost2010PropOp45
 70
     1
102
RTVSPost2010Prop46
 90
       50
102
RTVSPost2010PropOp46
 70
     1
102
RTVSPost2010Prop47
 90
       50
102
RTVSPost2010PropOp47
 70
     1
102
RTVSPost2010Prop48
 90
       50
102
RTVSPost2010PropOp48
 70
     1
102
RTVSPost2010Prop49
280
     0
102
RTVSPost2010PropOp49
 70
     1
102
RTVSPost2010Prop50
 90
       50
102
RTVSPost2010PropOp50
 70
     1
102
RTVSPost2010Prop51ColorIndex
 90
      256
102
RTVSPost2010Prop51ColorRGB
 90
-16777216
102
RTVSPost2010PropOp51
 70
     0
102
RTVSPost2010Prop52
140
1.0
102
RTVSPost2010PropOp52
 70
     0
102
RTVSPost2010Prop53
 90
        2
102
RTVSPost2010PropOp53
 70
     1
102
RTVSPost2010Prop54
  1
strokes_ogs.tif
102
RTVSPost2010PropOp54
 70
     1
102
RTVSPost2010Prop55
280
     0
102
RTVSPost2010PropOp55
 70
     1
102
RTVSPost2010Prop56
140
1.0
102
RTVSPost2010PropOp56
 70
     1
102
RTVSPost2010Prop57
140
1.0
102
RTVSPost2010PropOp57
 70
     1
  0
XRECORD
  5
78FC
102
{ACAD_REACTORS
330
78FB
102
}
330
78FB
100
AcDbXrecord
280
     1
102
RTVSPost2010Prop28
280
     0
102
RTVSPost2010PropOp28
 70
     1
102
RTVSPost2010Prop29
280
     1
102
RTVSPost2010PropOp29
 70
     1
102
RTVSPost2010Prop30
280
     1
102
RTVSPost2010PropOp30
 70
     1
102
RTVSPost2010Prop31
280
     0
102
RTVSPost2010PropOp31
 70
     1
102
RTVSPost2010Prop32
280
     0
102
RTVSPost2010PropOp32
 70
     1
102
RTVSPost2010Prop33
280
     0
102
RTVSPost2010PropOp33
 70
     1
102
RTVSPost2010Prop34
280
     0
102
RTVSPost2010PropOp34
 70
     1
102
RTVSPost2010Prop35
280
     0
102
RTVSPost2010PropOp35
 70
     1
102
RTVSPost2010Prop36
280
     0
102
RTVSPost2010PropOp36
 70
     1
102
RTVSPost2010Prop37
 90
       50
102
RTVSPost2010PropOp37
 70
     1
102
RTVSPost2010Prop38
140
0.0
102
RTVSPost2010PropOp38
 70
     1
102
RTVSPost2010Prop39
140
1.0
102
RTVSPost2010PropOp39
 70
     1
102
RTVSPost2010Prop40
 90
        0
102
RTVSPost2010PropOp40
 70
     1
102
RTVSPost2010Prop41ColorIndex
 90
       18
102
RTVSPost2010Prop41ColorRGB
 90
        0
102
RTVSPost2010PropOp41
 70
     1
102
RTVSPost2010Prop42
 90
       50
102
RTVSPost2010PropOp42
 70
     1
102
RTVSPost2010Prop43
 90
        3
102
RTVSPost2010PropOp43
 70
     1
102
RTVSPost2010Prop44ColorIndex
 90
        5
102
RTVSPost2010Prop44ColorRGB
 90
      255
102
RTVSPost2010PropOp44
 70
     1
102
RTVSPost2010Prop45
280
     0
102
RTVSPost2010PropOp45
 70
     1
102
RTVSPost2010Prop46
 90
       50
102
RTVSPost2010PropOp46
 70
     1
102
RTVSPost2010Prop47
 90
       50
102
RTVSPost2010PropOp47
 70
     1
102
RTVSPost2010Prop48
 90
       50
102
RTVSPost2010PropOp48
 70
     1
102
RTVSPost2010Prop49
280
     0
102
RTVSPost2010PropOp49
 70
     1
102
RTVSPost2010Prop50
 90
       50
102
RTVSPost2010PropOp50
 70
     1
102
RTVSPost2010Prop51ColorIndex
 90
      256
102
RTVSPost2010Prop51ColorRGB
 90
-16777216
102
RTVSPost2010PropOp51
 70
     0
102
RTVSPost2010Prop52
140
1.0
102
RTVSPost2010PropOp52
 70
     0
102
RTVSPost2010Prop53
 90
        2
102
RTVSPost2010PropOp53
 70
     1
102
RTVSPost2010Prop54
  1
strokes_ogs.tif
102
RTVSPost2010PropOp54
 70
     1
102
RTVSPost2010Prop55
280
     0
102
RTVSPost2010PropOp55
 70
     1
102
RTVSPost2010Prop56
140
1.0
102
RTVSPost2010PropOp56
 70
     1
102
RTVSPost2010Prop57
140
1.0
102
RTVSPost2010PropOp57
 70
     1
  0
XRECORD
  5
7904
102
{ACAD_REACTORS
330
7903
102
}
330
7903
100
AcDbXrecord
280
     1
102
RTVSPost2010Prop28
280
     0
102
RTVSPost2010PropOp28
 70
     1
102
RTVSPost2010Prop29
280
     1
102
RTVSPost2010PropOp29
 70
     1
102
RTVSPost2010Prop30
280
     1
102
RTVSPost2010PropOp30
 70
     1
102
RTVSPost2010Prop31
280
     0
102
RTVSPost2010PropOp31
 70
     1
102
RTVSPost2010Prop32
280
     0
102
RTVSPost2010PropOp32
 70
     1
102
RTVSPost2010Prop33
280
     0
102
RTVSPost2010PropOp33
 70
     1
102
RTVSPost2010Prop34
280
     0
102
RTVSPost2010PropOp34
 70
     1
102
RTVSPost2010Prop35
280
     0
102
RTVSPost2010PropOp35
 70
     1
102
RTVSPost2010Prop36
280
     0
102
RTVSPost2010PropOp36
 70
     1
102
RTVSPost2010Prop37
 90
       50
102
RTVSPost2010PropOp37
 70
     1
102
RTVSPost2010Prop38
140
0.0
102
RTVSPost2010PropOp38
 70
     1
102
RTVSPost2010Prop39
140
1.0
102
RTVSPost2010PropOp39
 70
     1
102
RTVSPost2010Prop40
 90
        0
102
RTVSPost2010PropOp40
 70
     1
102
RTVSPost2010Prop41ColorIndex
 90
       18
102
RTVSPost2010Prop41ColorRGB
 90
        0
102
RTVSPost2010PropOp41
 70
     1
102
RTVSPost2010Prop42
 90
       50
102
RTVSPost2010PropOp42
 70
     1
102
RTVSPost2010Prop43
 90
        3
102
RTVSPost2010PropOp43
 70
     1
102
RTVSPost2010Prop44ColorIndex
 90
        5
102
RTVSPost2010Prop44ColorRGB
 90
      255
102
RTVSPost2010PropOp44
 70
     1
102
RTVSPost2010Prop45
280
     0
102
RTVSPost2010PropOp45
 70
     1
102
RTVSPost2010Prop46
 90
       50
102
RTVSPost2010PropOp46
 70
     1
102
RTVSPost2010Prop47
 90
       50
102
RTVSPost2010PropOp47
 70
     1
102
RTVSPost2010Prop48
 90
       50
102
RTVSPost2010PropOp48
 70
     1
102
RTVSPost2010Prop49
280
     0
102
RTVSPost2010PropOp49
 70
     1
102
RTVSPost2010Prop50
 90
       50
102
RTVSPost2010PropOp50
 70
     1
102
RTVSPost2010Prop51ColorIndex
 90
      256
102
RTVSPost2010Prop51ColorRGB
 90
-16777216
102
RTVSPost2010PropOp51
 70
     0
102
RTVSPost2010Prop52
140
1.0
102
RTVSPost2010PropOp52
 70
     0
102
RTVSPost2010Prop53
 90
        2
102
RTVSPost2010PropOp53
 70
     1
102
RTVSPost2010Prop54
  1
strokes_ogs.tif
102
RTVSPost2010PropOp54
 70
     1
102
RTVSPost2010Prop55
280
     0
102
RTVSPost2010PropOp55
 70
     1
102
RTVSPost2010Prop56
140
1.0
102
RTVSPost2010PropOp56
 70
     1
102
RTVSPost2010Prop57
140
1.0
102
RTVSPost2010PropOp57
 70
     1
  0
XRECORD
  5
78F4
102
{ACAD_REACTORS
330
78F3
102
}
330
78F3
100
AcDbXrecord
280
     1
102
RTVSPost2010Prop28
280
     0
102
RTVSPost2010PropOp28
 70
     1
102
RTVSPost2010Prop29
280
     1
102
RTVSPost2010PropOp29
 70
     1
102
RTVSPost2010Prop30
280
     1
102
RTVSPost2010PropOp30
 70
     1
102
RTVSPost2010Prop31
280
     0
102
RTVSPost2010PropOp31
 70
     1
102
RTVSPost2010Prop32
280
     0
102
RTVSPost2010PropOp32
 70
     1
102
RTVSPost2010Prop33
280
     0
102
RTVSPost2010PropOp33
 70
     1
102
RTVSPost2010Prop34
280
     0
102
RTVSPost2010PropOp34
 70
     1
102
RTVSPost2010Prop35
280
     0
102
RTVSPost2010PropOp35
 70
     1
102
RTVSPost2010Prop36
280
     0
102
RTVSPost2010PropOp36
 70
     1
102
RTVSPost2010Prop37
 90
       50
102
RTVSPost2010PropOp37
 70
     1
102
RTVSPost2010Prop38
140
0.0
102
RTVSPost2010PropOp38
 70
     1
102
RTVSPost2010Prop39
140
1.0
102
RTVSPost2010PropOp39
 70
     1
102
RTVSPost2010Prop40
 90
        0
102
RTVSPost2010PropOp40
 70
     1
102
RTVSPost2010Prop41ColorIndex
 90
       18
102
RTVSPost2010Prop41ColorRGB
 90
        0
102
RTVSPost2010PropOp41
 70
     1
102
RTVSPost2010Prop42
 90
       50
102
RTVSPost2010PropOp42
 70
     1
102
RTVSPost2010Prop43
 90
        3
102
RTVSPost2010PropOp43
 70
     1
102
RTVSPost2010Prop44ColorIndex
 90
        5
102
RTVSPost2010Prop44ColorRGB
 90
      255
102
RTVSPost2010PropOp44
 70
     1
102
RTVSPost2010Prop45
280
     0
102
RTVSPost2010PropOp45
 70
     1
102
RTVSPost2010Prop46
 90
       50
102
RTVSPost2010PropOp46
 70
     1
102
RTVSPost2010Prop47
 90
       50
102
RTVSPost2010PropOp47
 70
     1
102
RTVSPost2010Prop48
 90
       50
102
RTVSPost2010PropOp48
 70
     1
102
RTVSPost2010Prop49
280
     0
102
RTVSPost2010PropOp49
 70
     1
102
RTVSPost2010Prop50
 90
       50
102
RTVSPost2010PropOp50
 70
     1
102
RTVSPost2010Prop51ColorIndex
 90
      256
102
RTVSPost2010Prop51ColorRGB
 90
-16777216
102
RTVSPost2010PropOp51
 70
     0
102
RTVSPost2010Prop52
140
1.0
102
RTVSPost2010PropOp52
 70
     0
102
RTVSPost2010Prop53
 90
        2
102
RTVSPost2010PropOp53
 70
     1
102
RTVSPost2010Prop54
  1
strokes_ogs.tif
102
RTVSPost2010PropOp54
 70
     1
102
RTVSPost2010Prop55
280
     0
102
RTVSPost2010PropOp55
 70
     1
102
RTVSPost2010Prop56
140
1.0
102
RTVSPost2010PropOp56
 70
     1
102
RTVSPost2010Prop57
140
1.0
102
RTVSPost2010PropOp57
 70
     1
  0
XRECORD
  5
7910
102
{ACAD_REACTORS
330
790F
102
}
330
790F
100
AcDbXrecord
280
     1
102
RTVSPost2010Prop28
280
     0
102
RTVSPost2010PropOp28
 70
     1
102
RTVSPost2010Prop29
280
     1
102
RTVSPost2010PropOp29
 70
     1
102
RTVSPost2010Prop30
280
     1
102
RTVSPost2010PropOp30
 70
     1
102
RTVSPost2010Prop31
280
     0
102
RTVSPost2010PropOp31
 70
     1
102
RTVSPost2010Prop32
280
     0
102
RTVSPost2010PropOp32
 70
     1
102
RTVSPost2010Prop33
280
     0
102
RTVSPost2010PropOp33
 70
     1
102
RTVSPost2010Prop34
280
     0
102
RTVSPost2010PropOp34
 70
     1
102
RTVSPost2010Prop35
280
     0
102
RTVSPost2010PropOp35
 70
     1
102
RTVSPost2010Prop36
280
     0
102
RTVSPost2010PropOp36
 70
     1
102
RTVSPost2010Prop37
 90
       50
102
RTVSPost2010PropOp37
 70
     1
102
RTVSPost2010Prop38
140
0.0
102
RTVSPost2010PropOp38
 70
     1
102
RTVSPost2010Prop39
140
1.0
102
RTVSPost2010PropOp39
 70
     1
102
RTVSPost2010Prop40
 90
        0
102
RTVSPost2010PropOp40
 70
     1
102
RTVSPost2010Prop41ColorIndex
 90
       18
102
RTVSPost2010Prop41ColorRGB
 90
        0
102
RTVSPost2010PropOp41
 70
     1
102
RTVSPost2010Prop42
 90
       50
102
RTVSPost2010PropOp42
 70
     1
102
RTVSPost2010Prop43
 90
        3
102
RTVSPost2010PropOp43
 70
     1
102
RTVSPost2010Prop44ColorIndex
 90
        5
102
RTVSPost2010Prop44ColorRGB
 90
      255
102
RTVSPost2010PropOp44
 70
     1
102
RTVSPost2010Prop45
280
     0
102
RTVSPost2010PropOp45
 70
     1
102
RTVSPost2010Prop46
 90
       50
102
RTVSPost2010PropOp46
 70
     1
102
RTVSPost2010Prop47
 90
       50
102
RTVSPost2010PropOp47
 70
     1
102
RTVSPost2010Prop48
 90
       50
102
RTVSPost2010PropOp48
 70
     1
102
RTVSPost2010Prop49
280
     0
102
RTVSPost2010PropOp49
 70
     1
102
RTVSPost2010Prop50
 90
       50
102
RTVSPost2010PropOp50
 70
     1
102
RTVSPost2010Prop51ColorIndex
 90
      256
102
RTVSPost2010Prop51ColorRGB
 90
-16777216
102
RTVSPost2010PropOp51
 70
     0
102
RTVSPost2010Prop52
140
1.0
102
RTVSPost2010PropOp52
 70
     0
102
RTVSPost2010Prop53
 90
        2
102
RTVSPost2010PropOp53
 70
     1
102
RTVSPost2010Prop54
  1
strokes_ogs.tif
102
RTVSPost2010PropOp54
 70
     1
102
RTVSPost2010Prop55
280
     0
102
RTVSPost2010PropOp55
 70
     1
102
RTVSPost2010Prop56
140
1.0
102
RTVSPost2010PropOp56
 70
     1
102
RTVSPost2010Prop57
140
1.0
102
RTVSPost2010PropOp57
 70
     1
  0
XRECORD
  5
790E
102
{ACAD_REACTORS
330
790D
102
}
330
790D
100
AcDbXrecord
280
     1
102
RTVSPost2010Prop28
280
     0
102
RTVSPost2010PropOp28
 70
     1
102
RTVSPost2010Prop29
280
     1
102
RTVSPost2010PropOp29
 70
     1
102
RTVSPost2010Prop30
280
     1
102
RTVSPost2010PropOp30
 70
     1
102
RTVSPost2010Prop31
280
     0
102
RTVSPost2010PropOp31
 70
     1
102
RTVSPost2010Prop32
280
     0
102
RTVSPost2010PropOp32
 70
     1
102
RTVSPost2010Prop33
280
     0
102
RTVSPost2010PropOp33
 70
     1
102
RTVSPost2010Prop34
280
     0
102
RTVSPost2010PropOp34
 70
     1
102
RTVSPost2010Prop35
280
     0
102
RTVSPost2010PropOp35
 70
     1
102
RTVSPost2010Prop36
280
     0
102
RTVSPost2010PropOp36
 70
     1
102
RTVSPost2010Prop37
 90
       50
102
RTVSPost2010PropOp37
 70
     1
102
RTVSPost2010Prop38
140
0.0
102
RTVSPost2010PropOp38
 70
     1
102
RTVSPost2010Prop39
140
1.0
102
RTVSPost2010PropOp39
 70
     1
102
RTVSPost2010Prop40
 90
        0
102
RTVSPost2010PropOp40
 70
     1
102
RTVSPost2010Prop41ColorIndex
 90
       18
102
RTVSPost2010Prop41ColorRGB
 90
        0
102
RTVSPost2010PropOp41
 70
     1
102
RTVSPost2010Prop42
 90
       50
102
RTVSPost2010PropOp42
 70
     1
102
RTVSPost2010Prop43
 90
        3
102
RTVSPost2010PropOp43
 70
     1
102
RTVSPost2010Prop44ColorIndex
 90
        5
102
RTVSPost2010Prop44ColorRGB
 90
      255
102
RTVSPost2010PropOp44
 70
     1
102
RTVSPost2010Prop45
280
     0
102
RTVSPost2010PropOp45
 70
     1
102
RTVSPost2010Prop46
 90
       50
102
RTVSPost2010PropOp46
 70
     1
102
RTVSPost2010Prop47
 90
       50
102
RTVSPost2010PropOp47
 70
     1
102
RTVSPost2010Prop48
 90
       50
102
RTVSPost2010PropOp48
 70
     1
102
RTVSPost2010Prop49
280
     0
102
RTVSPost2010PropOp49
 70
     1
102
RTVSPost2010Prop50
 90
       50
102
RTVSPost2010PropOp50
 70
     1
102
RTVSPost2010Prop51ColorIndex
 90
      256
102
RTVSPost2010Prop51ColorRGB
 90
-16777216
102
RTVSPost2010PropOp51
 70
     0
102
RTVSPost2010Prop52
140
1.0
102
RTVSPost2010PropOp52
 70
     0
102
RTVSPost2010Prop53
 90
        2
102
RTVSPost2010PropOp53
 70
     1
102
RTVSPost2010Prop54
  1
strokes_ogs.tif
102
RTVSPost2010PropOp54
 70
     1
102
RTVSPost2010Prop55
280
     0
102
RTVSPost2010PropOp55
 70
     1
102
RTVSPost2010Prop56
140
1.0
102
RTVSPost2010PropOp56
 70
     1
102
RTVSPost2010Prop57
140
1.0
102
RTVSPost2010PropOp57
 70
     1
  0
XRECORD
  5
7908
102
{ACAD_REACTORS
330
7907
102
}
330
7907
100
AcDbXrecord
280
     1
102
RTVSPost2010Prop28
280
     0
102
RTVSPost2010PropOp28
 70
     1
102
RTVSPost2010Prop29
280
     1
102
RTVSPost2010PropOp29
 70
     1
102
RTVSPost2010Prop30
280
     1
102
RTVSPost2010PropOp30
 70
     1
102
RTVSPost2010Prop31
280
     0
102
RTVSPost2010PropOp31
 70
     1
102
RTVSPost2010Prop32
280
     0
102
RTVSPost2010PropOp32
 70
     1
102
RTVSPost2010Prop33
280
     0
102
RTVSPost2010PropOp33
 70
     1
102
RTVSPost2010Prop34
280
     0
102
RTVSPost2010PropOp34
 70
     1
102
RTVSPost2010Prop35
280
     0
102
RTVSPost2010PropOp35
 70
     1
102
RTVSPost2010Prop36
280
     0
102
RTVSPost2010PropOp36
 70
     1
102
RTVSPost2010Prop37
 90
       50
102
RTVSPost2010PropOp37
 70
     1
102
RTVSPost2010Prop38
140
0.0
102
RTVSPost2010PropOp38
 70
     1
102
RTVSPost2010Prop39
140
1.0
102
RTVSPost2010PropOp39
 70
     1
102
RTVSPost2010Prop40
 90
        0
102
RTVSPost2010PropOp40
 70
     1
102
RTVSPost2010Prop41ColorIndex
 90
       18
102
RTVSPost2010Prop41ColorRGB
 90
        0
102
RTVSPost2010PropOp41
 70
     1
102
RTVSPost2010Prop42
 90
       50
102
RTVSPost2010PropOp42
 70
     1
102
RTVSPost2010Prop43
 90
        3
102
RTVSPost2010PropOp43
 70
     1
102
RTVSPost2010Prop44ColorIndex
 90
        5
102
RTVSPost2010Prop44ColorRGB
 90
      255
102
RTVSPost2010PropOp44
 70
     1
102
RTVSPost2010Prop45
280
     0
102
RTVSPost2010PropOp45
 70
     1
102
RTVSPost2010Prop46
 90
       50
102
RTVSPost2010PropOp46
 70
     1
102
RTVSPost2010Prop47
 90
       50
102
RTVSPost2010PropOp47
 70
     1
102
RTVSPost2010Prop48
 90
       50
102
RTVSPost2010PropOp48
 70
     1
102
RTVSPost2010Prop49
280
     0
102
RTVSPost2010PropOp49
 70
     1
102
RTVSPost2010Prop50
 90
       50
102
RTVSPost2010PropOp50
 70
     1
102
RTVSPost2010Prop51ColorIndex
 90
      256
102
RTVSPost2010Prop51ColorRGB
 90
-16777216
102
RTVSPost2010PropOp51
 70
     0
102
RTVSPost2010Prop52
140
1.0
102
RTVSPost2010PropOp52
 70
     0
102
RTVSPost2010Prop53
 90
        2
102
RTVSPost2010PropOp53
 70
     1
102
RTVSPost2010Prop54
  1
strokes_ogs.tif
102
RTVSPost2010PropOp54
 70
     1
102
RTVSPost2010Prop55
280
     0
102
RTVSPost2010PropOp55
 70
     1
102
RTVSPost2010Prop56
140
1.0
102
RTVSPost2010PropOp56
 70
     1
102
RTVSPost2010Prop57
140
1.0
102
RTVSPost2010PropOp57
 70
     1
  0
XRECORD
  5
790A
102
{ACAD_REACTORS
330
7909
102
}
330
7909
100
AcDbXrecord
280
     1
102
RTVSPost2010Prop28
280
     0
102
RTVSPost2010PropOp28
 70
     1
102
RTVSPost2010Prop29
280
     1
102
RTVSPost2010PropOp29
 70
     1
102
RTVSPost2010Prop30
280
     1
102
RTVSPost2010PropOp30
 70
     1
102
RTVSPost2010Prop31
280
     0
102
RTVSPost2010PropOp31
 70
     1
102
RTVSPost2010Prop32
280
     0
102
RTVSPost2010PropOp32
 70
     1
102
RTVSPost2010Prop33
280
     0
102
RTVSPost2010PropOp33
 70
     1
102
RTVSPost2010Prop34
280
     0
102
RTVSPost2010PropOp34
 70
     1
102
RTVSPost2010Prop35
280
     0
102
RTVSPost2010PropOp35
 70
     1
102
RTVSPost2010Prop36
280
     0
102
RTVSPost2010PropOp36
 70
     1
102
RTVSPost2010Prop37
 90
       50
102
RTVSPost2010PropOp37
 70
     1
102
RTVSPost2010Prop38
140
0.0
102
RTVSPost2010PropOp38
 70
     1
102
RTVSPost2010Prop39
140
1.0
102
RTVSPost2010PropOp39
 70
     1
102
RTVSPost2010Prop40
 90
        0
102
RTVSPost2010PropOp40
 70
     1
102
RTVSPost2010Prop41ColorIndex
 90
       18
102
RTVSPost2010Prop41ColorRGB
 90
        0
102
RTVSPost2010PropOp41
 70
     1
102
RTVSPost2010Prop42
 90
       50
102
RTVSPost2010PropOp42
 70
     1
102
RTVSPost2010Prop43
 90
        3
102
RTVSPost2010PropOp43
 70
     1
102
RTVSPost2010Prop44ColorIndex
 90
        5
102
RTVSPost2010Prop44ColorRGB
 90
      255
102
RTVSPost2010PropOp44
 70
     1
102
RTVSPost2010Prop45
280
     0
102
RTVSPost2010PropOp45
 70
     1
102
RTVSPost2010Prop46
 90
       50
102
RTVSPost2010PropOp46
 70
     1
102
RTVSPost2010Prop47
 90
       50
102
RTVSPost2010PropOp47
 70
     1
102
RTVSPost2010Prop48
 90
       50
102
RTVSPost2010PropOp48
 70
     1
102
RTVSPost2010Prop49
280
     0
102
RTVSPost2010PropOp49
 70
     1
102
RTVSPost2010Prop50
 90
       50
102
RTVSPost2010PropOp50
 70
     1
102
RTVSPost2010Prop51ColorIndex
 90
      256
102
RTVSPost2010Prop51ColorRGB
 90
-16777216
102
RTVSPost2010PropOp51
 70
     0
102
RTVSPost2010Prop52
140
1.0
102
RTVSPost2010PropOp52
 70
     0
102
RTVSPost2010Prop53
 90
        2
102
RTVSPost2010PropOp53
 70
     1
102
RTVSPost2010Prop54
  1
strokes_ogs.tif
102
RTVSPost2010PropOp54
 70
     1
102
RTVSPost2010Prop55
280
     0
102
RTVSPost2010PropOp55
 70
     1
102
RTVSPost2010Prop56
140
1.0
102
RTVSPost2010PropOp56
 70
     1
102
RTVSPost2010Prop57
140
1.0
102
RTVSPost2010PropOp57
 70
     1
  0
XRECORD
  5
78FA
102
{ACAD_REACTORS
330
78F9
102
}
330
78F9
100
AcDbXrecord
280
     1
102
RTVSPost2010Prop28
280
     0
102
RTVSPost2010PropOp28
 70
     1
102
RTVSPost2010Prop29
280
     1
102
RTVSPost2010PropOp29
 70
     1
102
RTVSPost2010Prop30
280
     1
102
RTVSPost2010PropOp30
 70
     1
102
RTVSPost2010Prop31
280
     0
102
RTVSPost2010PropOp31
 70
     1
102
RTVSPost2010Prop32
280
     0
102
RTVSPost2010PropOp32
 70
     1
102
RTVSPost2010Prop33
280
     0
102
RTVSPost2010PropOp33
 70
     1
102
RTVSPost2010Prop34
280
     0
102
RTVSPost2010PropOp34
 70
     1
102
RTVSPost2010Prop35
280
     0
102
RTVSPost2010PropOp35
 70
     1
102
RTVSPost2010Prop36
280
     0
102
RTVSPost2010PropOp36
 70
     1
102
RTVSPost2010Prop37
 90
       50
102
RTVSPost2010PropOp37
 70
     1
102
RTVSPost2010Prop38
140
0.0
102
RTVSPost2010PropOp38
 70
     1
102
RTVSPost2010Prop39
140
1.0
102
RTVSPost2010PropOp39
 70
     1
102
RTVSPost2010Prop40
 90
        0
102
RTVSPost2010PropOp40
 70
     1
102
RTVSPost2010Prop41ColorIndex
 90
       18
102
RTVSPost2010Prop41ColorRGB
 90
        0
102
RTVSPost2010PropOp41
 70
     1
102
RTVSPost2010Prop42
 90
       50
102
RTVSPost2010PropOp42
 70
     1
102
RTVSPost2010Prop43
 90
        3
102
RTVSPost2010PropOp43
 70
     1
102
RTVSPost2010Prop44ColorIndex
 90
        5
102
RTVSPost2010Prop44ColorRGB
 90
      255
102
RTVSPost2010PropOp44
 70
     1
102
RTVSPost2010Prop45
280
     0
102
RTVSPost2010PropOp45
 70
     1
102
RTVSPost2010Prop46
 90
       50
102
RTVSPost2010PropOp46
 70
     1
102
RTVSPost2010Prop47
 90
       50
102
RTVSPost2010PropOp47
 70
     1
102
RTVSPost2010Prop48
 90
       50
102
RTVSPost2010PropOp48
 70
     1
102
RTVSPost2010Prop49
280
     0
102
RTVSPost2010PropOp49
 70
     1
102
RTVSPost2010Prop50
 90
       50
102
RTVSPost2010PropOp50
 70
     1
102
RTVSPost2010Prop51ColorIndex
 90
      256
102
RTVSPost2010Prop51ColorRGB
 90
-16777216
102
RTVSPost2010PropOp51
 70
     0
102
RTVSPost2010Prop52
140
1.0
102
RTVSPost2010PropOp52
 70
     0
102
RTVSPost2010Prop53
 90
        2
102
RTVSPost2010PropOp53
 70
     1
102
RTVSPost2010Prop54
  1
strokes_ogs.tif
102
RTVSPost2010PropOp54
 70
     1
102
RTVSPost2010Prop55
280
     0
102
RTVSPost2010PropOp55
 70
     1
102
RTVSPost2010Prop56
140
1.0
102
RTVSPost2010PropOp56
 70
     1
102
RTVSPost2010Prop57
140
1.0
102
RTVSPost2010PropOp57
 70
     1
  0
XRECORD
  5
78EE
102
{ACAD_REACTORS
330
78ED
102
}
330
78ED
100
AcDbXrecord
280
     1
102
RTVSPost2010Prop28
280
     0
102
RTVSPost2010PropOp28
 70
     1
102
RTVSPost2010Prop29
280
     1
102
RTVSPost2010PropOp29
 70
     1
102
RTVSPost2010Prop30
280
     1
102
RTVSPost2010PropOp30
 70
     1
102
RTVSPost2010Prop31
280
     0
102
RTVSPost2010PropOp31
 70
     1
102
RTVSPost2010Prop32
280
     0
102
RTVSPost2010PropOp32
 70
     1
102
RTVSPost2010Prop33
280
     0
102
RTVSPost2010PropOp33
 70
     1
102
RTVSPost2010Prop34
280
     0
102
RTVSPost2010PropOp34
 70
     1
102
RTVSPost2010Prop35
280
     0
102
RTVSPost2010PropOp35
 70
     1
102
RTVSPost2010Prop36
280
     0
102
RTVSPost2010PropOp36
 70
     1
102
RTVSPost2010Prop37
 90
       50
102
RTVSPost2010PropOp37
 70
     1
102
RTVSPost2010Prop38
140
0.0
102
RTVSPost2010PropOp38
 70
     1
102
RTVSPost2010Prop39
140
1.0
102
RTVSPost2010PropOp39
 70
     1
102
RTVSPost2010Prop40
 90
        0
102
RTVSPost2010PropOp40
 70
     1
102
RTVSPost2010Prop41ColorIndex
 90
       18
102
RTVSPost2010Prop41ColorRGB
 90
        0
102
RTVSPost2010PropOp41
 70
     1
102
RTVSPost2010Prop42
 90
       50
102
RTVSPost2010PropOp42
 70
     1
102
RTVSPost2010Prop43
 90
        3
102
RTVSPost2010PropOp43
 70
     1
102
RTVSPost2010Prop44ColorIndex
 90
        5
102
RTVSPost2010Prop44ColorRGB
 90
      255
102
RTVSPost2010PropOp44
 70
     1
102
RTVSPost2010Prop45
280
     0
102
RTVSPost2010PropOp45
 70
     1
102
RTVSPost2010Prop46
 90
       50
102
RTVSPost2010PropOp46
 70
     1
102
RTVSPost2010Prop47
 90
       50
102
RTVSPost2010PropOp47
 70
     1
102
RTVSPost2010Prop48
 90
       50
102
RTVSPost2010PropOp48
 70
     1
102
RTVSPost2010Prop49
280
     0
102
RTVSPost2010PropOp49
 70
     1
102
RTVSPost2010Prop50
 90
       50
102
RTVSPost2010PropOp50
 70
     1
102
RTVSPost2010Prop51ColorIndex
 90
      256
102
RTVSPost2010Prop51ColorRGB
 90
-16777216
102
RTVSPost2010PropOp51
 70
     0
102
RTVSPost2010Prop52
140
1.0
102
RTVSPost2010PropOp52
 70
     0
102
RTVSPost2010Prop53
 90
        2
102
RTVSPost2010PropOp53
 70
     1
102
RTVSPost2010Prop54
  1
strokes_ogs.tif
102
RTVSPost2010PropOp54
 70
     1
102
RTVSPost2010Prop55
280
     0
102
RTVSPost2010PropOp55
 70
     1
102
RTVSPost2010Prop56
140
1.0
102
RTVSPost2010PropOp56
 70
     1
102
RTVSPost2010Prop57
140
1.0
102
RTVSPost2010PropOp57
 70
     1
  0
XRECORD
  5
790C
102
{ACAD_REACTORS
330
790B
102
}
330
790B
100
AcDbXrecord
280
     1
102
RTVSPost2010Prop28
280
     0
102
RTVSPost2010PropOp28
 70
     1
102
RTVSPost2010Prop29
280
     1
102
RTVSPost2010PropOp29
 70
     1
102
RTVSPost2010Prop30
280
     1
102
RTVSPost2010PropOp30
 70
     1
102
RTVSPost2010Prop31
280
     0
102
RTVSPost2010PropOp31
 70
     1
102
RTVSPost2010Prop32
280
     0
102
RTVSPost2010PropOp32
 70
     1
102
RTVSPost2010Prop33
280
     0
102
RTVSPost2010PropOp33
 70
     1
102
RTVSPost2010Prop34
280
     0
102
RTVSPost2010PropOp34
 70
     1
102
RTVSPost2010Prop35
280
     0
102
RTVSPost2010PropOp35
 70
     1
102
RTVSPost2010Prop36
280
     0
102
RTVSPost2010PropOp36
 70
     1
102
RTVSPost2010Prop37
 90
       50
102
RTVSPost2010PropOp37
 70
     1
102
RTVSPost2010Prop38
140
0.0
102
RTVSPost2010PropOp38
 70
     1
102
RTVSPost2010Prop39
140
1.0
102
RTVSPost2010PropOp39
 70
     1
102
RTVSPost2010Prop40
 90
        0
102
RTVSPost2010PropOp40
 70
     1
102
RTVSPost2010Prop41ColorIndex
 90
       18
102
RTVSPost2010Prop41ColorRGB
 90
        0
102
RTVSPost2010PropOp41
 70
     1
102
RTVSPost2010Prop42
 90
       50
102
RTVSPost2010PropOp42
 70
     1
102
RTVSPost2010Prop43
 90
        3
102
RTVSPost2010PropOp43
 70
     1
102
RTVSPost2010Prop44ColorIndex
 90
        5
102
RTVSPost2010Prop44ColorRGB
 90
      255
102
RTVSPost2010PropOp44
 70
     1
102
RTVSPost2010Prop45
280
     0
102
RTVSPost2010PropOp45
 70
     1
102
RTVSPost2010Prop46
 90
       50
102
RTVSPost2010PropOp46
 70
     1
102
RTVSPost2010Prop47
 90
       50
102
RTVSPost2010PropOp47
 70
     1
102
RTVSPost2010Prop48
 90
       50
102
RTVSPost2010PropOp48
 70
     1
102
RTVSPost2010Prop49
280
     0
102
RTVSPost2010PropOp49
 70
     1
102
RTVSPost2010Prop50
 90
       50
102
RTVSPost2010PropOp50
 70
     1
102
RTVSPost2010Prop51ColorIndex
 90
      256
102
RTVSPost2010Prop51ColorRGB
 90
-16777216
102
RTVSPost2010PropOp51
 70
     0
102
RTVSPost2010Prop52
140
1.0
102
RTVSPost2010PropOp52
 70
     0
102
RTVSPost2010Prop53
 90
        2
102
RTVSPost2010PropOp53
 70
     1
102
RTVSPost2010Prop54
  1
strokes_ogs.tif
102
RTVSPost2010PropOp54
 70
     1
102
RTVSPost2010Prop55
280
     0
102
RTVSPost2010PropOp55
 70
     1
102
RTVSPost2010Prop56
140
1.0
102
RTVSPost2010PropOp56
 70
     1
102
RTVSPost2010Prop57
140
1.0
102
RTVSPost2010PropOp57
 70
     1
  0
XRECORD
  5
6B4C
102
{ACAD_REACTORS
330
6B4B
102
}
330
6B4B
100
AcDbXrecord
280
     1
1071
 82437801
1071
112294725
 70
    25
 70
   104
 10
0.0
 20
0.0
 30
0.0
  0
XRECORD
  5
6AAF
102
{ACAD_REACTORS
330
6AAE
102
}
330
6AAE
100
AcDbXrecord
280
     1
1071
 82437801
1071
112294725
 70
    25
 70
   104
 10
0.0
 20
0.0
 30
0.0
  0
XRECORD
  5
6ABE
102
{ACAD_REACTORS
330
6ABD
102
}
330
6ABD
100
AcDbXrecord
280
     1
1071
 82437801
1071
112294725
 70
    25
 70
   104
 10
0.0
 20
0.0
 30
0.0
  0
XRECORD
  5
6AD1
102
{ACAD_REACTORS
330
6AD0
102
}
330
6AD0
100
AcDbXrecord
280
     1
1071
 82437801
1071
112294725
 70
    25
 70
   104
 10
0.0
 20
0.0
 30
0.0
  0
XRECORD
  5
6ADC
102
{ACAD_REACTORS
330
6ADB
102
}
330
6ADB
100
AcDbXrecord
280
     1
1071
 82437801
1071
112294725
 70
    25
 70
   104
 10
0.0
 20
0.0
 30
0.0
  0
XRECORD
  5
6AF2
102
{ACAD_REACTORS
330
6AF1
102
}
330
6AF1
100
AcDbXrecord
280
     1
1071
 82437801
1071
112294725
 70
    25
 70
   104
 10
0.0
 20
0.0
 30
0.0
  0
XRECORD
  5
6AFD
102
{ACAD_REACTORS
330
6AFC
102
}
330
6AFC
100
AcDbXrecord
280
     1
1071
 82437801
1071
112294725
 70
    25
 70
   104
 10
0.0
 20
0.0
 30
0.0
  0
XRECORD
  5
6B08
102
{ACAD_REACTORS
330
6B07
102
}
330
6B07
100
AcDbXrecord
280
     1
1071
 82437801
1071
112294725
 70
    25
 70
   104
 10
0.0
 20
0.0
 30
0.0
  0
XRECORD
  5
6B13
102
{ACAD_REACTORS
330
6B12
102
}
330
6B12
100
AcDbXrecord
280
     1
1071
 82437801
1071
112294725
 70
    25
 70
   104
 10
0.0
 20
0.0
 30
0.0
  0
XRECORD
  5
6B1E
102
{ACAD_REACTORS
330
6B1D
102
}
330
6B1D
100
AcDbXrecord
280
     1
1071
 82437801
1071
112294725
 70
    25
 70
   104
 10
0.0
 20
0.0
 30
0.0
  0
XRECORD
  5
6B29
102
{ACAD_REACTORS
330
6B28
102
}
330
6B28
100
AcDbXrecord
280
     1
1071
 82437801
1071
112294725
 70
    25
 70
   104
 10
0.0
 20
0.0
 30
0.0
  0
XRECORD
  5
6B3F
102
{ACAD_REACTORS
330
6B3E
102
}
330
6B3E
100
AcDbXrecord
280
     1
1071
 82437801
1071
112294725
 70
    25
 70
   104
 10
0.0
 20
0.0
 30
0.0
  0
XRECORD
  5
7410
102
{ACAD_REACTORS
330
740F
102
}
330
740F
100
AcDbXrecord
280
     1
1071
 82437801
1071
112294725
 70
    25
 70
   104
 10
0.0
 20
0.0
 30
0.0
  0
XRECORD
  5
7417
102
{ACAD_REACTORS
330
7416
102
}
330
7416
100
AcDbXrecord
280
     1
1071
 82437801
1071
112294725
 70
    25
 70
   104
 10
0.0
 20
0.0
 30
0.0
  0
XRECORD
  5
741F
102
{ACAD_REACTORS
330
741E
102
}
330
741E
100
AcDbXrecord
280
     1
1071
 82437801
1071
112294725
 70
    25
 70
   104
 10
0.0
 20
0.0
 30
0.0
  0
XRECORD
  5
7532
102
{ACAD_REACTORS
330
7531
102
}
330
7531
100
AcDbXrecord
280
     1
1071
 82437801
1071
112294725
 70
    25
 70
   104
 10
0.0
 20
0.0
 30
0.0
  0
XRECORD
  5
753A
102
{ACAD_REACTORS
330
7539
102
}
330
7539
100
AcDbXrecord
280
     1
1071
 82437801
1071
112294725
 70
    25
 70
   104
 10
0.0
 20
0.0
 30
0.0
  0
XRECORD
  5
7541
102
{ACAD_REACTORS
330
7540
102
}
330
7540
100
AcDbXrecord
280
     1
1071
 82437801
1071
112294725
 70
    25
 70
   104
 10
0.0
 20
0.0
 30
0.0
  0
XRECORD
  5
7548
102
{ACAD_REACTORS
330
7547
102
}
330
7547
100
AcDbXrecord
280
     1
1071
 82437801
1071
112294725
 70
    25
 70
   104
 10
0.0
 20
0.0
 30
0.0
  0
XRECORD
  5
754F
102
{ACAD_REACTORS
330
754E
102
}
330
754E
100
AcDbXrecord
280
     1
1071
 82437801
1071
112294725
 70
    25
 70
   104
 10
0.0
 20
0.0
 30
0.0
  0
XRECORD
  5
7557
102
{ACAD_REACTORS
330
7556
102
}
330
7556
100
AcDbXrecord
280
     1
1071
 82437801
1071
112294725
 70
    25
 70
   104
 10
0.0
 20
0.0
 30
0.0
  0
XRECORD
  5
755E
102
{ACAD_REACTORS
330
755D
102
}
330
755D
100
AcDbXrecord
280
     1
1071
 82437801
1071
112294725
 70
    25
 70
   104
 10
0.0
 20
0.0
 30
0.0
  0
XRECORD
  5
7566
102
{ACAD_REACTORS
330
7565
102
}
330
7565
100
AcDbXrecord
280
     1
1071
 82437801
1071
112294725
 70
    25
 70
   104
 10
0.0
 20
0.0
 30
0.0
  0
XRECORD
  5
764A
102
{ACAD_REACTORS
330
7649
102
}
330
7649
100
AcDbXrecord
280
     1
1071
 82437801
1071
112294725
 70
    25
 70
   104
 10
0.0
 20
0.0
 30
0.0
  0
XRECORD
  5
7653
102
{ACAD_REACTORS
330
7652
102
}
330
7652
100
AcDbXrecord
280
     1
1071
 82437801
1071
112294725
 70
    25
 70
   104
 10
0.0
 20
0.0
 30
0.0
  0
XRECORD
  5
765B
102
{ACAD_REACTORS
330
765A
102
}
330
765A
100
AcDbXrecord
280
     1
1071
 82437801
1071
112294725
 70
    25
 70
   104
 10
0.0
 20
0.0
 30
0.0
  0
XRECORD
  5
7724
102
{ACAD_REACTORS
330
7723
102
}
330
7723
100
AcDbXrecord
280
     1
1071
 82437801
1071
112294725
 70
    25
 70
   104
 10
0.0
 20
0.0
 30
0.0
  0
XRECORD
  5
772B
102
{ACAD_REACTORS
330
772A
102
}
330
772A
100
AcDbXrecord
280
     1
1071
 82437801
1071
112294725
 70
    25
 70
   104
 10
0.0
 20
0.0
 30
0.0
  0
XRECORD
  5
7733
102
{ACAD_REACTORS
330
7732
102
}
330
7732
100
AcDbXrecord
280
     1
1071
 82437801
1071
112294725
 70
    25
 70
   104
 10
0.0
 20
0.0
 30
0.0
  0
XRECORD
  5
773B
102
{ACAD_REACTORS
330
773A
102
}
330
773A
100
AcDbXrecord
280
     1
1071
 82437801
1071
112294725
 70
    25
 70
   104
 10
0.0
 20
0.0
 30
0.0
  0
XRECORD
  5
7742
102
{ACAD_REACTORS
330
7741
102
}
330
7741
100
AcDbXrecord
280
     1
1071
 82437801
1071
112294725
 70
    25
 70
   104
 10
0.0
 20
0.0
 30
0.0
  0
XRECORD
  5
77E3
102
{ACAD_REACTORS
330
77E2
102
}
330
77E2
100
AcDbXrecord
280
     1
1071
 82437801
1071
112294725
 70
    25
 70
   104
 10
0.0
 20
0.0
 30
0.0
  0
XRECORD
  5
77EB
102
{ACAD_REACTORS
330
77EA
102
}
330
77EA
100
AcDbXrecord
280
     1
1071
 82437801
1071
112294725
 70
    25
 70
   104
 10
0.0
 20
0.0
 30
0.0
  0
XRECORD
  5
77F2
102
{ACAD_REACTORS
330
77F1
102
}
330
77F1
100
AcDbXrecord
280
     1
1071
 82437801
1071
112294725
 70
    25
 70
   104
 10
0.0
 20
0.0
 30
0.0
  0
XRECORD
  5
77FB
102
{ACAD_REACTORS
330
77FA
102
}
330
77FA
100
AcDbXrecord
280
     1
1071
 82437801
1071
112294725
 70
    25
 70
   104
 10
0.0
 20
0.0
 30
0.0
  0
ENDSEC
  0
EOF
